  0
SECTION
  2
HEADER
  9
$ACADVER
  1
AC1032
  9
$ACADMAINTVER
 90
      228
  9
$DWGCODEPAGE
  3
ANSI_932
  9
$REQUIREDVERSIONS
160
                 0
  9
$INSBASE
 10
0.0
 20
0.0
 30
0.0
  9
$EXTMIN
 10
1.000000000000000E+20
 20
1.000000000000000E+20
 30
1.000000000000000E+20
  9
$EXTMAX
 10
-1.000000000000000E+20
 20
-1.000000000000000E+20
 30
-1.000000000000000E+20
  9
$LIMMIN
 10
0.0
 20
0.0
  9
$LIMMAX
 10
12.0
 20
9.0
  9
$ORTHOMODE
 70
     0
  9
$REGENMODE
 70
     1
  9
$FILLMODE
 70
     1
  9
$QTEXTMODE
 70
     0
  9
$MIRRTEXT
 70
     0
  9
$LTSCALE
 40
1.0
  9
$ATTMODE
 70
     1
  9
$TEXTSIZE
 40
0.2
  9
$TRACEWID
 40
0.05
  9
$TEXTSTYLE
  7
Standard
  9
$CLAYER
  8
0
  9
$CELTYPE
  6
ByLayer
  9
$CECOLOR
 62
   256
  9
$CELTSCALE
 40
1.0
  9
$DISPSILH
 70
     0
  9
$DIMSCALE
 40
1.0
  9
$DIMASZ
 40
0.18
  9
$DIMEXO
 40
0.0625
  9
$DIMDLI
 40
0.38
  9
$DIMRND
 40
0.0
  9
$DIMDLE
 40
0.0
  9
$DIMEXE
 40
0.18
  9
$DIMTP
 40
0.0
  9
$DIMTM
 40
0.0
  9
$DIMTXT
 40
0.18
  9
$DIMCEN
 40
0.09
  9
$DIMTSZ
 40
0.0
  9
$DIMTOL
 70
     0
  9
$DIMLIM
 70
     0
  9
$DIMTIH
 70
     1
  9
$DIMTOH
 70
     1
  9
$DIMSE1
 70
     0
  9
$DIMSE2
 70
     0
  9
$DIMTAD
 70
     0
  9
$DIMZIN
 70
     0
  9
$DIMBLK
  1

  9
$DIMASO
 70
     1
  9
$DIMSHO
 70
     1
  9
$DIMPOST
  1

  9
$DIMAPOST
  1

  9
$DIMALT
 70
     0
  9
$DIMALTD
 70
     2
  9
$DIMALTF
 40
25.4
  9
$DIMLFAC
 40
1.0
  9
$DIMTOFL
 70
     0
  9
$DIMTVP
 40
0.0
  9
$DIMTIX
 70
     0
  9
$DIMSOXD
 70
     0
  9
$DIMSAH
 70
     0
  9
$DIMBLK1
  1

  9
$DIMBLK2
  1

  9
$DIMSTYLE
  2
Standard
  9
$DIMCLRD
 70
     0
  9
$DIMCLRE
 70
     0
  9
$DIMCLRT
 70
     0
  9
$DIMTFAC
 40
1.0
  9
$DIMGAP
 40
0.09
  9
$DIMJUST
 70
     0
  9
$DIMSD1
 70
     0
  9
$DIMSD2
 70
     0
  9
$DIMTOLJ
 70
     1
  9
$DIMTZIN
 70
     0
  9
$DIMALTZ
 70
     0
  9
$DIMALTTZ
 70
     0
  9
$DIMUPT
 70
     0
  9
$DIMDEC
 70
     4
  9
$DIMTDEC
 70
     4
  9
$DIMALTU
 70
     2
  9
$DIMALTTD
 70
     2
  9
$DIMTXSTY
  7
Standard
  9
$DIMAUNIT
 70
     0
  9
$DIMADEC
 70
     0
  9
$DIMALTRND
 40
0.0
  9
$DIMAZIN
 70
     0
  9
$DIMDSEP
 70
    46
  9
$DIMATFIT
 70
     3
  9
$DIMFRAC
 70
     0
  9
$DIMLDRBLK
  1

  9
$DIMLUNIT
 70
     2
  9
$DIMLWD
 70
    -2
  9
$DIMLWE
 70
    -2
  9
$DIMTMOVE
 70
     0
  9
$DIMFXL
 40
1.0
  9
$DIMFXLON
 70
     0
  9
$DIMJOGANG
 40
0.7853981633974483
  9
$DIMTFILL
 70
     0
  9
$DIMTFILLCLR
 70
     0
  9
$DIMARCSYM
 70
     0
  9
$DIMLTYPE
  6

  9
$DIMLTEX1
  6

  9
$DIMLTEX2
  6

  9
$DIMTXTDIRECTION
 70
     0
  9
$LUNITS
 70
     2
  9
$LUPREC
 70
     4
  9
$SKETCHINC
 40
0.1
  9
$FILLETRAD
 40
0.0
  9
$AUNITS
 70
     0
  9
$AUPREC
 70
     0
  9
$MENU
  1
.
  9
$ELEVATION
 40
0.0
  9
$PELEVATION
 40
0.0
  9
$THICKNESS
 40
0.0
  9
$LIMCHECK
 70
     0
  9
$CHAMFERA
 40
0.0
  9
$CHAMFERB
 40
0.0
  9
$CHAMFERC
 40
0.0
  9
$CHAMFERD
 40
0.0
  9
$SKPOLY
 70
     0
  9
$TDCREATE
 40
2460061.649444444
  9
$TDUCREATE
 40
2460061.274444445
  9
$TDUPDATE
 40
2460061.649444444
  9
$TDUUPDATE
 40
2460061.274444445
  9
$TDINDWG
 40
0.0000000000
  9
$TDUSRTIMER
 40
0.0000000000
  9
$USRTIMER
 70
     1
  9
$ANGBASE
 50
0.0
  9
$ANGDIR
 70
     0
  9
$PDMODE
 70
     0
  9
$PDSIZE
 40
0.0
  9
$PLINEWID
 40
0.0
  9
$SPLFRAME
 70
     0
  9
$SPLINETYPE
 70
     6
  9
$SPLINESEGS
 70
     8
  9
$HANDSEED
  5
2E2
  9
$SURFTAB1
 70
     6
  9
$SURFTAB2
 70
     6
  9
$SURFTYPE
 70
     6
  9
$SURFU
 70
     6
  9
$SURFV
 70
     6
  9
$UCSBASE
  2

  9
$UCSNAME
  2

  9
$UCSORG
 10
0.0
 20
0.0
 30
0.0
  9
$UCSXDIR
 10
1.0
 20
0.0
 30
0.0
  9
$UCSYDIR
 10
0.0
 20
1.0
 30
0.0
  9
$UCSORTHOREF
  2

  9
$UCSORTHOVIEW
 70
     0
  9
$UCSORGTOP
 10
0.0
 20
0.0
 30
0.0
  9
$UCSORGBOTTOM
 10
0.0
 20
0.0
 30
0.0
  9
$UCSORGLEFT
 10
0.0
 20
0.0
 30
0.0
  9
$UCSORGRIGHT
 10
0.0
 20
0.0
 30
0.0
  9
$UCSORGFRONT
 10
0.0
 20
0.0
 30
0.0
  9
$UCSORGBACK
 10
0.0
 20
0.0
 30
0.0
  9
$PUCSBASE
  2

  9
$PUCSNAME
  2

  9
$PUCSORG
 10
0.0
 20
0.0
 30
0.0
  9
$PUCSXDIR
 10
1.0
 20
0.0
 30
0.0
  9
$PUCSYDIR
 10
0.0
 20
1.0
 30
0.0
  9
$PUCSORTHOREF
  2

  9
$PUCSORTHOVIEW
 70
     0
  9
$PUCSORGTOP
 10
0.0
 20
0.0
 30
0.0
  9
$PUCSORGBOTTOM
 10
0.0
 20
0.0
 30
0.0
  9
$PUCSORGLEFT
 10
0.0
 20
0.0
 30
0.0
  9
$PUCSORGRIGHT
 10
0.0
 20
0.0
 30
0.0
  9
$PUCSORGFRONT
 10
0.0
 20
0.0
 30
0.0
  9
$PUCSORGBACK
 10
0.0
 20
0.0
 30
0.0
  9
$USERI1
 70
     0
  9
$USERI2
 70
     0
  9
$USERI3
 70
     0
  9
$USERI4
 70
     0
  9
$USERI5
 70
     0
  9
$USERR1
 40
0.0
  9
$USERR2
 40
0.0
  9
$USERR3
 40
0.0
  9
$USERR4
 40
0.0
  9
$USERR5
 40
0.0
  9
$WORLDVIEW
 70
     1
  9
$SHADEDGE
 70
     3
  9
$SHADEDIF
 70
    70
  9
$TILEMODE
 70
     1
  9
$MAXACTVP
 70
    64
  9
$PINSBASE
 10
0.0
 20
0.0
 30
0.0
  9
$PLIMCHECK
 70
     0
  9
$PEXTMIN
 10
1.000000000000000E+20
 20
1.000000000000000E+20
 30
1.000000000000000E+20
  9
$PEXTMAX
 10
-1.000000000000000E+20
 20
-1.000000000000000E+20
 30
-1.000000000000000E+20
  9
$PLIMMIN
 10
0.0
 20
0.0
  9
$PLIMMAX
 10
12.0
 20
9.0
  9
$UNITMODE
 70
     0
  9
$VISRETAIN
 70
     1
  9
$PLINEGEN
 70
     0
  9
$PSLTSCALE
 70
     1
  9
$TREEDEPTH
 70
  3020
  9
$CMLSTYLE
  2
Standard
  9
$CMLJUST
 70
     0
  9
$CMLSCALE
 40
1.0
  9
$PROXYGRAPHICS
 70
     1
  9
$MEASUREMENT
 70
     0
  9
$CELWEIGHT
370
    -1
  9
$ENDCAPS
280
     0
  9
$JOINSTYLE
280
     0
  9
$LWDISPLAY
290
     1
  9
$INSUNITS
 70
     4
  9
$HYPERLINKBASE
  1

  9
$STYLESHEET
  1

  9
$XEDIT
290
     1
  9
$CEPSNTYPE
380
     0
  9
$PSTYLEMODE
290
     1
  9
$FINGERPRINTGUID
  2
{E5DC9C79-545C-A740-8475-8D42F722C41D}
  9
$VERSIONGUID
  2
{C04804C2-9604-1343-8C14-51CA7753430D}
  9
$EXTNAMES
290
     1
  9
$PSVPSCALE
 40
0.0
  9
$OLESTARTUP
290
     0
  9
$SORTENTS
280
   127
  9
$INDEXCTL
280
     0
  9
$HIDETEXT
280
     1
  9
$XCLIPFRAME
280
     2
  9
$HALOGAP
280
     0
  9
$OBSCOLOR
 70
   257
  9
$OBSLTYPE
280
     0
  9
$INTERSECTIONDISPLAY
280
     0
  9
$INTERSECTIONCOLOR
 70
   257
  9
$DIMASSOC
280
     2
  9
$PROJECTNAME
  1

  9
$CAMERADISPLAY
290
     0
  9
$LENSLENGTH
 40
50.0
  9
$CAMERAHEIGHT
 40
0.0
  9
$STEPSPERSEC
 40
2.0
  9
$STEPSIZE
 40
6.0
  9
$3DDWFPREC
 40
2.0
  9
$PSOLWIDTH
 40
0.25
  9
$PSOLHEIGHT
 40
4.0
  9
$LOFTANG1
 40
1.570796326794896
  9
$LOFTANG2
 40
1.570796326794896
  9
$LOFTMAG1
 40
0.0
  9
$LOFTMAG2
 40
0.0
  9
$LOFTPARAM
 70
     7
  9
$LOFTNORMALS
280
     1
  9
$LATITUDE
 40
37.795
  9
$LONGITUDE
 40
-122.394
  9
$NORTHDIRECTION
 40
0.0
  9
$TIMEZONE
 70
 -8000
  9
$LIGHTGLYPHDISPLAY
280
     1
  9
$TILEMODELIGHTSYNCH
280
     1
  9
$CMATERIAL
347
11
  9
$SOLIDHIST
280
     0
  9
$SHOWHIST
280
     1
  9
$DWFFRAME
280
     2
  9
$DGNFRAME
280
     0
  9
$REALWORLDSCALE
290
     1
  9
$INTERFERECOLOR
 62
     1
  9
$INTERFEREOBJVS
345
33
  9
$INTERFEREVPVS
346
30
  9
$CSHADOW
280
     0
  9
$SHADOWPLANELOCATION
 40
0.0
  0
ENDSEC
  0
SECTION
  2
CLASSES
  0
CLASS
  1
ACDBDICTIONARYWDFLT
  2
AcDbDictionaryWithDefault
  3
ObjectDBX Classes
 90
        0
 91
        1
280
     0
281
     0
  0
CLASS
  1
MATERIAL
  2
AcDbMaterial
  3
ObjectDBX Classes
 90
     1153
 91
        3
280
     0
281
     0
  0
CLASS
  1
VISUALSTYLE
  2
AcDbVisualStyle
  3
ObjectDBX Classes
 90
     4095
 91
       24
280
     0
281
     0
  0
CLASS
  1
SCALE
  2
AcDbScale
  3
ObjectDBX Classes
 90
     1153
 91
       17
280
     0
281
     0
  0
CLASS
  1
TABLESTYLE
  2
AcDbTableStyle
  3
ObjectDBX Classes
 90
     4095
 91
        1
280
     0
281
     0
  0
CLASS
  1
MLEADERSTYLE
  2
AcDbMLeaderStyle
  3
ACDB_MLEADERSTYLE_CLASS
 90
     4095
 91
        1
280
     0
281
     0
  0
CLASS
  1
ACDBSECTIONVIEWSTYLE
  2
AcDbSectionViewStyle
  3
ObjectDBX Classes
 90
     1025
 91
        1
280
     0
281
     0
  0
CLASS
  1
ACDBDETAILVIEWSTYLE
  2
AcDbDetailViewStyle
  3
ObjectDBX Classes
 90
     1025
 91
        1
280
     0
281
     0
  0
CLASS
  1
DICTIONARYVAR
  2
AcDbDictionaryVar
  3
ObjectDBX Classes
 90
        0
 91
        5
280
     0
281
     0
  0
CLASS
  1
CELLSTYLEMAP
  2
AcDbCellStyleMap
  3
ObjectDBX Classes
 90
     1152
 91
        1
280
     0
281
     0
  0
ENDSEC
  0
SECTION
  2
TABLES
  0
TABLE
  2
VPORT
  5
8
330
0
100
AcDbSymbolTable
 70
     1
  0
VPORT
  5
57
330
8
100
AcDbSymbolTableRecord
100
AcDbViewportTableRecord
  2
*Active
 70
     0
 10
0.0
 20
0.0
 11
1.0
 21
1.0
 12
0.0
 22
0.0
 13
0.0
 23
0.0
 14
1.0
 24
1.0
 15
0.0
 25
0.0
 16
0.0
 26
0.0
 36
1.0
 17
338.666666582
 27
190.4999999523751
 37
0.0
 40
388.8749999028449
 41
1.776612021857632
 42
50.0
 43
0.0
 44
0.0
 50
0.0
 51
0.0
 71
     0
 72
   100
 73
     1
 74
     1
 75
     0
 76
     0
 77
     0
 78
     0
281
     0
 65
     1
110
0.0
120
0.0
130
0.0
111
1.0
121
0.0
131
0.0
112
0.0
122
1.0
132
0.0
 79
     0
146
0.0
 60
     3
 61
     5
292
     1
282
     1
141
0.0
142
0.0
 63
   250
421
  3355443
  0
ENDTAB
  0
TABLE
  2
LTYPE
  5
5
330
0
100
AcDbSymbolTable
 70
     1
  0
LTYPE
  5
5B
330
5
100
AcDbSymbolTableRecord
100
AcDbLinetypeTableRecord
  2
ByBlock
 70
     0
  3

 72
    65
 73
     0
 40
0.0
  0
LTYPE
  5
5C
330
5
100
AcDbSymbolTableRecord
100
AcDbLinetypeTableRecord
  2
ByLayer
 70
     0
  3

 72
    65
 73
     0
 40
0.0
  0
LTYPE
  5
5D
330
5
100
AcDbSymbolTableRecord
100
AcDbLinetypeTableRecord
  2
Continuous
 70
     0
  3
Solid line
 72
    65
 73
     0
 40
0.0
  0
ENDTAB
  0
TABLE
  2
LAYER
  5
2
330
0
100
AcDbSymbolTable
 70
     6
  0
LAYER
  5
54
330
2
100
AcDbSymbolTableRecord
100
AcDbLayerTableRecord
  2
0
 70
     0
 62
     7
  6
Continuous
370
    -3
390
F
347
21
348
0
  0
LAYER
  5
78
330
2
100
AcDbSymbolTableRecord
100
AcDbLayerTableRecord
  2
FLAME
 70
     0
 62
     7
  6
Continuous
370
     0
390
F
347
21
348
0
  0
LAYER
  5
80
330
2
100
AcDbSymbolTableRecord
100
AcDbLayerTableRecord
  2
SPEC
 70
     0
 62
     7
  6
Continuous
370
     0
390
F
347
21
348
0
  0
LAYER
  5
99
330
2
100
AcDbSymbolTableRecord
100
AcDbLayerTableRecord
  2
_HONTAI
 70
     0
 62
     7
  6
Continuous
370
     0
390
F
347
21
348
0
  0
LAYER
  5
B1
330
2
100
AcDbSymbolTableRecord
100
AcDbLayerTableRecord
  2
SHADE
 70
     0
 62
     7
  6
Continuous
370
     0
390
F
347
21
348
0
  0
LAYER
  5
B5
330
2
100
AcDbSymbolTableRecord
100
AcDbLayerTableRecord
  2
HON
 70
     0
 62
     7
  6
Continuous
370
     0
390
F
347
21
348
0
  0
ENDTAB
  0
TABLE
  2
STYLE
  5
3
330
0
100
AcDbSymbolTable
 70
     2
  0
STYLE
  5
55
330
3
100
AcDbSymbolTableRecord
100
AcDbTextStyleTableRecord
  2
Standard
 70
     0
 40
0.0
 41
1.0
 50
0.0
 71
     0
 42
0.2
  3
txt
  4

  0
STYLE
  5
5A
330
3
100
AcDbSymbolTableRecord
100
AcDbTextStyleTableRecord
  2
Annotative
 70
     0
 40
0.0
 41
1.0
 50
0.0
 71
     0
 42
0.2
  3
txt
  4

1001
AcadAnnotative
1000
AnnotativeData
1002
{
1070
     1
1070
     1
1002
}
  0
ENDTAB
  0
TABLE
  2
VIEW
  5
6
330
0
100
AcDbSymbolTable
 70
     0
  0
ENDTAB
  0
TABLE
  2
UCS
  5
7
330
0
100
AcDbSymbolTable
 70
     0
  0
ENDTAB
  0
TABLE
  2
APPID
  5
9
330
0
100
AcDbSymbolTable
 70
     2
  0
APPID
  5
56
330
9
100
AcDbSymbolTableRecord
100
AcDbRegAppTableRecord
  2
ACAD
 70
     0
  0
APPID
  5
5E
330
9
100
AcDbSymbolTableRecord
100
AcDbRegAppTableRecord
  2
AcadAnnotative
 70
     0
  0
ENDTAB
  0
TABLE
  2
DIMSTYLE
  5
A
330
0
100
AcDbSymbolTable
 70
     2
100
AcDbDimStyleTable
 71
     0
  0
DIMSTYLE
105
58
330
A
100
AcDbSymbolTableRecord
100
AcDbDimStyleTableRecord
  2
Standard
 70
     0
340
55
  0
DIMSTYLE
105
59
330
A
100
AcDbSymbolTableRecord
100
AcDbDimStyleTableRecord
  2
Annotative
 70
     0
340
55
1001
AcadAnnotative
1000
AnnotativeData
1002
{
1070
     1
1070
     1
1002
}
  0
ENDTAB
  0
TABLE
  2
BLOCK_RECORD
  5
1
330
0
100
AcDbSymbolTable
 70
     4
  0
BLOCK_RECORD
  5
70
330
1
100
AcDbSymbolTableRecord
100
AcDbBlockTableRecord
  2
*Model_Space
340
73
 70
     0
280
     1
281
     0
  0
BLOCK_RECORD
  5
6C
330
1
100
AcDbSymbolTableRecord
100
AcDbBlockTableRecord
  2
*Paper_Space
340
6F
 70
     0
280
     1
281
     0
  0
BLOCK_RECORD
  5
74
330
1
100
AcDbSymbolTableRecord
100
AcDbBlockTableRecord
  2
*Paper_Space0
340
77
 70
     0
280
     1
281
     0
  0
BLOCK_RECORD
  5
83
330
1
100
AcDbSymbolTableRecord
100
AcDbBlockTableRecord
  2
Block_0
340
0
102
{BLKREFS
331
84
102
}
 70
     0
280
     1
281
     0
  0
BLOCK_RECORD
  5
8C
330
1
100
AcDbSymbolTableRecord
100
AcDbBlockTableRecord
  2
Block_1
340
0
102
{BLKREFS
331
8D
102
}
 70
     0
280
     1
281
     0
  0
BLOCK_RECORD
  5
93
330
1
100
AcDbSymbolTableRecord
100
AcDbBlockTableRecord
  2
Block_2
340
0
102
{BLKREFS
331
94
102
}
 70
     0
280
     1
281
     0
  0
ENDTAB
  0
ENDSEC
  0
SECTION
  2
BLOCKS
  0
BLOCK
  5
71
330
70
100
AcDbEntity
  8
0
100
AcDbBlockBegin
  2
*Model_Space
 70
     0
 10
0.0
 20
0.0
 30
0.0
  3
*Model_Space
  1

  0
ENDBLK
  5
72
330
70
100
AcDbEntity
  8
0
100
AcDbBlockEnd
  0
BLOCK
  5
6D
330
6C
100
AcDbEntity
 67
     1
  8
0
100
AcDbBlockBegin
  2
*Paper_Space
 70
     0
 10
0.0
 20
0.0
 30
0.0
  3
*Paper_Space
  1

  0
ENDBLK
  5
6E
330
6C
100
AcDbEntity
 67
     1
  8
0
100
AcDbBlockEnd
  0
BLOCK
  5
75
330
74
100
AcDbEntity
 67
     1
  8
0
100
AcDbBlockBegin
  2
*Paper_Space0
 70
     0
 10
0.0
 20
0.0
 30
0.0
  3
*Paper_Space0
  1

  0
ENDBLK
  5
76
330
74
100
AcDbEntity
 67
     1
  8
0
100
AcDbBlockEnd
  0
BLOCK
  5
85
330
83
100
AcDbEntity
  8
0
100
AcDbBlockBegin
  2
Block_0
 70
     0
 10
0.0
 20
0.0
 30
0.0
  3
Block_0
  1

  0
MTEXT
  5
87
330
83
100
AcDbEntity
  8
SPEC
100
AcDbMText
 10
254.9091606350574
 20
23.10177679543984
 30
0.0
 40
0.2
 41
0.0
 46
0.0
 71
     7
 72
     1
  1
\C9;\c12632256;\FMS PGothic|b0|i0|c128;\H7.992533;\W1.000000;(
 73
     1
 44
1.0
  0
MTEXT
  5
88
330
83
100
AcDbEntity
  8
SPEC
100
AcDbMText
 10
258.4513216856042
 20
23.10177679543984
 30
0.0
 40
0.2
 41
0.0
 46
0.0
 71
     7
 72
     1
  1
\C9;\c12632256;\FKozuka Gothic Pr6N R|b0|i0|c128;\H7.992533;\W1.000000;100W
 73
     1
 44
1.0
  0
MTEXT
  5
89
330
83
100
AcDbEntity
  8
SPEC
100
AcDbMText
 10
287.7572632811966
 20
23.10177679543984
 30
0.0
 40
0.2
 41
0.0
 46
0.0
 71
     7
 72
     1
  1
\C9;\c12632256;\FMS PGothic|b0|i0|c128;\H7.992533;\W1.000000;相当 電球色 全方向
 73
     1
 44
1.0
  0
MTEXT
  5
8A
330
83
100
AcDbEntity
  8
SPEC
100
AcDbMText
 10
386.4344657779574
 20
23.10177679543984
 30
0.0
 40
0.2
 41
0.0
 46
0.0
 71
     7
 72
     1
  1
\C9;\c12632256;\FKozuka Gothic Pr6N R|b0|i0|c128;\H7.992533;\W1.000000;/
 73
     1
 44
1.0
  0
MTEXT
  5
8B
330
83
100
AcDbEntity
  8
SPEC
100
AcDbMText
 10
391.6047789548332
 20
23.10177679543984
 30
0.0
 40
0.2
 41
0.0
 46
0.0
 71
     7
 72
     1
  1
\C9;\c12632256;\FMS PGothic|b0|i0|c128;\H7.992533;\W1.000000;広配光タイプ）
 73
     1
 44
1.0
  0
ENDBLK
  5
86
330
83
100
AcDbEntity
  8
0
100
AcDbBlockEnd
  0
BLOCK
  5
8E
330
8C
100
AcDbEntity
  8
0
100
AcDbBlockBegin
  2
Block_1
 70
     0
 10
0.0
 20
0.0
 30
0.0
  3
Block_1
  1

  0
MTEXT
  5
90
330
8C
100
AcDbEntity
  8
SPEC
100
AcDbMText
 10
208.4718573155036
 20
23.05655453423423
 30
0.0
 40
0.2
 41
0.0
 46
0.0
 71
     7
 72
     1
  1
\C9;\c12632256;\FKozuka Gothic Pr6N R|b0|i0|c128;\H7.992533;\W1.000000;LED
 73
     1
 44
1.0
  0
MTEXT
  5
91
330
8C
100
AcDbEntity
  8
SPEC
100
AcDbMText
 10
229.6272412891644
 20
23.05655453423423
 30
0.0
 40
0.2
 41
0.0
 46
0.0
 71
     7
 72
     1
  1
\C9;\c12632256;\FMS PGothic|b0|i0|c128;\H7.992533;\W1.000000;電球
 73
     1
 44
1.0
  0
ENDBLK
  5
8F
330
8C
100
AcDbEntity
  8
0
100
AcDbBlockEnd
  0
BLOCK
  5
95
330
93
100
AcDbEntity
  8
0
100
AcDbBlockBegin
  2
Block_2
 70
     0
 10
0.0
 20
0.0
 30
0.0
  3
Block_2
  1

  0
MTEXT
  5
97
330
93
100
AcDbEntity
  8
SPEC
100
AcDbMText
 10
470.003697256631
 20
22.05743647129907
 30
0.0
 40
0.2
 41
0.0
 46
0.0
 71
     7
 72
     1
  1
\C9;\c12632256;\FKozuka Gothic Pr6N R|b0|i0|c128;\H9.071429;\W1.000000;1
 73
     1
 44
1.0
  0
MTEXT
  5
98
330
93
100
AcDbEntity
  8
SPEC
100
AcDbMText
 10
476.0513039988257
 20
22.05743647129907
 30
0.0
 40
0.2
 41
0.0
 46
0.0
 71
     7
 72
     1
  1
\C9;\c12632256;\FMS PGothic|b0|i0|c128;\H9.071429;\W1.000000;灯
 73
     1
 44
1.0
  0
ENDBLK
  5
96
330
93
100
AcDbEntity
  8
0
100
AcDbBlockEnd
  0
ENDSEC
  0
SECTION
  2
ENTITIES
  0
LINE
  5
79
330
70
100
AcDbEntity
  8
FLAME
 62
     2
420
 16776960
370
    25
100
AcDbLine
 10
501.9523808268929
 20
380.9999999047501
 30
0.0
 11
501.9523808268929
 21
0.0
 31
0.0
  0
LINE
  5
7A
330
70
100
AcDbEntity
  8
FLAME
 62
     2
420
 16776960
370
    25
100
AcDbLine
 10
175.380952337107
 20
0.0
 30
0.0
 11
175.380952337107
 21
380.9999999047501
 31
0.0
  0
LINE
  5
7B
330
70
100
AcDbEntity
  8
FLAME
 62
     2
420
 16776960
370
    25
100
AcDbLine
 10
501.9523808268929
 20
0.0
 30
0.0
 11
175.380952337107
 21
0.0
 31
0.0
  0
LINE
  5
7C
330
70
100
AcDbEntity
  8
FLAME
 62
     2
420
 16776960
370
    25
100
AcDbLine
 10
501.9523808268929
 20
18.1428571383218
 30
0.0
 11
175.380952337107
 21
18.1428571383218
 31
0.0
  0
LINE
  5
7D
330
70
100
AcDbEntity
  8
FLAME
 62
     2
420
 16776960
370
    25
100
AcDbLine
 10
501.9523808268929
 20
36.28571427664424
 30
0.0
 11
175.380952337107
 21
36.28571427664424
 31
0.0
  0
LINE
  5
7E
330
70
100
AcDbEntity
  8
FLAME
 62
     2
420
 16776960
370
    25
100
AcDbLine
 10
501.9523808268929
 20
54.42857141496602
 30
0.0
 11
175.380952337107
 21
54.42857141496602
 31
0.0
  0
LINE
  5
7F
330
70
100
AcDbEntity
  8
FLAME
 62
     2
420
 16776960
370
    25
100
AcDbLine
 10
501.9523808268929
 20
380.9999999047501
 30
0.0
 11
175.380952337107
 21
380.9999999047501
 31
0.0
  0
MTEXT
  5
81
330
70
100
AcDbEntity
  8
SPEC
100
AcDbMText
 10
187.6349293557605
 20
41.18367266155195
 30
0.0
 40
0.2
 41
0.0
 46
0.0
 71
     7
 72
     1
  1
\C9;\c12632256;\FKozuka Gothic Pr6N R|b0|i0|c128;\H7.992533;\W1.000000;KP123PA
 73
     1
 44
1.0
  0
MTEXT
  5
82
330
70
100
AcDbEntity
  8
SPEC
100
AcDbMText
 10
187.6349724194541
 20
22.05744454574161
 30
0.0
 40
0.2
 41
0.0
 46
0.0
 71
     7
 72
     1
  1
\C9;\c12632256;\FKozuka Gothic Pr6N R|b0|i0|c128;\H7.992533;\W1.000000;E26
 73
     1
 44
1.0
  0
INSERT
  5
84
330
70
100
AcDbEntity
  8
SPEC
100
AcDbBlockReference
  2
Block_0
 10
0.0
 20
0.0
 30
0.0
  0
INSERT
  5
8D
330
70
100
AcDbEntity
  8
SPEC
100
AcDbBlockReference
  2
Block_1
 10
0.0
 20
0.0
 30
0.0
  0
MTEXT
  5
92
330
70
100
AcDbEntity
  8
SPEC
100
AcDbMText
 10
458.5533625833868
 20
21.70514585164294
 30
0.0
 40
0.2
 41
0.0
 46
0.0
 71
     7
 72
     1
  1
\C9;\c12632256;\FMS PGothic|b0|i0|c128;\H9.071429;\W1.000000;×
 73
     1
 44
1.0
  0
INSERT
  5
94
330
70
100
AcDbEntity
  8
SPEC
100
AcDbBlockReference
  2
Block_2
 10
0.0
 20
0.0
 30
0.0
  0
LINE
  5
9A
330
70
100
AcDbEntity
  8
_HONTAI
 62
    18
420
        0
370
    25
100
AcDbLine
 10
340.8910837733179
 20
323.6293691555109
 30
0.0
 11
340.8910837733179
 21
292.2869175789264
 31
0.0
  0
LINE
  5
9B
330
70
100
AcDbEntity
  8
_HONTAI
 62
    18
420
        0
370
    25
100
AcDbLine
 10
340.8910837733179
 20
286.8546177899425
 30
0.0
 11
340.8910837733179
 21
223.8211531490972
 31
0.0
  0
SPLINE
  5
9C
330
70
100
AcDbEntity
  8
_HONTAI
 62
    18
420
        0
370
    25
100
AcDbSpline
210
0.0
220
0.0
230
1.0
 70
     8
 71
     3
 72
     8
 73
     4
 74
     0
 42
0.0000000001
 43
0.0000000001
 40
0.0
 40
0.0
 40
0.0
 40
0.0
 40
1.0
 40
1.0
 40
1.0
 40
1.0
 10
326.0624982926562
 20
354.3394574290545
 30
0.0
 10
326.3770360847195
 20
342.5464299398375
 30
0.0
 10
331.5915654962793
 20
331.4178610737061
 30
0.0
 10
340.4523682265379
 20
323.6293691555283
 30
0.0
  0
LINE
  5
9D
330
70
100
AcDbEntity
  8
_HONTAI
 62
    18
420
        0
370
    25
100
AcDbLine
 10
342.821432179078
 20
323.6293691555109
 30
0.0
 11
342.8214321790845
 21
292.8482048547687
 31
0.0
  0
LINE
  5
9E
330
70
100
AcDbEntity
  8
_HONTAI
 62
    18
420
        0
370
    25
100
AcDbLine
 10
342.8214321790845
 20
287.4159050657912
 30
0.0
 11
342.821432179078
 21
223.8166325702693
 31
0.0
  0
SPLINE
  5
9F
330
70
100
AcDbEntity
  8
_HONTAI
 62
    18
420
        0
370
    25
100
AcDbSpline
210
0.0
220
0.0
230
1.0
 70
     8
 71
     3
 72
     8
 73
     4
 74
     0
 42
0.0000000001
 43
0.0000000001
 40
0.0
 40
0.0
 40
0.0
 40
0.0
 40
1.0
 40
1.0
 40
1.0
 40
1.0
 10
343.2601477258709
 20
323.6293691555283
 30
0.0
 10
352.1209504561289
 20
331.4178610737061
 30
0.0
 10
357.3354798676877
 20
342.5464299398375
 30
0.0
 10
357.6500176597519
 20
354.3394574290545
 30
0.0
  0
SPLINE
  5
A0
330
70
100
AcDbEntity
  8
_HONTAI
 62
    18
420
        0
370
    25
100
AcDbSpline
210
0.0
220
0.0
230
1.0
 70
     8
 71
     3
 72
    11
 73
     7
 74
     0
 42
0.0000000001
 43
0.0000000001
 40
0.0
 40
0.0
 40
0.0
 40
0.0
 40
1.0
 40
1.0
 40
1.0
 40
2.0
 40
2.0
 40
2.0
 40
2.0
 10
357.650017659759
 20
354.3394574290555
 30
0.0
 10
357.650017659759
 20
355.9789867056919
 30
0.0
 10
350.5789105919263
 20
357.3080877907275
 30
0.0
 10
341.856257976207
 20
357.3080877907275
 30
0.0
 10
333.133605360489
 20
357.3080877907275
 30
0.0
 10
326.0624982926553
 20
355.9789867056919
 30
0.0
 10
326.0624982926553
 20
354.3394574290555
 30
0.0
  0
LINE
  5
A1
330
70
100
AcDbEntity
  8
_HONTAI
 62
    18
420
        0
370
    25
100
AcDbLine
 10
339.0116470723675
 20
223.7027165776972
 30
0.0
 11
339.0116470723675
 21
220.6628445784593
 31
0.0
  0
LINE
  5
A2
330
70
100
AcDbEntity
  8
_HONTAI
 62
    18
420
        0
370
    25
100
AcDbLine
 10
341.9725613573385
 20
220.6628445784593
 30
0.0
 11
337.7859997147966
 21
220.6628445784593
 31
0.0
  0
LINE
  5
A3
330
70
100
AcDbEntity
  8
_HONTAI
 62
    18
420
        0
370
    25
100
AcDbLine
 10
341.9725613573385
 20
223.8211531490972
 30
0.0
 11
339.1300836437579
 21
223.8211531490972
 31
0.0
  0
SPLINE
  5
A4
330
70
100
AcDbEntity
  8
_HONTAI
 62
    18
420
        0
370
    25
100
AcDbSpline
210
0.0
220
0.0
230
1.0
 70
     8
 71
     3
 72
     8
 73
     4
 74
     0
 42
0.0000000001
 43
0.0000000001
 40
0.0
 40
0.0
 40
0.0
 40
0.0
 40
1.0
 40
1.0
 40
1.0
 40
1.0
 10
331.84918008253
 20
210.3289593510216
 30
0.0
 10
334.9256549982472
 20
212.8104190539143
 30
0.0
 10
336.9145672970605
 20
216.3926458712222
 30
0.0
 10
337.3941277811761
 20
220.3159559413285
 30
0.0
  0
LINE
  5
A5
330
70
100
AcDbEntity
  8
_HONTAI
 62
    18
420
        0
370
    25
100
AcDbLine
 10
337.4324927870344
 20
220.6628445784593
 30
0.0
 11
337.4324927870344
 21
220.6628445784593
 31
0.0
  0
SPLINE
  5
A6
330
70
100
AcDbEntity
  8
_HONTAI
 62
    18
420
        0
370
    25
100
AcDbSpline
210
0.0
220
0.0
230
1.0
 70
     8
 71
     3
 72
     8
 73
     4
 74
     0
 42
0.0000000001
 43
0.0000000001
 40
0.0
 40
0.0
 40
0.0
 40
0.0
 40
1.0
 40
1.0
 40
1.0
 40
1.0
 10
337.7859997147966
 20
220.6628445784561
 30
0.0
 10
337.5864886850456
 20
220.6628445784561
 30
0.0
 10
337.4183345741078
 20
220.5139930140363
 30
0.0
 10
337.3941277811796
 20
220.3159559413234
 30
0.0
  0
SPLINE
  5
A7
330
70
100
AcDbEntity
  8
_HONTAI
 62
    18
420
        0
370
    25
100
AcDbSpline
210
0.0
220
0.0
230
1.0
 70
     8
 71
     3
 72
     8
 73
     4
 74
     0
 42
0.0000000001
 43
0.0000000001
 40
0.0
 40
0.0
 40
0.0
 40
0.0
 40
1.0
 40
1.0
 40
1.0
 40
1.0
 10
339.1300836437579
 20
223.8211531490959
 30
0.0
 10
339.0646729315529
 20
223.8211531490959
 30
0.0
 10
339.0116470723579
 20
223.7681272899022
 30
0.0
 10
339.0116470723579
 20
223.7027165776972
 30
0.0
  0
LINE
  5
A8
330
70
100
AcDbEntity
  8
_HONTAI
 62
    18
420
        0
370
    25
100
AcDbLine
 10
339.0116470723675
 20
223.8211531490972
 30
0.0
 11
339.0116470723675
 21
223.8211531490972
 31
0.0
  0
LINE
  5
A9
330
70
100
AcDbEntity
  8
_HONTAI
 62
    18
420
        0
370
    25
100
AcDbLine
 10
344.9418576165771
 20
223.7027165776972
 30
0.0
 11
344.9418576165771
 21
220.6628445784593
 31
0.0
  0
LINE
  5
AA
330
70
100
AcDbEntity
  8
_HONTAI
 62
    18
420
        0
370
    25
100
AcDbLine
 10
341.9809433316062
 20
220.6628445784593
 30
0.0
 11
346.167504974147
 21
220.6628445784593
 31
0.0
  0
LINE
  5
AB
330
70
100
AcDbEntity
  8
_HONTAI
 62
    18
420
        0
370
    25
100
AcDbLine
 10
341.9809433316062
 20
223.8211531490972
 30
0.0
 11
344.823421045186
 21
223.8211531490972
 31
0.0
  0
SPLINE
  5
AC
330
70
100
AcDbEntity
  8
_HONTAI
 62
    18
420
        0
370
    25
100
AcDbSpline
210
0.0
220
0.0
230
1.0
 70
     8
 71
     3
 72
     8
 73
     4
 74
     0
 42
0.0000000001
 43
0.0000000001
 40
0.0
 40
0.0
 40
0.0
 40
0.0
 40
1.0
 40
1.0
 40
1.0
 40
1.0
 10
346.5593769077672
 20
220.3159559413285
 30
0.0
 10
347.0389373918835
 20
216.3926458712222
 30
0.0
 10
349.0278496906957
 20
212.8104190539143
 30
0.0
 10
352.104324606413
 20
210.3289593510216
 30
0.0
  0
LINE
  5
AD
330
70
100
AcDbEntity
  8
_HONTAI
 62
    18
420
        0
370
    25
100
AcDbLine
 10
346.5210119019099
 20
220.6628445784593
 30
0.0
 11
346.5210119019099
 21
220.6628445784593
 31
0.0
  0
SPLINE
  5
AE
330
70
100
AcDbEntity
  8
_HONTAI
 62
    18
420
        0
370
    25
100
AcDbSpline
210
0.0
220
0.0
230
1.0
 70
     8
 71
     3
 72
     8
 73
     4
 74
     0
 42
0.0000000001
 43
0.0000000001
 40
0.0
 40
0.0
 40
0.0
 40
0.0
 40
1.0
 40
1.0
 40
1.0
 40
1.0
 10
346.5593769077647
 20
220.3159559413234
 30
0.0
 10
346.5351701148362
 20
220.5139930140363
 30
0.0
 10
346.3670160038983
 20
220.6628445784561
 30
0.0
 10
346.167504974147
 20
220.6628445784561
 30
0.0
  0
SPLINE
  5
AF
330
70
100
AcDbEntity
  8
_HONTAI
 62
    18
420
        0
370
    25
100
AcDbSpline
210
0.0
220
0.0
230
1.0
 70
     8
 71
     3
 72
     8
 73
     4
 74
     0
 42
0.0000000001
 43
0.0000000001
 40
0.0
 40
0.0
 40
0.0
 40
0.0
 40
1.0
 40
1.0
 40
1.0
 40
1.0
 10
344.9418576165842
 20
223.7027165776972
 30
0.0
 10
344.9418576165842
 20
223.7681272899022
 30
0.0
 10
344.8888317573918
 20
223.8211531490959
 30
0.0
 10
344.823421045186
 20
223.8211531490959
 30
0.0
  0
LINE
  5
B0
330
70
100
AcDbEntity
  8
_HONTAI
 62
    18
420
        0
370
    25
100
AcDbLine
 10
344.9418576165771
 20
223.8211531490972
 30
0.0
 11
344.9418576165771
 21
223.8211531490972
 31
0.0
  0
SPLINE
  5
B2
330
70
100
AcDbEntity
  8
SHADE
 62
    18
420
        0
370
    25
100
AcDbSpline
210
0.0
220
0.0
230
1.0
 70
     8
 71
     3
 72
    17
 73
    13
 74
     0
 42
0.0000000001
 43
0.0000000001
 40
0.0
 40
0.0
 40
0.0
 40
0.0
 40
1.0
 40
1.0
 40
1.0
 40
2.0
 40
2.0
 40
2.0
 40
3.0
 40
3.0
 40
3.0
 40
4.0
 40
4.0
 40
4.0
 40
4.0
 10
342.821432179078
 20
323.4317403381243
 30
0.0
 10
343.3844769843573
 20
323.5350733585552
 30
0.0
 10
343.4087917732302
 20
323.7073227580735
 30
0.0
 10
342.8757407800548
 20
323.8164701400533
 30
0.0
 10
342.3426897868776
 20
323.9256175220344
 30
0.0
 10
341.4541285786165
 20
323.9303309933668
 30
0.0
 10
340.8910837733359
 20
323.826997972937
 30
0.0
 10
340.328038968056
 20
323.7236649525062
 30
0.0
 10
340.3037241791838
 20
323.5514155529881
 30
0.0
 10
340.8367751723611
 20
323.442268171007
 30
0.0
 10
340.8543793735248
 20
323.4386635393797
 30
0.0
 10
340.872489015694
 20
323.4351529483705
 30
0.0
 10
340.8910837733128
 20
323.4317403381291
 30
0.0
  0
LINE
  5
B3
330
70
100
AcDbEntity
  8
SHADE
 62
    18
420
        0
370
    25
100
AcDbLine
 10
348.1895234926287
 20
294.409084404235
 30
0.0
 11
335.4853872694723
 21
290.7151035708202
 31
0.0
  0
LINE
  5
B4
330
70
100
AcDbEntity
  8
SHADE
 62
    18
420
        0
370
    25
100
AcDbLine
 10
348.1895234926287
 20
288.9767846152498
 30
0.0
 11
335.4853872694723
 21
285.2828037818349
 31
0.0
  0
LINE
  5
B6
330
70
100
AcDbEntity
  8
HON
 62
     9
420
 12632256
370
    25
100
AcDbLine
 10
342.0323559069828
 20
160.8200242796283
 30
0.0
 11
333.2951898868779
 21
150.0565080654744
 31
0.0
  0
LINE
  5
B7
330
70
100
AcDbEntity
  8
HON
 62
     9
420
 12632256
370
    25
100
AcDbLine
 10
333.3415318688149
 20
142.4212023960118
 30
0.0
 11
333.3219350174508
 21
150.1579577505749
 31
0.0
  0
LINE
  5
B8
330
70
100
AcDbEntity
  8
HON
 62
     9
420
 12632256
370
    25
100
AcDbLine
 10
302.0471332099362
 20
188.6661406856054
 30
0.0
 11
303.7344242918254
 21
190.4399794122026
 31
0.0
  0
LINE
  5
B9
330
70
100
AcDbEntity
  8
HON
 62
     9
420
 12632256
370
    25
100
AcDbLine
 10
296.9541681188468
 20
164.7431619085673
 30
0.0
 11
295.6692871121049
 21
153.2453742799168
 31
0.0
  0
LINE
  5
BA
330
70
100
AcDbEntity
  8
HON
 62
     9
420
 12632256
370
    25
100
AcDbLine
 10
298.8648335493603
 20
174.7109826982575
 30
0.0
 11
303.368260147389
 21
184.7413437741219
 31
0.0
  0
LINE
  5
BB
330
70
100
AcDbEntity
  8
HON
 62
     9
420
 12632256
370
    25
100
AcDbLine
 10
298.8648335493603
 20
174.7109826982575
 30
0.0
 11
301.7640689236039
 21
171.3021973433381
 31
0.0
  0
LINE
  5
BC
330
70
100
AcDbEntity
  8
HON
 62
     9
420
 12632256
370
    25
100
AcDbLine
 10
295.6692871121049
 20
153.2453742799168
 30
0.0
 11
298.5254007389406
 21
150.2571283409685
 31
0.0
  0
LINE
  5
BD
330
70
100
AcDbEntity
  8
HON
 62
     9
420
 12632256
370
    25
100
AcDbLine
 10
337.8515044416516
 20
196.7914588825454
 30
0.0
 11
341.8336341759446
 21
203.4296006851904
 31
0.0
  0
LINE
  5
BE
330
70
100
AcDbEntity
  8
HON
 62
     9
420
 12632256
370
    25
100
AcDbLine
 10
337.8515044416516
 20
196.7914588825454
 30
0.0
 11
335.2321466847275
 21
203.3375574559791
 31
0.0
  0
LINE
  5
BF
330
70
100
AcDbEntity
  8
HON
 62
     9
420
 12632256
370
    25
100
AcDbLine
 10
335.2321466847275
 20
203.3375574559791
 30
0.0
 11
330.8552483596021
 21
195.8637894399695
 31
0.0
  0
LINE
  5
C0
330
70
100
AcDbEntity
  8
HON
 62
     9
420
 12632256
370
    25
100
AcDbLine
 10
330.8552483596021
 20
195.8637894399695
 30
0.0
 11
328.8237380304911
 21
203.0947305257452
 31
0.0
  0
LINE
  5
C1
330
70
100
AcDbEntity
  8
HON
 62
     9
420
 12632256
370
    25
100
AcDbLine
 10
328.8237380304911
 20
203.0947305257452
 30
0.0
 11
322.7595188760645
 21
195.3265370417698
 31
0.0
  0
LINE
  5
C2
330
70
100
AcDbEntity
  8
HON
 62
     9
420
 12632256
370
    25
100
AcDbLine
 10
322.7595188760645
 20
195.3265370417698
 30
0.0
 11
323.2396254835934
 21
202.3578832962753
 31
0.0
  0
LINE
  5
C3
330
70
100
AcDbEntity
  8
HON
 62
     9
420
 12632256
370
    25
100
AcDbLine
 10
323.2396254835934
 20
202.3578832962753
 30
0.0
 11
315.0283369134954
 21
194.5761033624153
 31
0.0
  0
LINE
  5
C4
330
70
100
AcDbEntity
  8
HON
 62
     9
420
 12632256
370
    25
100
AcDbLine
 10
315.0283369134954
 20
194.5761033624153
 30
0.0
 11
320.1290610694196
 21
201.7020303865452
 31
0.0
  0
LINE
  5
C5
330
70
100
AcDbEntity
  8
HON
 62
     9
420
 12632256
370
    25
100
AcDbLine
 10
320.1290610694196
 20
201.7020303865452
 30
0.0
 11
310.2013990151153
 21
193.3004937978167
 31
0.0
  0
LINE
  5
C6
330
70
100
AcDbEntity
  8
HON
 62
     9
420
 12632256
370
    25
100
AcDbLine
 10
310.2013990151153
 20
193.3004937978167
 30
0.0
 11
317.4085901616082
 21
201.1114050433728
 31
0.0
  0
LINE
  5
C7
330
70
100
AcDbEntity
  8
HON
 62
     9
420
 12632256
370
    25
100
AcDbLine
 10
317.4085901616082
 20
201.1114050433728
 30
0.0
 11
305.796353042767
 21
191.4358933761945
 31
0.0
  0
LINE
  5
C8
330
70
100
AcDbEntity
  8
HON
 62
     9
420
 12632256
370
    25
100
AcDbLine
 10
305.6994095103499
 20
191.4002562308195
 30
0.0
 11
314.742044395928
 21
200.14056055965
 31
0.0
  0
LINE
  5
C9
330
70
100
AcDbEntity
  8
HON
 62
     9
420
 12632256
370
    25
100
AcDbLine
 10
311.9698884975349
 20
199.097872230107
 30
0.0
 11
303.6927483758946
 21
190.8312255899
 31
0.0
  0
LINE
  5
CA
330
70
100
AcDbEntity
  8
HON
 62
     9
420
 12632256
370
    25
100
AcDbLine
 10
342.0520183115881
 20
193.7428934319696
 30
0.0
 11
336.4891519130404
 21
183.6070783685131
 31
0.0
  0
LINE
  5
CB
330
70
100
AcDbEntity
  8
HON
 62
     9
420
 12632256
370
    25
100
AcDbLine
 10
336.4891519130404
 20
183.6070783685131
 30
0.0
 11
335.1991585381511
 21
193.2855136206103
 31
0.0
  0
LINE
  5
CC
330
70
100
AcDbEntity
  8
HON
 62
     9
420
 12632256
370
    25
100
AcDbLine
 10
335.1991585381511
 20
193.2855136206103
 30
0.0
 11
326.6625266239762
 21
182.4681741771507
 31
0.0
  0
LINE
  5
CD
330
70
100
AcDbEntity
  8
HON
 62
     9
420
 12632256
370
    25
100
AcDbLine
 10
326.6625266239762
 20
182.4681741771507
 30
0.0
 11
326.8766375127672
 21
192.4576260036835
 31
0.0
  0
LINE
  5
CE
330
70
100
AcDbEntity
  8
HON
 62
     9
420
 12632256
370
    25
100
AcDbLine
 10
326.8766375127672
 20
192.4576260036835
 30
0.0
 11
318.1139160634019
 21
180.7297122599449
 31
0.0
  0
LINE
  5
CF
330
70
100
AcDbEntity
  8
HON
 62
     9
420
 12632256
370
    25
100
AcDbLine
 10
318.1139160634019
 20
180.7297122599449
 30
0.0
 11
318.1310005281027
 21
191.3646702965045
 31
0.0
  0
LINE
  5
D0
330
70
100
AcDbEntity
  8
HON
 62
     9
420
 12632256
370
    25
100
AcDbLine
 10
318.1310005281027
 20
191.3646702965045
 30
0.0
 11
311.2781224300359
 21
179.1829191029834
 31
0.0
  0
LINE
  5
D1
330
70
100
AcDbEntity
  8
HON
 62
     9
420
 12632256
370
    25
100
AcDbLine
 10
311.2781224300359
 20
179.1829191029834
 30
0.0
 11
312.2477171205217
 21
190.0346240626382
 31
0.0
  0
LINE
  5
D2
330
70
100
AcDbEntity
  8
HON
 62
     9
420
 12632256
370
    25
100
AcDbLine
 10
312.2477171205217
 20
190.0346240626382
 30
0.0
 11
306.1238322755105
 21
177.9215539349713
 31
0.0
  0
LINE
  5
D3
330
70
100
AcDbEntity
  8
HON
 62
     9
420
 12632256
370
    25
100
AcDbLine
 10
306.1238322755105
 20
177.9215539349713
 30
0.0
 11
308.2056742580979
 21
188.5526475298103
 31
0.0
  0
LINE
  5
D4
330
70
100
AcDbEntity
  8
HON
 62
     9
420
 12632256
370
    25
100
AcDbLine
 10
308.2056742580979
 20
188.5526475298103
 30
0.0
 11
302.2109524137562
 21
176.3650945484918
 31
0.0
  0
LINE
  5
D5
330
70
100
AcDbEntity
  8
HON
 62
     9
420
 12632256
370
    25
100
AcDbLine
 10
302.2109524137562
 20
176.3650945484918
 30
0.0
 11
305.8147237000324
 21
187.068887361856
 31
0.0
  0
LINE
  5
D6
330
70
100
AcDbEntity
  8
HON
 62
     9
420
 12632256
370
    25
100
AcDbLine
 10
305.7891587586956
 20
187.1199211581569
 30
0.0
 11
300.2013044626179
 21
175.2984266696627
 31
0.0
  0
LINE
  5
D7
330
70
100
AcDbEntity
  8
HON
 62
     9
420
 12632256
370
    25
100
AcDbLine
 10
300.2013044626179
 20
175.2984266696627
 30
0.0
 11
304.2878144785575
 21
185.2448495530541
 31
0.0
  0
LINE
  5
D8
330
70
100
AcDbEntity
  8
HON
 62
     9
420
 12632256
370
    25
100
AcDbLine
 10
304.2878144785575
 20
185.2448495530541
 30
0.0
 11
298.8648335493603
 21
174.7109826982575
 31
0.0
  0
LINE
  5
D9
330
70
100
AcDbEntity
  8
HON
 62
     9
420
 12632256
370
    25
100
AcDbLine
 10
300.2013044626179
 20
175.2984266696627
 30
0.0
 11
303.3854409080181
 21
171.8205525134889
 31
0.0
  0
LINE
  5
DA
330
70
100
AcDbEntity
  8
HON
 62
     9
420
 12632256
370
    25
100
AcDbLine
 10
302.2109524137562
 20
176.3650945484918
 30
0.0
 11
306.1838130892915
 21
171.5526016819765
 31
0.0
  0
LINE
  5
DB
330
70
100
AcDbEntity
  8
HON
 62
     9
420
 12632256
370
    25
100
AcDbLine
 10
306.1838130892915
 20
171.5526016819765
 30
0.0
 11
306.1238322755105
 21
177.9215539349713
 31
0.0
  0
LINE
  5
DC
330
70
100
AcDbEntity
  8
HON
 62
     9
420
 12632256
370
    25
100
AcDbLine
 10
306.1238322755105
 20
177.9215539349713
 30
0.0
 11
310.2843791928261
 21
172.9594938010333
 31
0.0
  0
LINE
  5
DD
330
70
100
AcDbEntity
  8
HON
 62
     9
420
 12632256
370
    25
100
AcDbLine
 10
310.2843791928261
 20
172.9594938010333
 30
0.0
 11
311.2781224300359
 21
179.1829191029834
 31
0.0
  0
LINE
  5
DE
330
70
100
AcDbEntity
  8
HON
 62
     9
420
 12632256
370
    25
100
AcDbLine
 10
311.2781224300359
 20
179.1829191029834
 30
0.0
 11
316.5780950325804
 21
172.8787047719131
 31
0.0
  0
LINE
  5
DF
330
70
100
AcDbEntity
  8
HON
 62
     9
420
 12632256
370
    25
100
AcDbLine
 10
316.5780950325804
 20
172.8787047719131
 30
0.0
 11
318.1139160634019
 21
180.7297122599449
 31
0.0
  0
LINE
  5
E0
330
70
100
AcDbEntity
  8
HON
 62
     9
420
 12632256
370
    25
100
AcDbLine
 10
318.1139160634019
 20
180.7297122599449
 30
0.0
 11
323.6118399324281
 21
173.898890663469
 31
0.0
  0
LINE
  5
E1
330
70
100
AcDbEntity
  8
HON
 62
     9
420
 12632256
370
    25
100
AcDbLine
 10
323.6118399324281
 20
173.898890663469
 30
0.0
 11
326.6625266239762
 21
182.4681741771507
 31
0.0
  0
LINE
  5
E2
330
70
100
AcDbEntity
  8
HON
 62
     9
420
 12632256
370
    25
100
AcDbLine
 10
326.6625266239762
 20
182.4681741771507
 30
0.0
 11
332.9383461717764
 21
174.3630686515789
 31
0.0
  0
LINE
  5
E3
330
70
100
AcDbEntity
  8
HON
 62
     9
420
 12632256
370
    25
100
AcDbLine
 10
332.9383461717764
 20
174.3630686515789
 30
0.0
 11
336.4891519130404
 21
183.6070783685131
 31
0.0
  0
LINE
  5
E4
330
70
100
AcDbEntity
  8
HON
 62
     9
420
 12632256
370
    25
100
AcDbLine
 10
336.4891519130404
 20
183.6070783685131
 30
0.0
 11
342.0225605483736
 21
175.3433338291085
 31
0.0
  0
LINE
  5
E5
330
70
100
AcDbEntity
  8
HON
 62
     9
420
 12632256
370
    25
100
AcDbLine
 10
296.9541681188468
 20
164.7431619085673
 30
0.0
 11
296.7451390173555
 21
154.3552260587946
 31
0.0
  0
LINE
  5
E6
330
70
100
AcDbEntity
  8
HON
 62
     9
420
 12632256
370
    25
100
AcDbLine
 10
296.7451390173555
 20
154.3552260587946
 30
0.0
 11
298.3174024346769
 21
165.6631999123001
 31
0.0
  0
LINE
  5
E7
330
70
100
AcDbEntity
  8
HON
 62
     9
420
 12632256
370
    25
100
AcDbLine
 10
298.3174024346769
 20
165.6631999123001
 30
0.0
 11
299.1114475137893
 21
155.784911512276
 31
0.0
  0
LINE
  5
E8
330
70
100
AcDbEntity
  8
HON
 62
     9
420
 12632256
370
    25
100
AcDbLine
 10
299.1114475137893
 20
155.784911512276
 30
0.0
 11
300.7438066126253
 21
167.5776730604143
 31
0.0
  0
LINE
  5
E9
330
70
100
AcDbEntity
  8
HON
 62
     9
420
 12632256
370
    25
100
AcDbLine
 10
300.7438066126253
 20
167.5776730604143
 30
0.0
 11
303.6321228599635
 21
158.0907517712017
 31
0.0
  0
LINE
  5
EA
330
70
100
AcDbEntity
  8
HON
 62
     9
420
 12632256
370
    25
100
AcDbLine
 10
303.6321228599635
 20
158.0907517712017
 30
0.0
 11
305.0796934729472
 21
169.2905627131079
 31
0.0
  0
LINE
  5
EB
330
70
100
AcDbEntity
  8
HON
 62
     9
420
 12632256
370
    25
100
AcDbLine
 10
305.0796934729472
 20
169.2905627131079
 30
0.0
 11
310.3439100569784
 21
160.5054951325893
 31
0.0
  0
LINE
  5
EC
330
70
100
AcDbEntity
  8
HON
 62
     9
420
 12632256
370
    25
100
AcDbLine
 10
310.3439100569784
 20
160.5054951325893
 30
0.0
 11
311.818158956719
 21
170.889114945563
 31
0.0
  0
LINE
  5
ED
330
70
100
AcDbEntity
  8
HON
 62
     9
420
 12632256
370
    25
100
AcDbLine
 10
311.818158956719
 20
170.889114945563
 30
0.0
 11
317.8868670420029
 21
162.4665111164939
 31
0.0
  0
LINE
  5
EE
330
70
100
AcDbEntity
  8
HON
 62
     9
420
 12632256
370
    25
100
AcDbLine
 10
317.8868670420029
 20
162.4665111164939
 30
0.0
 11
319.5666014262695
 21
172.140963110753
 31
0.0
  0
LINE
  5
EF
330
70
100
AcDbEntity
  8
HON
 62
     9
420
 12632256
370
    25
100
AcDbLine
 10
319.5666014262695
 20
172.140963110753
 30
0.0
 11
325.7508758366423
 21
163.7290285238002
 31
0.0
  0
LINE
  5
F0
330
70
100
AcDbEntity
  8
HON
 62
     9
420
 12632256
370
    25
100
AcDbLine
 10
325.7508758366423
 20
163.7290285238002
 30
0.0
 11
327.6527680969652
 21
173.2197922365704
 31
0.0
  0
LINE
  5
F1
330
70
100
AcDbEntity
  8
HON
 62
     9
420
 12632256
370
    25
100
AcDbLine
 10
327.6527680969652
 20
173.2197922365704
 30
0.0
 11
334.1063032384903
 21
165.147126195584
 31
0.0
  0
LINE
  5
F2
330
70
100
AcDbEntity
  8
HON
 62
     9
420
 12632256
370
    25
100
AcDbLine
 10
334.1063032384903
 20
165.147126195584
 30
0.0
 11
336.5831036925223
 21
173.9172649699209
 31
0.0
  0
LINE
  5
F3
330
70
100
AcDbEntity
  8
HON
 62
     9
420
 12632256
370
    25
100
AcDbLine
 10
336.5831036925223
 20
173.9172649699209
 30
0.0
 11
342.0289004639388
 21
165.7158964027777
 31
0.0
  0
LINE
  5
F4
330
70
100
AcDbEntity
  8
HON
 62
     9
420
 12632256
370
    25
100
AcDbLine
 10
296.9541681188539
 20
164.7431619085673
 30
0.0
 11
301.5300424777445
 21
171.573162952664
 31
0.0
  0
LINE
  5
F5
330
70
100
AcDbEntity
  8
HON
 62
     9
420
 12632256
370
    25
100
AcDbLine
 10
298.3174024346769
 20
165.6631999123001
 30
0.0
 11
302.8830908237744
 21
172.3128747239385
 31
0.0
  0
LINE
  5
F6
330
70
100
AcDbEntity
  8
HON
 62
     9
420
 12632256
370
    25
100
AcDbLine
 10
300.7438066126253
 20
167.5776730604143
 30
0.0
 11
305.2567513141202
 21
172.7890492638845
 31
0.0
  0
LINE
  5
F7
330
70
100
AcDbEntity
  8
HON
 62
     9
420
 12632256
370
    25
100
AcDbLine
 10
305.0796934729472
 20
169.2905627131079
 30
0.0
 11
309.6561158985789
 21
173.771799085063
 31
0.0
  0
LINE
  5
F8
330
70
100
AcDbEntity
  8
HON
 62
     9
420
 12632256
370
    25
100
AcDbLine
 10
311.818158956719
 20
170.889114945563
 30
0.0
 11
315.3524727129304
 21
174.3365586838784
 31
0.0
  0
LINE
  5
F9
330
70
100
AcDbEntity
  8
HON
 62
     9
420
 12632256
370
    25
100
AcDbLine
 10
319.5666014262695
 20
172.140963110753
 30
0.0
 11
322.4373214928003
 21
175.3581553084512
 31
0.0
  0
LINE
  5
FA
330
70
100
AcDbEntity
  8
HON
 62
     9
420
 12632256
370
    25
100
AcDbLine
 10
327.6527680969652
 20
173.2197922365704
 30
0.0
 11
331.2868892159567
 21
176.4958949375917
 31
0.0
  0
LINE
  5
FB
330
70
100
AcDbEntity
  8
HON
 62
     9
420
 12632256
370
    25
100
AcDbLine
 10
336.5831036925223
 20
173.9172649699209
 30
0.0
 11
340.6708381048354
 21
177.3620332778068
 31
0.0
  0
LINE
  5
FC
330
70
100
AcDbEntity
  8
HON
 62
     9
420
 12632256
370
    25
100
AcDbLine
 10
302.0471332099362
 20
188.6661406856054
 30
0.0
 11
303.368260147389
 21
184.7413437741219
 31
0.0
  0
LINE
  5
FD
330
70
100
AcDbEntity
  8
HON
 62
     9
420
 12632256
370
    25
100
AcDbLine
 10
335.1991585381511
 20
193.2855136206103
 30
0.0
 11
337.8413969862309
 21
196.7990598377297
 31
0.0
  0
LINE
  5
FE
330
70
100
AcDbEntity
  8
HON
 62
     9
420
 12632256
370
    25
100
AcDbLine
 10
326.8766375127672
 20
192.4576260036835
 30
0.0
 11
330.8552483596021
 21
195.8637894399695
 31
0.0
  0
LINE
  5
FF
330
70
100
AcDbEntity
  8
HON
 62
     9
420
 12632256
370
    25
100
AcDbLine
 10
318.1310005281027
 20
191.3646702965045
 30
0.0
 11
322.7595188760645
 21
195.3265370417698
 31
0.0
  0
LINE
  5
100
330
70
100
AcDbEntity
  8
HON
 62
     9
420
 12632256
370
    25
100
AcDbLine
 10
315.0283369134954
 20
194.5761033624153
 30
0.0
 11
312.2477171205217
 21
190.0346240626382
 31
0.0
  0
LINE
  5
101
330
70
100
AcDbEntity
  8
HON
 62
     9
420
 12632256
370
    25
100
AcDbLine
 10
308.2056742580979
 20
188.5526475298103
 30
0.0
 11
310.2013990151153
 21
193.3004937978167
 31
0.0
  0
LINE
  5
102
330
70
100
AcDbEntity
  8
HON
 62
     9
420
 12632256
370
    25
100
AcDbLine
 10
305.8147237000324
 20
187.068887361856
 30
0.0
 11
305.796353042767
 21
191.4358933761945
 31
0.0
  0
LINE
  5
103
330
70
100
AcDbEntity
  8
HON
 62
     9
420
 12632256
370
    25
100
AcDbLine
 10
304.2878144785575
 20
185.2448495530541
 30
0.0
 11
303.6927483758946
 21
190.8312255899
 31
0.0
  0
LINE
  5
104
330
70
100
AcDbEntity
  8
HON
 62
     9
420
 12632256
370
    25
100
AcDbLine
 10
332.9383461717764
 20
174.3630686515789
 30
0.0
 11
334.1063032384903
 21
165.147126195584
 31
0.0
  0
LINE
  5
105
330
70
100
AcDbEntity
  8
HON
 62
     9
420
 12632256
370
    25
100
AcDbLine
 10
323.6118399324281
 20
173.898890663469
 30
0.0
 11
325.7508758366423
 21
163.7290285238002
 31
0.0
  0
LINE
  5
106
330
70
100
AcDbEntity
  8
HON
 62
     9
420
 12632256
370
    25
100
AcDbLine
 10
316.5780950325804
 20
172.8787047719131
 30
0.0
 11
317.8868670420029
 21
162.4665111164939
 31
0.0
  0
LINE
  5
107
330
70
100
AcDbEntity
  8
HON
 62
     9
420
 12632256
370
    25
100
AcDbLine
 10
310.2843791928261
 20
172.9594938010333
 30
0.0
 11
310.3439100569784
 21
160.5054951325893
 31
0.0
  0
LINE
  5
108
330
70
100
AcDbEntity
  8
HON
 62
     9
420
 12632256
370
    25
100
AcDbLine
 10
337.8515044416516
 20
196.7914588825454
 30
0.0
 11
342.0091744691469
 21
193.664829852437
 31
0.0
  0
LINE
  5
109
330
70
100
AcDbEntity
  8
HON
 62
     9
420
 12632256
370
    25
100
AcDbLine
 10
330.8552483596021
 20
195.8637894399695
 30
0.0
 11
335.2325054436883
 21
193.0353217418322
 31
0.0
  0
LINE
  5
10A
330
70
100
AcDbEntity
  8
HON
 62
     9
420
 12632256
370
    25
100
AcDbLine
 10
322.7595188760645
 20
195.3265370417698
 30
0.0
 11
326.8800647556968
 21
192.6175257562132
 31
0.0
  0
LINE
  5
10B
330
70
100
AcDbEntity
  8
HON
 62
     9
420
 12632256
370
    25
100
AcDbLine
 10
315.0283369134954
 20
194.5761033624153
 30
0.0
 11
318.1310005281027
 21
191.3646702965045
 31
0.0
  0
LINE
  5
10C
330
70
100
AcDbEntity
  8
HON
 62
     9
420
 12632256
370
    25
100
AcDbLine
 10
334.0839437384157
 20
160.8297756309274
 30
0.0
 11
322.2301177486261
 21
149.1821304725686
 31
0.0
  0
LINE
  5
10D
330
70
100
AcDbEntity
  8
HON
 62
     9
420
 12632256
370
    25
100
AcDbLine
 10
322.2301177486261
 20
149.1821304725686
 30
0.0
 11
325.9328626335393
 21
160.7832979464991
 31
0.0
  0
LINE
  5
10E
330
70
100
AcDbEntity
  8
HON
 62
     9
420
 12632256
370
    25
100
AcDbLine
 10
325.9328626335393
 20
160.7832979464991
 30
0.0
 11
312.4548766159055
 21
146.3564124708539
 31
0.0
  0
LINE
  5
10F
330
70
100
AcDbEntity
  8
HON
 62
     9
420
 12632256
370
    25
100
AcDbLine
 10
312.4548766159055
 20
146.3564124708539
 30
0.0
 11
317.4845178484921
 21
159.3659807476826
 31
0.0
  0
LINE
  5
110
330
70
100
AcDbEntity
  8
HON
 62
     9
420
 12632256
370
    25
100
AcDbLine
 10
317.4845178484921
 20
159.3659807476826
 30
0.0
 11
305.0450288186323
 21
143.2521440427726
 31
0.0
  0
LINE
  5
111
330
70
100
AcDbEntity
  8
HON
 62
     9
420
 12632256
370
    25
100
AcDbLine
 10
305.0450288186323
 20
143.2521440427726
 30
0.0
 11
309.3096879793732
 21
157.924509697959
 31
0.0
  0
LINE
  5
112
330
70
100
AcDbEntity
  8
HON
 62
     9
420
 12632256
370
    25
100
AcDbLine
 10
309.3096879793732
 20
157.924509697959
 30
0.0
 11
299.3585837965998
 21
140.8987961899171
 31
0.0
  0
LINE
  5
113
330
70
100
AcDbEntity
  8
HON
 62
     9
420
 12632256
370
    25
100
AcDbLine
 10
299.3585837965998
 20
140.8987961899171
 30
0.0
 11
303.1200885157093
 21
155.6529616868106
 31
0.0
  0
LINE
  5
114
330
70
100
AcDbEntity
  8
HON
 62
     9
420
 12632256
370
    25
100
AcDbLine
 10
303.1200885157093
 20
155.6529616868106
 30
0.0
 11
295.9793151167252
 21
138.9308617495508
 31
0.0
  0
LINE
  5
115
330
70
100
AcDbEntity
  8
HON
 62
     9
420
 12632256
370
    25
100
AcDbLine
 10
294.0917938298057
 20
137.2530957266308
 30
0.0
 11
298.2560892694769
 21
149.8553073406766
 31
0.0
  0
LINE
  5
116
330
70
100
AcDbEntity
  8
HON
 62
     9
420
 12632256
370
    25
100
AcDbLine
 10
334.0839437384157
 20
160.8297756309274
 30
0.0
 11
333.2960319347728
 21
150.0565080654744
 31
0.0
  0
LINE
  5
117
330
70
100
AcDbEntity
  8
HON
 62
     9
420
 12632256
370
    25
100
AcDbLine
 10
334.1063032384903
 20
165.147126195584
 30
0.0
 11
337.5274592005391
 21
157.4396161945893
 31
0.0
  0
LINE
  5
118
330
70
100
AcDbEntity
  8
HON
 62
     9
420
 12632256
370
    25
100
AcDbLine
 10
325.7508758366423
 20
163.7290285238002
 30
0.0
 11
329.5301462037259
 21
156.2927780660719
 31
0.0
  0
LINE
  5
119
330
70
100
AcDbEntity
  8
HON
 62
     9
420
 12632256
370
    25
100
AcDbLine
 10
317.8868670420029
 20
162.4665111164939
 30
0.0
 11
320.6731065510305
 21
155.529451781742
 31
0.0
  0
LINE
  5
11A
330
70
100
AcDbEntity
  8
HON
 62
     9
420
 12632256
370
    25
100
AcDbLine
 10
310.3439100569784
 20
160.5054951325893
 30
0.0
 11
312.8312860240084
 21
154.5761966345365
 31
0.0
  0
LINE
  5
11B
330
70
100
AcDbEntity
  8
HON
 62
     9
420
 12632256
370
    25
100
AcDbLine
 10
303.6321228599635
 20
158.0907517712017
 30
0.0
 11
306.0893813883457
 21
152.4549157267186
 31
0.0
  0
LINE
  5
11C
330
70
100
AcDbEntity
  8
HON
 62
     9
420
 12632256
370
    25
100
AcDbLine
 10
299.1114475137893
 20
155.784911512276
 30
0.0
 11
301.8801311996927
 21
149.6660358552567
 31
0.0
  0
LINE
  5
11D
330
70
100
AcDbEntity
  8
HON
 62
     9
420
 12632256
370
    25
100
AcDbLine
 10
295.9793151167252
 20
138.9308617495508
 30
0.0
 11
299.1032062416832
 21
152.0924761980147
 31
0.0
  0
LINE
  5
11E
330
70
100
AcDbEntity
  8
HON
 62
     9
420
 12632256
370
    25
100
AcDbLine
 10
334.0839437384157
 20
160.8297756309274
 30
0.0
 11
338.8614206515105
 21
156.0503834411628
 31
0.0
  0
LINE
  5
11F
330
70
100
AcDbEntity
  8
HON
 62
     9
420
 12632256
370
    25
100
AcDbLine
 10
325.9328626335393
 20
160.7832979464991
 30
0.0
 11
329.2627291567644
 21
155.9809699358732
 31
0.0
  0
LINE
  5
120
330
70
100
AcDbEntity
  8
HON
 62
     9
420
 12632256
370
    25
100
AcDbLine
 10
317.4845178484921
 20
159.3659807476826
 30
0.0
 11
320.5476941706162
 21
155.3710035525075
 31
0.0
  0
LINE
  5
121
330
70
100
AcDbEntity
  8
HON
 62
     9
420
 12632256
370
    25
100
AcDbLine
 10
309.3096879793732
 20
157.924509697959
 30
0.0
 11
313.0111801328173
 21
154.0262627213683
 31
0.0
  0
LINE
  5
122
330
70
100
AcDbEntity
  8
HON
 62
     9
420
 12632256
370
    25
100
AcDbLine
 10
303.1200885157093
 20
155.6529616868106
 30
0.0
 11
306.4947442892986
 21
151.4852562961459
 31
0.0
  0
LINE
  5
123
330
70
100
AcDbEntity
  8
HON
 62
     9
420
 12632256
370
    25
100
AcDbLine
 10
299.1032062416832
 20
152.0924761980147
 30
0.0
 11
302.002635058599
 21
149.3041121705598
 31
0.0
  0
LINE
  5
124
330
70
100
AcDbEntity
  8
HON
 62
     9
420
 12632256
370
    25
100
AcDbLine
 10
334.0839437384157
 20
160.8297756309274
 30
0.0
 11
335.8213815169881
 21
161.972499830007
 31
0.0
  0
LINE
  5
125
330
70
100
AcDbEntity
  8
HON
 62
     9
420
 12632256
370
    25
100
AcDbLine
 10
325.9328626335393
 20
160.7832979464991
 30
0.0
 11
327.5581662520863
 21
161.9514377049446
 31
0.0
  0
LINE
  5
126
330
70
100
AcDbEntity
  8
HON
 62
     9
420
 12632256
370
    25
100
AcDbLine
 10
294.4631988947971
 20
132.1396669081857
 30
0.0
 11
294.1182178292889
 21
137.3132114252604
 31
0.0
  0
LINE
  5
127
330
70
100
AcDbEntity
  8
HON
 62
     9
420
 12632256
370
    25
100
AcDbLine
 10
296.3160133468205
 20
133.6434002242163
 30
0.0
 11
296.0056384368098
 21
138.9780186250671
 31
0.0
  0
LINE
  5
128
330
70
100
AcDbEntity
  8
HON
 62
     9
420
 12632256
370
    25
100
AcDbLine
 10
299.6732767607341
 20
135.9725466923411
 30
0.0
 11
299.3848527180594
 21
140.938951214095
 31
0.0
  0
LINE
  5
129
330
70
100
AcDbEntity
  8
HON
 62
     9
420
 12632256
370
    25
100
AcDbLine
 10
305.5649694288021
 20
138.4167109150036
 30
0.0
 11
305.0712751271603
 21
143.2893884706022
 31
0.0
  0
LINE
  5
12A
330
70
100
AcDbEntity
  8
HON
 62
     9
420
 12632256
370
    25
100
AcDbLine
 10
312.8864321045432
 20
139.9796828321423
 30
0.0
 11
312.4811439297675
 21
146.3963605752865
 31
0.0
  0
LINE
  5
12B
330
70
100
AcDbEntity
  8
HON
 62
     9
420
 12632256
370
    25
100
AcDbLine
 10
322.5733285666202
 20
141.1747500774075
 30
0.0
 11
322.2564307525086
 21
149.2279595109763
 31
0.0
  0
LINE
  5
12C
330
70
100
AcDbEntity
  8
HON
 62
     9
420
 12632256
370
    25
100
AcDbLine
 10
317.4845178484921
 20
159.3659807476826
 30
0.0
 11
318.9404896592494
 21
160.84848466642
 31
0.0
  0
LINE
  5
12D
330
70
100
AcDbEntity
  8
HON
 62
     9
420
 12632256
370
    25
100
AcDbLine
 10
309.3096879793732
 20
157.924509697959
 30
0.0
 11
310.5461495824668
 21
159.4070136166964
 31
0.0
  0
LINE
  5
12E
330
70
100
AcDbEntity
  8
HON
 62
     9
420
 12632256
370
    25
100
AcDbLine
 10
303.1200885157093
 20
155.6529616868106
 30
0.0
 11
304.0431134367421
 21
157.1354656055479
 31
0.0
  0
LINE
  5
12F
330
70
100
AcDbEntity
  8
HON
 62
     9
420
 12632256
370
    25
100
AcDbLine
 10
299.1032062416832
 20
152.0924761980147
 30
0.0
 11
299.6554772203412
 21
153.574980116752
 31
0.0
  0
LINE
  5
130
330
70
100
AcDbEntity
  8
HON
 62
     9
420
 12632256
370
    25
100
AcDbLine
 10
316.8964793811692
 20
99.80591160039002
 30
0.0
 11
326.8879795624642
 21
91.34067928993967
 31
0.0
  0
LINE
  5
131
330
70
100
AcDbEntity
  8
HON
 62
     9
420
 12632256
370
    25
100
AcDbLine
 10
304.1025591626056
 20
113.488858178712
 30
0.0
 11
300.2569857292457
 21
118.7753740668014
 31
0.0
  0
LINE
  5
132
330
70
100
AcDbEntity
  8
HON
 62
     9
420
 12632256
370
    25
100
AcDbLine
 10
306.835857423978
 20
107.5907194228661
 30
0.0
 11
312.3322773184017
 21
99.6575202282392
 31
0.0
  0
LINE
  5
133
330
70
100
AcDbEntity
  8
HON
 62
     9
420
 12632256
370
    25
100
AcDbLine
 10
306.835857423978
 20
107.5907194228661
 30
0.0
 11
307.3735450585504
 21
112.5040983632846
 31
0.0
  0
LINE
  5
134
330
70
100
AcDbEntity
  8
HON
 62
     9
420
 12632256
370
    25
100
AcDbLine
 10
300.2569857292457
 20
118.7753740668014
 30
0.0
 11
300.0958006577249
 21
124.1488648671616
 31
0.0
  0
LINE
  5
135
330
70
100
AcDbEntity
  8
HON
 62
     9
420
 12632256
370
    25
100
AcDbLine
 10
339.097067215848
 20
102.0708391550816
 30
0.0
 11
341.9767245679997
 21
93.88975296898101
 31
0.0
  0
LINE
  5
136
330
70
100
AcDbEntity
  8
HON
 62
     9
420
 12632256
370
    25
100
AcDbLine
 10
339.097067215848
 20
102.0708391550816
 30
0.0
 11
338.9465998076677
 21
93.8378526962421
 31
0.0
  0
LINE
  5
137
330
70
100
AcDbEntity
  8
HON
 62
     9
420
 12632256
370
    25
100
AcDbLine
 10
338.9465998076677
 20
93.8378526962421
 30
0.0
 11
333.6776940626429
 21
101.8825380726678
 31
0.0
  0
LINE
  5
138
330
70
100
AcDbEntity
  8
HON
 62
     9
420
 12632256
370
    25
100
AcDbLine
 10
333.6776940626429
 20
101.8825380726678
 30
0.0
 11
335.6578262881647
 21
93.65552477823605
 31
0.0
  0
LINE
  5
139
330
70
100
AcDbEntity
  8
HON
 62
     9
420
 12632256
370
    25
100
AcDbLine
 10
335.6578262881647
 20
93.65552477823605
 30
0.0
 11
328.683171160025
 21
101.8483228956834
 31
0.0
  0
LINE
  5
13A
330
70
100
AcDbEntity
  8
HON
 62
     9
420
 12632256
370
    25
100
AcDbLine
 10
328.683171160025
 20
101.8483228956834
 30
0.0
 11
332.6752490470913
 21
93.34791364483837
 31
0.0
  0
LINE
  5
13B
330
70
100
AcDbEntity
  8
HON
 62
     9
420
 12632256
370
    25
100
AcDbLine
 10
332.6752490470913
 20
93.34791364483837
 30
0.0
 11
324.3054352221752
 21
101.3159702054848
 31
0.0
  0
LINE
  5
13C
330
70
100
AcDbEntity
  8
HON
 62
     9
420
 12632256
370
    25
100
AcDbLine
 10
324.3054352221752
 20
101.3159702054848
 30
0.0
 11
330.2592672318346
 21
92.94685195371604
 31
0.0
  0
LINE
  5
13D
330
70
100
AcDbEntity
  8
HON
 62
     9
420
 12632256
370
    25
100
AcDbLine
 10
330.2592672318346
 20
92.94685195371604
 30
0.0
 11
320.7127201861572
 21
101.8477800848351
 31
0.0
  0
LINE
  5
13E
330
70
100
AcDbEntity
  8
HON
 62
     9
420
 12632256
370
    25
100
AcDbLine
 10
320.7127201861572
 20
101.8477800848351
 30
0.0
 11
328.499389461454
 21
92.48715444678639
 31
0.0
  0
LINE
  5
13F
330
70
100
AcDbEntity
  8
HON
 62
     9
420
 12632256
370
    25
100
AcDbLine
 10
328.499389461454
 20
92.48715444678639
 30
0.0
 11
318.5637707629647
 21
100.9939755918662
 31
0.0
  0
LINE
  5
140
330
70
100
AcDbEntity
  8
HON
 62
     9
420
 12632256
370
    25
100
AcDbLine
 10
318.4668272305675
 20
101.0296127372425
 30
0.0
 11
327.4144212931014
 21
92.00866217323714
 31
0.0
  0
LINE
  5
141
330
70
100
AcDbEntity
  8
HON
 62
     9
420
 12632256
370
    25
100
AcDbLine
 10
327.4144212931014
 20
92.00866217323714
 30
0.0
 11
317.9924841609506
 21
100.3063719582555
 31
0.0
  0
LINE
  5
142
330
70
100
AcDbEntity
  8
HON
 62
     9
420
 12632256
370
    25
100
AcDbLine
 10
317.8450749603372
 20
100.3574951753266
 30
0.0
 11
326.9503755181438
 21
91.57381262959566
 31
0.0
  0
LINE
  5
143
330
70
100
AcDbEntity
  8
HON
 62
     9
420
 12632256
370
    25
100
AcDbLine
 10
326.9503755181438
 20
91.57381262959566
 30
0.0
 11
317.5725609779885
 21
99.89453315192207
 31
0.0
  0
LINE
  5
144
330
70
100
AcDbEntity
  8
HON
 62
     9
420
 12632256
370
    25
100
AcDbLine
 10
317.5111310477494
 20
99.91420237990388
 30
0.0
 11
326.8879795624642
 21
91.3406792899326
 31
0.0
  0
LINE
  5
145
330
70
100
AcDbEntity
  8
HON
 62
     9
420
 12632256
370
    25
100
AcDbLine
 10
341.8071221318125
 20
102.0708391550816
 30
0.0
 11
333.9165295270676
 21
111.3817103701192
 31
0.0
  0
LINE
  5
146
330
70
100
AcDbEntity
  8
HON
 62
     9
420
 12632256
370
    25
100
AcDbLine
 10
333.9165295270676
 20
111.3817103701192
 30
0.0
 11
336.1701277136712
 21
101.8825380726678
 31
0.0
  0
LINE
  5
147
330
70
100
AcDbEntity
  8
HON
 62
     9
420
 12632256
370
    25
100
AcDbLine
 10
336.1701277136712
 20
101.8825380726678
 30
0.0
 11
327.0839446189202
 21
110.8705634902938
 31
0.0
  0
LINE
  5
148
330
70
100
AcDbEntity
  8
HON
 62
     9
420
 12632256
370
    25
100
AcDbLine
 10
327.0839446189202
 20
110.8705634902938
 30
0.0
 11
330.5866751200747
 21
101.8483228956834
 31
0.0
  0
LINE
  5
149
330
70
100
AcDbEntity
  8
HON
 62
     9
420
 12632256
370
    25
100
AcDbLine
 10
330.5866751200747
 20
101.8483228956834
 30
0.0
 11
321.3182780998397
 21
110.8874630012954
 31
0.0
  0
LINE
  5
14A
330
70
100
AcDbEntity
  8
HON
 62
     9
420
 12632256
370
    25
100
AcDbLine
 10
321.3182780998397
 20
110.8874630012954
 30
0.0
 11
325.440935739144
 21
101.5390292757319
 31
0.0
  0
LINE
  5
14B
330
70
100
AcDbEntity
  8
HON
 62
     9
420
 12632256
370
    25
100
AcDbLine
 10
325.440935739144
 20
101.5390292757319
 30
0.0
 11
316.1317508141455
 21
110.2431103399118
 31
0.0
  0
LINE
  5
14C
330
70
100
AcDbEntity
  8
HON
 62
     9
420
 12632256
370
    25
100
AcDbLine
 10
316.1317508141455
 20
110.2431103399118
 30
0.0
 11
320.930657449538
 21
101.8477800848351
 31
0.0
  0
LINE
  5
14D
330
70
100
AcDbEntity
  8
HON
 62
     9
420
 12632256
370
    25
100
AcDbLine
 10
320.930657449538
 20
101.8477800848351
 30
0.0
 11
311.9619100767652
 21
109.5779861168315
 31
0.0
  0
LINE
  5
14E
330
70
100
AcDbEntity
  8
HON
 62
     9
420
 12632256
370
    25
100
AcDbLine
 10
311.9619100767652
 20
109.5779861168315
 30
0.0
 11
317.229167716515
 21
101.4845853479003
 31
0.0
  0
LINE
  5
14F
330
70
100
AcDbEntity
  8
HON
 62
     9
420
 12632256
370
    25
100
AcDbLine
 10
317.229167716515
 20
101.4845853479003
 30
0.0
 11
309.3030085033618
 21
108.8987488117455
 31
0.0
  0
LINE
  5
150
330
70
100
AcDbEntity
  8
HON
 62
     9
420
 12632256
370
    25
100
AcDbLine
 10
309.3030085033618
 20
108.8987488117455
 30
0.0
 11
314.6856995415594
 21
100.8215961808061
 31
0.0
  0
LINE
  5
151
330
70
100
AcDbEntity
  8
HON
 62
     9
420
 12632256
370
    25
100
AcDbLine
 10
314.6856995415594
 20
100.8215961808061
 30
0.0
 11
307.662637200209
 21
108.084706243089
 31
0.0
  0
LINE
  5
152
330
70
100
AcDbEntity
  8
HON
 62
     9
420
 12632256
370
    25
100
AcDbLine
 10
307.662637200209
 20
108.084706243089
 30
0.0
 11
312.9155489717592
 21
100.2039629149618
 31
0.0
  0
LINE
  5
153
330
70
100
AcDbEntity
  8
HON
 62
     9
420
 12632256
370
    25
100
AcDbLine
 10
312.9155489717592
 20
100.2039629149618
 30
0.0
 11
306.835857423978
 21
107.5907194228661
 31
0.0
  0
LINE
  5
154
330
70
100
AcDbEntity
  8
HON
 62
     9
420
 12632256
370
    25
100
AcDbLine
 10
307.662637200209
 20
108.084706243089
 30
0.0
 11
308.4567906860609
 21
114.1383579851589
 31
0.0
  0
LINE
  5
155
330
70
100
AcDbEntity
  8
HON
 62
     9
420
 12632256
370
    25
100
AcDbLine
 10
309.3030085033618
 20
108.8987488117455
 30
0.0
 11
310.3195739410426
 21
115.8831371752622
 31
0.0
  0
LINE
  5
156
330
70
100
AcDbEntity
  8
HON
 62
     9
420
 12632256
370
    25
100
AcDbLine
 10
310.3195739410426
 20
115.8831371752622
 30
0.0
 11
311.9619100767652
 21
109.5779861168315
 31
0.0
  0
LINE
  5
157
330
70
100
AcDbEntity
  8
HON
 62
     9
420
 12632256
370
    25
100
AcDbLine
 10
311.9619100767652
 20
109.5779861168315
 30
0.0
 11
313.4557121435077
 21
116.4525095651422
 31
0.0
  0
LINE
  5
158
330
70
100
AcDbEntity
  8
HON
 62
     9
420
 12632256
370
    25
100
AcDbLine
 10
313.4557121435077
 20
116.4525095651422
 30
0.0
 11
316.1317508141455
 21
110.2431103399118
 31
0.0
  0
LINE
  5
159
330
70
100
AcDbEntity
  8
HON
 62
     9
420
 12632256
370
    25
100
AcDbLine
 10
316.1317508141455
 20
110.2431103399118
 30
0.0
 11
317.780462164226
 21
116.5593528332999
 31
0.0
  0
LINE
  5
15A
330
70
100
AcDbEntity
  8
HON
 62
     9
420
 12632256
370
    25
100
AcDbLine
 10
317.780462164226
 20
116.5593528332999
 30
0.0
 11
321.3182780998397
 21
110.8874630012954
 31
0.0
  0
LINE
  5
15B
330
70
100
AcDbEntity
  8
HON
 62
     9
420
 12632256
370
    25
100
AcDbLine
 10
321.3182780998397
 20
110.8874630012954
 30
0.0
 11
323.3832765748204
 21
116.9361178413849
 31
0.0
  0
LINE
  5
15C
330
70
100
AcDbEntity
  8
HON
 62
     9
420
 12632256
370
    25
100
AcDbLine
 10
323.3832765748204
 20
116.9361178413849
 30
0.0
 11
327.0839446189202
 21
110.8705634902938
 31
0.0
  0
LINE
  5
15D
330
70
100
AcDbEntity
  8
HON
 62
     9
420
 12632256
370
    25
100
AcDbLine
 10
327.0839446189202
 20
110.8705634902938
 30
0.0
 11
330.1804517396046
 21
117.0241979479648
 31
0.0
  0
LINE
  5
15E
330
70
100
AcDbEntity
  8
HON
 62
     9
420
 12632256
370
    25
100
AcDbLine
 10
330.1804517396046
 20
117.0241979479648
 30
0.0
 11
333.9165295270676
 21
111.3817103701192
 31
0.0
  0
LINE
  5
15F
330
70
100
AcDbEntity
  8
HON
 62
     9
420
 12632256
370
    25
100
AcDbLine
 10
333.9165295270676
 20
111.3817103701192
 30
0.0
 11
337.2947655693371
 21
116.5617050136322
 31
0.0
  0
LINE
  5
160
330
70
100
AcDbEntity
  8
HON
 62
     9
420
 12632256
370
    25
100
AcDbLine
 10
337.2947655693371
 20
116.5617050136322
 30
0.0
 11
341.9869733342862
 21
111.8217309354358
 31
0.0
  0
LINE
  5
161
330
70
100
AcDbEntity
  8
HON
 62
     9
420
 12632256
370
    25
100
AcDbLine
 10
304.1025591626056
 20
113.488858178712
 30
0.0
 11
301.5088077569536
 21
120.057475190949
 31
0.0
  0
LINE
  5
162
330
70
100
AcDbEntity
  8
HON
 62
     9
420
 12632256
370
    25
100
AcDbLine
 10
301.5088077569536
 20
120.057475190949
 30
0.0
 11
305.1106761821082
 21
114.5069361074435
 31
0.0
  0
LINE
  5
163
330
70
100
AcDbEntity
  8
HON
 62
     9
420
 12632256
370
    25
100
AcDbLine
 10
305.1106761821082
 20
114.5069361074435
 30
0.0
 11
303.7017998810106
 21
121.4829507531697
 31
0.0
  0
LINE
  5
164
330
70
100
AcDbEntity
  8
HON
 62
     9
420
 12632256
370
    25
100
AcDbLine
 10
303.7017998810106
 20
121.4829507531697
 30
0.0
 11
307.179965207779
 21
115.5967193489155
 31
0.0
  0
LINE
  5
165
330
70
100
AcDbEntity
  8
HON
 62
     9
420
 12632256
370
    25
100
AcDbLine
 10
307.179965207779
 20
115.5967193489155
 30
0.0
 11
307.8231559695999
 21
122.9470563539189
 31
0.0
  0
LINE
  5
166
330
70
100
AcDbEntity
  8
HON
 62
     9
420
 12632256
370
    25
100
AcDbLine
 10
307.8231559695999
 20
122.9470563539189
 30
0.0
 11
310.340265076244
 21
116.321169679603
 31
0.0
  0
LINE
  5
167
330
70
100
AcDbEntity
  8
HON
 62
     9
420
 12632256
370
    25
100
AcDbLine
 10
310.340265076244
 20
116.321169679603
 30
0.0
 11
313.1393096291408
 21
124.3571522755073
 31
0.0
  0
LINE
  5
168
330
70
100
AcDbEntity
  8
HON
 62
     9
420
 12632256
370
    25
100
AcDbLine
 10
313.1393096291408
 20
124.3571522755073
 30
0.0
 11
315.2541912145219
 21
117.0502749565595
 31
0.0
  0
LINE
  5
169
330
70
100
AcDbEntity
  8
HON
 62
     9
420
 12632256
370
    25
100
AcDbLine
 10
315.2541912145219
 20
117.0502749565595
 30
0.0
 11
319.4893405320549
 21
124.8626720162243
 31
0.0
  0
LINE
  5
16A
330
70
100
AcDbEntity
  8
HON
 62
     9
420
 12632256
370
    25
100
AcDbLine
 10
319.4893405320549
 20
124.8626720162243
 30
0.0
 11
321.2087347086318
 21
117.5530013170982
 31
0.0
  0
LINE
  5
16B
330
70
100
AcDbEntity
  8
HON
 62
     9
420
 12632256
370
    25
100
AcDbLine
 10
321.2087347086318
 20
117.5530013170982
 30
0.0
 11
326.8830097657197
 21
125.3904289079314
 31
0.0
  0
LINE
  5
16C
330
70
100
AcDbEntity
  8
HON
 62
     9
420
 12632256
370
    25
100
AcDbLine
 10
326.8830097657197
 20
125.3904289079314
 30
0.0
 11
327.6714843474934
 21
118.0563785925584
 31
0.0
  0
LINE
  5
16D
330
70
100
AcDbEntity
  8
HON
 62
     9
420
 12632256
370
    25
100
AcDbLine
 10
327.6714843474934
 20
118.0563785925584
 30
0.0
 11
334.2169907853075
 21
126.1648093305647
 31
0.0
  0
LINE
  5
16E
330
70
100
AcDbEntity
  8
HON
 62
     9
420
 12632256
370
    25
100
AcDbLine
 10
334.2169907853075
 20
126.1648093305647
 30
0.0
 11
334.8658770143597
 21
118.4202121064193
 31
0.0
  0
LINE
  5
16F
330
70
100
AcDbEntity
  8
HON
 62
     9
420
 12632256
370
    25
100
AcDbLine
 10
334.8658770143597
 20
118.4202121064193
 30
0.0
 11
342.0957657189674
 21
127.310296588526
 31
0.0
  0
LINE
  5
170
330
70
100
AcDbEntity
  8
HON
 62
     9
420
 12632256
370
    25
100
AcDbLine
 10
304.1025591626116
 20
113.4888581787049
 30
0.0
 11
307.3084712017153
 21
111.9535594417506
 31
0.0
  0
LINE
  5
171
330
70
100
AcDbEntity
  8
HON
 62
     9
420
 12632256
370
    25
100
AcDbLine
 10
305.1106761821082
 20
114.5069361074435
 30
0.0
 11
308.384756286708
 21
112.9545388288435
 31
0.0
  0
LINE
  5
172
330
70
100
AcDbEntity
  8
HON
 62
     9
420
 12632256
370
    25
100
AcDbLine
 10
307.179965207779
 20
115.5967193489155
 30
0.0
 11
309.9066408772197
 21
113.1261741754824
 31
0.0
  0
LINE
  5
173
330
70
100
AcDbEntity
  8
HON
 62
     9
420
 12632256
370
    25
100
AcDbLine
 10
310.340265076244
 20
116.321169679603
 30
0.0
 11
312.9614865993139
 21
114.4711931843218
 31
0.0
  0
LINE
  5
174
330
70
100
AcDbEntity
  8
HON
 62
     9
420
 12632256
370
    25
100
AcDbLine
 10
315.2541912145219
 20
117.0502749565595
 30
0.0
 11
317.2638764572843
 21
115.0692002811403
 31
0.0
  0
LINE
  5
175
330
70
100
AcDbEntity
  8
HON
 62
     9
420
 12632256
370
    25
100
AcDbLine
 10
321.2087347086318
 20
117.5530013170982
 30
0.0
 11
322.6830412229901
 21
114.4190867899143
 31
0.0
  0
LINE
  5
176
330
70
100
AcDbEntity
  8
HON
 62
     9
420
 12632256
370
    25
100
AcDbLine
 10
327.6714843474934
 20
118.0563785925584
 30
0.0
 11
328.7749365429653
 21
114.3890684665266
 31
0.0
  0
LINE
  5
177
330
70
100
AcDbEntity
  8
HON
 62
     9
420
 12632256
370
    25
100
AcDbLine
 10
334.8658770143597
 20
118.4202121064193
 30
0.0
 11
335.5705230512901
 21
114.2415252506014
 31
0.0
  0
LINE
  5
178
330
70
100
AcDbEntity
  8
HON
 62
     9
420
 12632256
370
    25
100
AcDbLine
 10
317.4372455889403
 20
99.29641724919655
 30
0.0
 11
312.3322773184017
 21
99.6575202282392
 31
0.0
  0
LINE
  5
179
330
70
100
AcDbEntity
  8
HON
 62
     9
420
 12632256
370
    25
100
AcDbLine
 10
336.1701277136712
 20
101.8825380726678
 30
0.0
 11
339.0861745084172
 21
100.2448887338064
 31
0.0
  0
LINE
  5
17A
330
70
100
AcDbEntity
  8
HON
 62
     9
420
 12632256
370
    25
100
AcDbLine
 10
330.5866751200747
 20
101.8483228956834
 30
0.0
 11
334.1073420959125
 21
100.056587651392
 31
0.0
  0
LINE
  5
17B
330
70
100
AcDbEntity
  8
HON
 62
     9
420
 12632256
370
    25
100
AcDbLine
 10
325.440935739144
 20
101.5390292757319
 30
0.0
 11
329.5188238651971
 21
100.2448887338064
 31
0.0
  0
LINE
  5
17C
330
70
100
AcDbEntity
  8
HON
 62
     9
420
 12632256
370
    25
100
AcDbLine
 10
325.4969539985958
 20
100.2448887338064
 30
0.0
 11
320.930657449538
 21
101.8477800848351
 31
0.0
  0
LINE
  5
17D
330
70
100
AcDbEntity
  8
HON
 62
     9
420
 12632256
370
    25
100
AcDbLine
 10
317.229167716515
 20
101.4845853479003
 30
0.0
 11
322.1962906996213
 21
100.2448887338064
 31
0.0
  0
LINE
  5
17E
330
70
100
AcDbEntity
  8
HON
 62
     9
420
 12632256
370
    25
100
AcDbLine
 10
314.6856995415594
 20
100.8215961808061
 30
0.0
 11
319.7436766077913
 21
99.69903814724219
 31
0.0
  0
LINE
  5
17F
330
70
100
AcDbEntity
  8
HON
 62
     9
420
 12632256
370
    25
100
AcDbLine
 10
312.9155489717592
 20
100.2039629149618
 30
0.0
 11
318.4877061681465
 21
99.60151313194565
 31
0.0
  0
LINE
  5
180
330
70
100
AcDbEntity
  8
HON
 62
     9
420
 12632256
370
    25
100
AcDbLine
 10
337.2947655693371
 20
116.5617050136322
 30
0.0
 11
342.0957657189674
 21
127.310296588526
 31
0.0
  0
LINE
  5
181
330
70
100
AcDbEntity
  8
HON
 62
     9
420
 12632256
370
    25
100
AcDbLine
 10
330.1804517396046
 20
117.0241979479648
 30
0.0
 11
334.2169907853075
 21
126.1648093305647
 31
0.0
  0
LINE
  5
182
330
70
100
AcDbEntity
  8
HON
 62
     9
420
 12632256
370
    25
100
AcDbLine
 10
323.3832765748204
 20
116.9361178413849
 30
0.0
 11
326.8830097657197
 21
125.3904289079314
 31
0.0
  0
LINE
  5
183
330
70
100
AcDbEntity
  8
HON
 62
     9
420
 12632256
370
    25
100
AcDbLine
 10
317.780462164226
 20
116.5593528332999
 30
0.0
 11
319.4893405320549
 21
124.8626720162243
 31
0.0
  0
LINE
  5
184
330
70
100
AcDbEntity
  8
HON
 62
     9
420
 12632256
370
    25
100
AcDbLine
 10
313.4557121435077
 20
116.4525095651422
 30
0.0
 11
313.1393096291408
 21
124.3571522755073
 31
0.0
  0
LINE
  5
185
330
70
100
AcDbEntity
  8
HON
 62
     9
420
 12632256
370
    25
100
AcDbLine
 10
339.097067215848
 20
102.0708391550816
 30
0.0
 11
339.097067215848
 21
105.1857323585259
 31
0.0
  0
LINE
  5
186
330
70
100
AcDbEntity
  8
HON
 62
     9
420
 12632256
370
    25
100
AcDbLine
 10
333.6776940626429
 20
101.8825380726678
 30
0.0
 11
333.6776940626429
 21
104.4399198869666
 31
0.0
  0
LINE
  5
187
330
70
100
AcDbEntity
  8
HON
 62
     9
420
 12632256
370
    25
100
AcDbLine
 10
328.683171160025
 20
101.8483228956834
 30
0.0
 11
328.683171160025
 21
103.8286254762554
 31
0.0
  0
LINE
  5
188
330
70
100
AcDbEntity
  8
HON
 62
     9
420
 12632256
370
    25
100
AcDbLine
 10
324.3054352221752
 20
101.3159702054848
 30
0.0
 11
324.3054352221752
 21
103.1871765917099
 31
0.0
  0
LINE
  5
189
330
70
100
AcDbEntity
  8
HON
 62
     9
420
 12632256
370
    25
100
AcDbLine
 10
342.1139851246846
 20
127.3326997073889
 30
0.0
 11
333.3526226830554
 21
142.5226520811053
 31
0.0
  0
LINE
  5
18A
330
70
100
AcDbEntity
  8
HON
 62
     9
420
 12632256
370
    25
100
AcDbLine
 10
332.9522905762056
 20
127.6226409281479
 30
0.0
 11
322.5835773329588
 21
141.2761997625086
 31
0.0
  0
LINE
  5
18B
330
70
100
AcDbEntity
  8
HON
 62
     9
420
 12632256
370
    25
100
AcDbLine
 10
322.5835773329588
 20
141.2761997625086
 30
0.0
 11
325.1944009277943
 21
126.8117719929573
 31
0.0
  0
LINE
  5
18C
330
70
100
AcDbEntity
  8
HON
 62
     9
420
 12632256
370
    25
100
AcDbLine
 10
325.1944009277943
 20
126.8117719929573
 30
0.0
 11
312.8966808708952
 21
140.0811325172504
 31
0.0
  0
LINE
  5
18D
330
70
100
AcDbEntity
  8
HON
 62
     9
420
 12632256
370
    25
100
AcDbLine
 10
312.8966808708952
 20
140.0811325172504
 30
0.0
 11
318.512842996309
 21
126.1201766942949
 31
0.0
  0
LINE
  5
18E
330
70
100
AcDbEntity
  8
HON
 62
     9
420
 12632256
370
    25
100
AcDbLine
 10
318.512842996309
 20
126.1201766942949
 30
0.0
 11
305.5752181951415
 21
138.5181606001182
 31
0.0
  0
LINE
  5
18F
330
70
100
AcDbEntity
  8
HON
 62
     9
420
 12632256
370
    25
100
AcDbLine
 10
305.5752181951415
 20
138.5181606001182
 30
0.0
 11
312.1639962745915
 21
125.8433793503078
 31
0.0
  0
LINE
  5
190
330
70
100
AcDbEntity
  8
HON
 62
     9
420
 12632256
370
    25
100
AcDbLine
 10
312.1639962745915
 20
125.8433793503078
 30
0.0
 11
299.6835255270862
 21
136.0739963774557
 31
0.0
  0
LINE
  5
191
330
70
100
AcDbEntity
  8
HON
 62
     9
420
 12632256
370
    25
100
AcDbLine
 10
299.6835255270862
 20
136.0739963774557
 30
0.0
 11
307.0451808231557
 21
124.2579555255188
 31
0.0
  0
LINE
  5
192
330
70
100
AcDbEntity
  8
HON
 62
     9
420
 12632256
370
    25
100
AcDbLine
 10
307.0451808231557
 20
124.2579555255188
 30
0.0
 11
296.3262621131585
 21
133.7448499093245
 31
0.0
  0
LINE
  5
193
330
70
100
AcDbEntity
  8
HON
 62
     9
420
 12632256
370
    25
100
AcDbLine
 10
294.4734476611421
 20
132.2411165933004
 30
0.0
 11
300.8917794709752
 21
123.0637354773143
 31
0.0
  0
LINE
  5
194
330
70
100
AcDbEntity
  8
HON
 62
     9
420
 12632256
370
    25
100
AcDbLine
 10
303.3093708433185
 20
123.9231859831989
 30
0.0
 11
294.4734476611421
 21
132.2411165933004
 31
0.0
  0
LINE
  5
195
330
70
100
AcDbEntity
  8
HON
 62
     9
420
 12632256
370
    25
100
AcDbLine
 10
332.9522905762056
 20
127.6226409281479
 30
0.0
 11
333.3526226830554
 21
142.5226520811053
 31
0.0
  0
LINE
  5
196
330
70
100
AcDbEntity
  8
HON
 62
     9
420
 12632256
370
    25
100
AcDbLine
 10
334.2169907853075
 20
126.1648093305647
 30
0.0
 11
337.8876800573524
 21
135.8054768088009
 31
0.0
  0
LINE
  5
197
330
70
100
AcDbEntity
  8
HON
 62
     9
420
 12632256
370
    25
100
AcDbLine
 10
326.8830097657197
 20
125.3904289079314
 30
0.0
 11
328.2028246824099
 21
134.5346785305657
 31
0.0
  0
LINE
  5
198
330
70
100
AcDbEntity
  8
HON
 62
     9
420
 12632256
370
    25
100
AcDbLine
 10
319.4893405320549
 20
124.8626720162243
 30
0.0
 11
321.105094337083
 21
131.4736551859171
 31
0.0
  0
LINE
  5
199
330
70
100
AcDbEntity
  8
HON
 62
     9
420
 12632256
370
    25
100
AcDbLine
 10
313.1393096291408
 20
124.3571522755073
 30
0.0
 11
314.0743881975367
 21
130.2749181661201
 31
0.0
  0
LINE
  5
19A
330
70
100
AcDbEntity
  8
HON
 62
     9
420
 12632256
370
    25
100
AcDbLine
 10
307.8231559695999
 20
122.9470563539189
 30
0.0
 11
308.4847839191125
 21
128.7238160131058
 31
0.0
  0
LINE
  5
19B
330
70
100
AcDbEntity
  8
HON
 62
     9
420
 12632256
370
    25
100
AcDbLine
 10
303.7017998810106
 20
121.4829507531697
 30
0.0
 11
304.0125754980682
 21
126.8743206907895
 31
0.0
  0
LINE
  5
19C
330
70
100
AcDbEntity
  8
HON
 62
     9
420
 12632256
370
    25
100
AcDbLine
 10
301.5088077569536
 20
120.057475190949
 30
0.0
 11
301.2477203653523
 21
125.658387871353
 31
0.0
  0
LINE
  5
19D
330
70
100
AcDbEntity
  8
HON
 62
     9
420
 12632256
370
    25
100
AcDbLine
 10
296.3262621131585
 20
133.7448499093245
 30
0.0
 11
303.3093708433185
 21
123.9231859831989
 31
0.0
  0
LINE
  5
19E
330
70
100
AcDbEntity
  8
HON
 62
     9
420
 12632256
370
    25
100
AcDbLine
 10
332.9522905762056
 20
127.6226409281479
 30
0.0
 11
337.8876800573524
 21
135.8054768088009
 31
0.0
  0
LINE
  5
19F
330
70
100
AcDbEntity
  8
HON
 62
     9
420
 12632256
370
    25
100
AcDbLine
 10
325.1944009277943
 20
126.8117719929573
 30
0.0
 11
328.2028246824099
 21
134.5346785305657
 31
0.0
  0
LINE
  5
1A0
330
70
100
AcDbEntity
  8
HON
 62
     9
420
 12632256
370
    25
100
AcDbLine
 10
318.512842996309
 20
126.1201766942949
 30
0.0
 11
321.105094337083
 21
131.4736551859171
 31
0.0
  0
LINE
  5
1A1
330
70
100
AcDbEntity
  8
HON
 62
     9
420
 12632256
370
    25
100
AcDbLine
 10
312.1639962745915
 20
125.8433793503078
 30
0.0
 11
314.0743881975367
 21
130.2749181661201
 31
0.0
  0
LINE
  5
1A2
330
70
100
AcDbEntity
  8
HON
 62
     9
420
 12632256
370
    25
100
AcDbLine
 10
307.0451808231557
 20
124.2579555255188
 30
0.0
 11
308.4847839191125
 21
128.7238160131058
 31
0.0
  0
LINE
  5
1A3
330
70
100
AcDbEntity
  8
HON
 62
     9
420
 12632256
370
    25
100
AcDbLine
 10
303.3093708433185
 20
123.9231859831989
 30
0.0
 11
304.0125754980682
 21
126.8743206907895
 31
0.0
  0
LINE
  5
1A4
330
70
100
AcDbEntity
  8
HON
 62
     9
420
 12632256
370
    25
100
AcDbLine
 10
300.8917794709752
 20
123.0637354773143
 30
0.0
 11
301.2477203653523
 21
125.658387871353
 31
0.0
  0
LINE
  5
1A5
330
70
100
AcDbEntity
  8
HON
 62
     9
420
 12632256
370
    25
100
AcDbLine
 10
332.9522905762056
 20
127.6226409281479
 30
0.0
 11
334.2169907853075
 21
126.1648093305647
 31
0.0
  0
LINE
  5
1A6
330
70
100
AcDbEntity
  8
HON
 62
     9
420
 12632256
370
    25
100
AcDbLine
 10
325.1944009277943
 20
126.8117719929573
 30
0.0
 11
326.8830097657197
 21
125.3904289079314
 31
0.0
  0
LINE
  5
1A7
330
70
100
AcDbEntity
  8
HON
 62
     9
420
 12632256
370
    25
100
AcDbLine
 10
318.512842996309
 20
126.1201766942949
 30
0.0
 11
319.4893405320549
 21
124.8626720162243
 31
0.0
  0
LINE
  5
1A8
330
70
100
AcDbEntity
  8
HON
 62
     9
420
 12632256
370
    25
100
AcDbLine
 10
312.1639962745915
 20
125.8433793503078
 30
0.0
 11
313.1393096291408
 21
124.3571522755073
 31
0.0
  0
LINE
  5
1A9
330
70
100
AcDbEntity
  8
HON
 62
     9
420
 12632256
370
    25
100
AcDbLine
 10
307.0451808231557
 20
124.2579555255188
 30
0.0
 11
307.8231559695999
 21
122.9470563539189
 31
0.0
  0
LINE
  5
1AA
330
70
100
AcDbEntity
  8
HON
 62
     9
420
 12632256
370
    25
100
AcDbLine
 10
303.3093708433185
 20
123.9231859831989
 30
0.0
 11
303.8616418219766
 21
122.7010684272041
 31
0.0
  0
LINE
  5
1AB
330
70
100
AcDbEntity
  8
HON
 62
     9
420
 12632256
370
    25
100
AcDbLine
 10
301.3142870583057
 20
121.581231558577
 30
0.0
 11
300.8917794709752
 21
123.0637354773143
 31
0.0
  0
LINE
  5
1AC
330
70
100
AcDbEntity
  8
HON
 62
     9
420
 12632256
370
    25
100
AcDbLine
 10
340.5357534613948
 20
91.80177063954605
 30
0.0
 11
338.2474045385378
 21
88.87065454014644
 31
0.0
  0
LINE
  5
1AD
330
70
100
AcDbEntity
  8
HON
 62
     9
420
 12632256
370
    25
100
AcDbLine
 10
338.5659993692904
 20
91.93885855037773
 30
0.0
 11
334.9320953679815
 21
89.0864052591651
 31
0.0
  0
LINE
  5
1AE
330
70
100
AcDbEntity
  8
HON
 62
     9
420
 12632256
370
    25
100
AcDbLine
 10
337.2054632582813
 20
92.13894005759597
 30
0.0
 11
332.1867083273754
 21
89.40088067153419
 31
0.0
  0
LINE
  5
1AF
330
70
100
AcDbEntity
  8
HON
 62
     9
420
 12632256
370
    25
100
AcDbLine
 10
336.3688247803553
 20
92.36943783946598
 30
0.0
 11
329.2664196191133
 21
89.96676184512983
 31
0.0
  0
LINE
  5
1B0
330
70
100
AcDbEntity
  8
HON
 62
     9
420
 12632256
370
    25
100
AcDbLine
 10
336.0419414925936
 20
92.55523443750432
 30
0.0
 11
327.7465922874362
 21
90.49265515109871
 31
0.0
  0
LINE
  5
1B1
330
70
100
AcDbEntity
  8
HON
 62
     9
420
 12632256
370
    25
100
AcDbLine
 10
335.9628444861832
 20
92.70575809872031
 30
0.0
 11
326.9459448330459
 21
91.11584479435503
 31
0.0
  0
LINE
  5
1B2
330
70
100
AcDbEntity
  8
HON
 62
     9
420
 12632256
370
    25
100
AcDbLine
 10
310.2013990151153
 20
193.3004937978167
 30
0.0
 11
312.0724198327691
 21
191.4725582707835
 31
0.0
  0
LINE
  5
1B3
330
70
100
AcDbEntity
  8
HON
 62
     9
420
 12632256
370
    25
100
AcDbLine
 10
305.796353042767
 20
191.4358933761945
 30
0.0
 11
307.5684878703249
 21
190.4251092679725
 31
0.0
  0
LINE
  5
1B4
330
70
100
AcDbEntity
  8
HON
 62
     9
420
 12632256
370
    25
100
AcDbLine
 10
303.6927483758946
 20
190.8312255899
 30
0.0
 11
304.9355430276672
 21
190.4335402831056
 31
0.0
  0
LINE
  5
1B5
330
70
100
AcDbEntity
  8
HON
 62
     9
420
 12632256
370
    25
100
AcDbLine
 10
299.1032062416832
 20
152.0924761980147
 30
0.0
 11
296.7451390173555
 21
154.3552260587946
 31
0.0
  0
SPLINE
  5
1B6
330
70
100
AcDbEntity
  8
HON
 62
     9
420
 12632256
370
    25
100
AcDbSpline
210
0.0
220
0.0
230
1.0
 70
     8
 71
     3
 72
    11
 73
     7
 74
     0
 42
0.0000000001
 43
0.0000000001
 40
0.0
 40
0.0
 40
0.0
 40
0.0
 40
1.0
 40
1.0
 40
1.0
 40
2.0
 40
2.0
 40
2.0
 40
2.0
 10
326.8871383084803
 20
208.4354643492089
 30
0.0
 10
326.8871261755227
 20
208.4417829844056
 30
0.0
 10
326.8872531102798
 20
208.4481016053852
 30
0.0
 10
326.8875191101195
 20
208.4544200811155
 30
0.0
 10
326.9467848226404
 20
209.8621989965076
 30
0.0
 10
333.7501195740781
 20
210.9953127411323
 30
0.0
 10
342.0831925853175
 20
210.9853004659039
 30
0.0
  0
LINE
  5
1B7
330
70
100
AcDbEntity
  8
HON
 62
     9
420
 12632256
370
    25
100
AcDbLine
 10
341.8336341759446
 20
203.4296006851904
 30
0.0
 11
340.057549112238
 21
210.9486938556604
 31
0.0
  0
LINE
  5
1B8
330
70
100
AcDbEntity
  8
HON
 62
     9
420
 12632256
370
    25
100
AcDbLine
 10
340.057549112238
 20
210.9486938556604
 30
0.0
 11
337.942898128313
 21
203.3375574559791
 31
0.0
  0
LINE
  5
1B9
330
70
100
AcDbEntity
  8
HON
 62
     9
420
 12632256
370
    25
100
AcDbLine
 10
337.942898128313
 20
203.3375574559791
 30
0.0
 11
337.4337177346147
 21
210.8671253153135
 31
0.0
  0
LINE
  5
1BA
330
70
100
AcDbEntity
  8
HON
 62
     9
420
 12632256
370
    25
100
AcDbLine
 10
337.4337177346147
 20
210.8671253153135
 30
0.0
 11
332.601312885237
 21
203.0947305257452
 31
0.0
  0
LINE
  5
1BB
330
70
100
AcDbEntity
  8
HON
 62
     9
420
 12632256
370
    25
100
AcDbLine
 10
332.601312885237
 20
203.0947305257452
 30
0.0
 11
335.7340128193234
 21
210.7570281550276
 31
0.0
  0
LINE
  5
1BC
330
70
100
AcDbEntity
  8
HON
 62
     9
420
 12632256
370
    25
100
AcDbLine
 10
335.7340128193234
 20
210.7570281550276
 30
0.0
 11
326.2386198316219
 21
202.3578832962753
 31
0.0
  0
LINE
  5
1BD
330
70
100
AcDbEntity
  8
HON
 62
     9
420
 12632256
370
    25
100
AcDbLine
 10
326.2386198316219
 20
202.3578832962753
 30
0.0
 11
334.1257562920237
 21
210.6132146333075
 31
0.0
  0
LINE
  5
1BE
330
70
100
AcDbEntity
  8
HON
 62
     9
420
 12632256
370
    25
100
AcDbLine
 10
334.1257562920237
 20
210.6132146333075
 30
0.0
 11
322.0762507243639
 21
201.7020303865452
 31
0.0
  0
LINE
  5
1BF
330
70
100
AcDbEntity
  8
HON
 62
     9
420
 12632256
370
    25
100
AcDbLine
 10
322.0762507243639
 20
201.7020303865452
 30
0.0
 11
331.9359474912221
 21
210.3157810021792
 31
0.0
  0
LINE
  5
1C0
330
70
100
AcDbEntity
  8
HON
 62
     9
420
 12632256
370
    25
100
AcDbLine
 10
331.9359474912221
 20
210.3157810021792
 30
0.0
 11
320.1290610694196
 21
201.7020303865452
 31
0.0
  0
LINE
  5
1C1
330
70
100
AcDbEntity
  8
HON
 62
     9
420
 12632256
370
    25
100
AcDbLine
 10
320.1290610694196
 20
201.7020303865452
 30
0.0
 11
330.1156993983427
 21
210.0090715057907
 31
0.0
  0
LINE
  5
1C2
330
70
100
AcDbEntity
  8
HON
 62
     9
420
 12632256
370
    25
100
AcDbLine
 10
330.3067892420342
 20
210.0090715057907
 30
0.0
 11
317.0592672138834
 21
200.7328205871766
 31
0.0
  0
LINE
  5
1C3
330
70
100
AcDbEntity
  8
HON
 62
     9
420
 12632256
370
    25
100
AcDbLine
 10
317.1469450843846
 20
200.8278429129402
 30
0.0
 11
328.8090587339787
 21
209.6182008720843
 31
0.0
  0
LINE
  5
1C4
330
70
100
AcDbEntity
  8
HON
 62
     9
420
 12632256
370
    25
100
AcDbLine
 10
328.6179688902868
 20
209.6182008720843
 30
0.0
 11
316.1946819134184
 21
200.6869397107702
 31
0.0
  0
LINE
  5
1C5
330
70
100
AcDbEntity
  8
HON
 62
     9
420
 12632256
370
    25
100
AcDbLine
 10
316.1946819134184
 20
200.6869397107702
 30
0.0
 11
327.3752820249156
 21
209.0794286834775
 31
0.0
  0
LINE
  5
1C6
330
70
100
AcDbEntity
  8
HON
 62
     9
420
 12632256
370
    25
100
AcDbLine
 10
316.1946819134184
 20
200.6869397107702
 30
0.0
 11
311.9698884975349
 21
199.097872230107
 31
0.0
  0
LINE
  5
1C7
330
70
100
AcDbEntity
  8
HON
 62
     9
420
 12632256
370
    25
100
AcDbLine
 10
342.1298183644158
 20
160.8200242796283
 30
0.0
 11
350.8669843845213
 21
150.0565080654744
 31
0.0
  0
LINE
  5
1C8
330
70
100
AcDbEntity
  8
HON
 62
     9
420
 12632256
370
    25
100
AcDbLine
 10
350.8206424025857
 20
142.4212023960118
 30
0.0
 11
350.8402392539495
 21
150.1579577505749
 31
0.0
  0
LINE
  5
1C9
330
70
100
AcDbEntity
  8
HON
 62
     9
420
 12632256
370
    25
100
AcDbLine
 10
382.1150410614646
 20
188.6661406856054
 30
0.0
 11
380.4277499795749
 21
190.4399794122026
 31
0.0
  0
LINE
  5
1CA
330
70
100
AcDbEntity
  8
HON
 62
     9
420
 12632256
370
    25
100
AcDbLine
 10
387.2080061525527
 20
164.7431619085673
 30
0.0
 11
388.4928871592957
 21
153.2453742799168
 31
0.0
  0
LINE
  5
1CB
330
70
100
AcDbEntity
  8
HON
 62
     9
420
 12632256
370
    25
100
AcDbLine
 10
385.2973407220405
 20
174.7109826982575
 30
0.0
 11
380.7939141240102
 21
184.7413437741219
 31
0.0
  0
LINE
  5
1CC
330
70
100
AcDbEntity
  8
HON
 62
     9
420
 12632256
370
    25
100
AcDbLine
 10
385.2973407220405
 20
174.7109826982575
 30
0.0
 11
382.3981053477954
 21
171.3021973433381
 31
0.0
  0
LINE
  5
1CD
330
70
100
AcDbEntity
  8
HON
 62
     9
420
 12632256
370
    25
100
AcDbLine
 10
388.4928871592957
 20
153.2453742799168
 30
0.0
 11
385.636773532461
 21
150.2571283409685
 31
0.0
  0
LINE
  5
1CE
330
70
100
AcDbEntity
  8
HON
 62
     9
420
 12632256
370
    25
100
AcDbLine
 10
346.3106698297492
 20
196.7914588825454
 30
0.0
 11
342.3285400954573
 21
203.4296006851904
 31
0.0
  0
LINE
  5
1CF
330
70
100
AcDbEntity
  8
HON
 62
     9
420
 12632256
370
    25
100
AcDbLine
 10
346.3106698297492
 20
196.7914588825454
 30
0.0
 11
348.9300275866718
 21
203.3375574559791
 31
0.0
  0
LINE
  5
1D0
330
70
100
AcDbEntity
  8
HON
 62
     9
420
 12632256
370
    25
100
AcDbLine
 10
348.9300275866718
 20
203.3375574559791
 30
0.0
 11
353.3069259117994
 21
195.8637894399695
 31
0.0
  0
LINE
  5
1D1
330
70
100
AcDbEntity
  8
HON
 62
     9
420
 12632256
370
    25
100
AcDbLine
 10
353.3069259117994
 20
195.8637894399695
 30
0.0
 11
355.3384362409082
 21
203.0947305257452
 31
0.0
  0
LINE
  5
1D2
330
70
100
AcDbEntity
  8
HON
 62
     9
420
 12632256
370
    25
100
AcDbLine
 10
355.3384362409082
 20
203.0947305257452
 30
0.0
 11
361.4026553953348
 21
195.3265370417698
 31
0.0
  0
LINE
  5
1D3
330
70
100
AcDbEntity
  8
HON
 62
     9
420
 12632256
370
    25
100
AcDbLine
 10
361.4026553953348
 20
195.3265370417698
 30
0.0
 11
360.9225487878062
 21
202.3578832962753
 31
0.0
  0
LINE
  5
1D4
330
70
100
AcDbEntity
  8
HON
 62
     9
420
 12632256
370
    25
100
AcDbLine
 10
360.9225487878062
 20
202.3578832962753
 30
0.0
 11
369.1338373579045
 21
194.5761033624153
 31
0.0
  0
LINE
  5
1D5
330
70
100
AcDbEntity
  8
HON
 62
     9
420
 12632256
370
    25
100
AcDbLine
 10
369.1338373579045
 20
194.5761033624153
 30
0.0
 11
364.03311320198
 21
201.7020303865452
 31
0.0
  0
LINE
  5
1D6
330
70
100
AcDbEntity
  8
HON
 62
     9
420
 12632256
370
    25
100
AcDbLine
 10
364.03311320198
 20
201.7020303865452
 30
0.0
 11
373.9607752562836
 21
193.3004937978167
 31
0.0
  0
LINE
  5
1D7
330
70
100
AcDbEntity
  8
HON
 62
     9
420
 12632256
370
    25
100
AcDbLine
 10
373.9607752562836
 20
193.3004937978167
 30
0.0
 11
366.7535841097911
 21
201.1114050433728
 31
0.0
  0
LINE
  5
1D8
330
70
100
AcDbEntity
  8
HON
 62
     9
420
 12632256
370
    25
100
AcDbLine
 10
366.7535841097911
 20
201.1114050433728
 30
0.0
 11
378.3658212286336
 21
191.4358933761945
 31
0.0
  0
LINE
  5
1D9
330
70
100
AcDbEntity
  8
HON
 62
     9
420
 12632256
370
    25
100
AcDbLine
 10
378.46276476105
 20
191.4002562308195
 30
0.0
 11
369.4201298754722
 21
200.14056055965
 31
0.0
  0
LINE
  5
1DA
330
70
100
AcDbEntity
  8
HON
 62
     9
420
 12632256
370
    25
100
AcDbLine
 10
372.1922857738643
 20
199.097872230107
 30
0.0
 11
380.4694258955047
 21
190.8312255899
 31
0.0
  0
LINE
  5
1DB
330
70
100
AcDbEntity
  8
HON
 62
     9
420
 12632256
370
    25
100
AcDbLine
 10
342.1101559598111
 20
193.7428934319696
 30
0.0
 11
347.6730223583591
 21
183.6070783685131
 31
0.0
  0
LINE
  5
1DC
330
70
100
AcDbEntity
  8
HON
 62
     9
420
 12632256
370
    25
100
AcDbLine
 10
347.6730223583591
 20
183.6070783685131
 30
0.0
 11
348.9630157332481
 21
193.2855136206103
 31
0.0
  0
LINE
  5
1DD
330
70
100
AcDbEntity
  8
HON
 62
     9
420
 12632256
370
    25
100
AcDbLine
 10
348.9630157332481
 20
193.2855136206103
 30
0.0
 11
357.4996476474224
 21
182.4681741771507
 31
0.0
  0
LINE
  5
1DE
330
70
100
AcDbEntity
  8
HON
 62
     9
420
 12632256
370
    25
100
AcDbLine
 10
357.4996476474224
 20
182.4681741771507
 30
0.0
 11
357.285536758633
 21
192.4576260036835
 31
0.0
  0
LINE
  5
1DF
330
70
100
AcDbEntity
  8
HON
 62
     9
420
 12632256
370
    25
100
AcDbLine
 10
357.285536758633
 20
192.4576260036835
 30
0.0
 11
366.0482582079973
 21
180.7297122599449
 31
0.0
  0
LINE
  5
1E0
330
70
100
AcDbEntity
  8
HON
 62
     9
420
 12632256
370
    25
100
AcDbLine
 10
366.0482582079973
 20
180.7297122599449
 30
0.0
 11
366.0311737432965
 21
191.3646702965045
 31
0.0
  0
LINE
  5
1E1
330
70
100
AcDbEntity
  8
HON
 62
     9
420
 12632256
370
    25
100
AcDbLine
 10
366.0311737432965
 20
191.3646702965045
 30
0.0
 11
372.8840518413647
 21
179.1829191029834
 31
0.0
  0
LINE
  5
1E2
330
70
100
AcDbEntity
  8
HON
 62
     9
420
 12632256
370
    25
100
AcDbLine
 10
372.8840518413647
 20
179.1829191029834
 30
0.0
 11
371.914457150877
 21
190.0346240626382
 31
0.0
  0
LINE
  5
1E3
330
70
100
AcDbEntity
  8
HON
 62
     9
420
 12632256
370
    25
100
AcDbLine
 10
371.914457150877
 20
190.0346240626382
 30
0.0
 11
378.0383419958901
 21
177.9215539349713
 31
0.0
  0
LINE
  5
1E4
330
70
100
AcDbEntity
  8
HON
 62
     9
420
 12632256
370
    25
100
AcDbLine
 10
378.0383419958901
 20
177.9215539349713
 30
0.0
 11
375.9565000133014
 21
188.5526475298103
 31
0.0
  0
LINE
  5
1E5
330
70
100
AcDbEntity
  8
HON
 62
     9
420
 12632256
370
    25
100
AcDbLine
 10
375.9565000133014
 20
188.5526475298103
 30
0.0
 11
381.9512218576431
 21
176.3650945484918
 31
0.0
  0
LINE
  5
1E6
330
70
100
AcDbEntity
  8
HON
 62
     9
420
 12632256
370
    25
100
AcDbLine
 10
381.9512218576431
 20
176.3650945484918
 30
0.0
 11
378.3474505713668
 21
187.068887361856
 31
0.0
  0
LINE
  5
1E7
330
70
100
AcDbEntity
  8
HON
 62
     9
420
 12632256
370
    25
100
AcDbLine
 10
378.3730155127037
 20
187.1199211581569
 30
0.0
 11
383.960869808781
 21
175.2984266696627
 31
0.0
  0
LINE
  5
1E8
330
70
100
AcDbEntity
  8
HON
 62
     9
420
 12632256
370
    25
100
AcDbLine
 10
383.960869808781
 20
175.2984266696627
 30
0.0
 11
379.8743597928417
 21
185.2448495530541
 31
0.0
  0
LINE
  5
1E9
330
70
100
AcDbEntity
  8
HON
 62
     9
420
 12632256
370
    25
100
AcDbLine
 10
379.8743597928417
 20
185.2448495530541
 30
0.0
 11
385.2973407220405
 21
174.7109826982575
 31
0.0
  0
LINE
  5
1EA
330
70
100
AcDbEntity
  8
HON
 62
     9
420
 12632256
370
    25
100
AcDbLine
 10
383.960869808781
 20
175.2984266696627
 30
0.0
 11
380.7767333633809
 21
171.8205525134889
 31
0.0
  0
LINE
  5
1EB
330
70
100
AcDbEntity
  8
HON
 62
     9
420
 12632256
370
    25
100
AcDbLine
 10
381.9512218576431
 20
176.3650945484918
 30
0.0
 11
377.9783611821078
 21
171.5526016819765
 31
0.0
  0
LINE
  5
1EC
330
70
100
AcDbEntity
  8
HON
 62
     9
420
 12632256
370
    25
100
AcDbLine
 10
377.9783611821078
 20
171.5526016819765
 30
0.0
 11
378.0383419958901
 21
177.9215539349713
 31
0.0
  0
LINE
  5
1ED
330
70
100
AcDbEntity
  8
HON
 62
     9
420
 12632256
370
    25
100
AcDbLine
 10
378.0383419958901
 20
177.9215539349713
 30
0.0
 11
373.8777950785741
 21
172.9594938010333
 31
0.0
  0
LINE
  5
1EE
330
70
100
AcDbEntity
  8
HON
 62
     9
420
 12632256
370
    25
100
AcDbLine
 10
373.8777950785741
 20
172.9594938010333
 30
0.0
 11
372.8840518413647
 21
179.1829191029834
 31
0.0
  0
LINE
  5
1EF
330
70
100
AcDbEntity
  8
HON
 62
     9
420
 12632256
370
    25
100
AcDbLine
 10
372.8840518413647
 20
179.1829191029834
 30
0.0
 11
367.5840792388189
 21
172.8787047719131
 31
0.0
  0
LINE
  5
1F0
330
70
100
AcDbEntity
  8
HON
 62
     9
420
 12632256
370
    25
100
AcDbLine
 10
367.5840792388189
 20
172.8787047719131
 30
0.0
 11
366.0482582079973
 21
180.7297122599449
 31
0.0
  0
LINE
  5
1F1
330
70
100
AcDbEntity
  8
HON
 62
     9
420
 12632256
370
    25
100
AcDbLine
 10
366.0482582079973
 20
180.7297122599449
 30
0.0
 11
360.5503343389721
 21
173.898890663469
 31
0.0
  0
LINE
  5
1F2
330
70
100
AcDbEntity
  8
HON
 62
     9
420
 12632256
370
    25
100
AcDbLine
 10
360.5503343389721
 20
173.898890663469
 30
0.0
 11
357.4996476474224
 21
182.4681741771507
 31
0.0
  0
LINE
  5
1F3
330
70
100
AcDbEntity
  8
HON
 62
     9
420
 12632256
370
    25
100
AcDbLine
 10
357.4996476474224
 20
182.4681741771507
 30
0.0
 11
351.2238280996225
 21
174.3630686515789
 31
0.0
  0
LINE
  5
1F4
330
70
100
AcDbEntity
  8
HON
 62
     9
420
 12632256
370
    25
100
AcDbLine
 10
351.2238280996225
 20
174.3630686515789
 30
0.0
 11
347.6730223583591
 21
183.6070783685131
 31
0.0
  0
LINE
  5
1F5
330
70
100
AcDbEntity
  8
HON
 62
     9
420
 12632256
370
    25
100
AcDbLine
 10
347.6730223583591
 20
183.6070783685131
 30
0.0
 11
342.1396137230256
 21
175.3433338291085
 31
0.0
  0
LINE
  5
1F6
330
70
100
AcDbEntity
  8
HON
 62
     9
420
 12632256
370
    25
100
AcDbLine
 10
387.2080061525527
 20
164.7431619085673
 30
0.0
 11
387.417035254044
 21
154.3552260587946
 31
0.0
  0
LINE
  5
1F7
330
70
100
AcDbEntity
  8
HON
 62
     9
420
 12632256
370
    25
100
AcDbLine
 10
387.417035254044
 20
154.3552260587946
 30
0.0
 11
385.8447718367236
 21
165.6631999123001
 31
0.0
  0
LINE
  5
1F8
330
70
100
AcDbEntity
  8
HON
 62
     9
420
 12632256
370
    25
100
AcDbLine
 10
385.8447718367236
 20
165.6631999123001
 30
0.0
 11
385.0507267576097
 21
155.784911512276
 31
0.0
  0
LINE
  5
1F9
330
70
100
AcDbEntity
  8
HON
 62
     9
420
 12632256
370
    25
100
AcDbLine
 10
385.0507267576097
 20
155.784911512276
 30
0.0
 11
383.418367658774
 21
167.5776730604143
 31
0.0
  0
LINE
  5
1FA
330
70
100
AcDbEntity
  8
HON
 62
     9
420
 12632256
370
    25
100
AcDbLine
 10
383.418367658774
 20
167.5776730604143
 30
0.0
 11
380.5300514114361
 21
158.0907517712017
 31
0.0
  0
LINE
  5
1FB
330
70
100
AcDbEntity
  8
HON
 62
     9
420
 12632256
370
    25
100
AcDbLine
 10
380.5300514114361
 20
158.0907517712017
 30
0.0
 11
379.0824807984523
 21
169.2905627131079
 31
0.0
  0
LINE
  5
1FC
330
70
100
AcDbEntity
  8
HON
 62
     9
420
 12632256
370
    25
100
AcDbLine
 10
379.0824807984523
 20
169.2905627131079
 30
0.0
 11
373.8182642144218
 21
160.5054951325893
 31
0.0
  0
LINE
  5
1FD
330
70
100
AcDbEntity
  8
HON
 62
     9
420
 12632256
370
    25
100
AcDbLine
 10
373.8182642144218
 20
160.5054951325893
 30
0.0
 11
372.3440153146819
 21
170.889114945563
 31
0.0
  0
LINE
  5
1FE
330
70
100
AcDbEntity
  8
HON
 62
     9
420
 12632256
370
    25
100
AcDbLine
 10
372.3440153146819
 20
170.889114945563
 30
0.0
 11
366.2753072293963
 21
162.4665111164939
 31
0.0
  0
LINE
  5
1FF
330
70
100
AcDbEntity
  8
HON
 62
     9
420
 12632256
370
    25
100
AcDbLine
 10
366.2753072293963
 20
162.4665111164939
 30
0.0
 11
364.5955728451297
 21
172.140963110753
 31
0.0
  0
LINE
  5
200
330
70
100
AcDbEntity
  8
HON
 62
     9
420
 12632256
370
    25
100
AcDbLine
 10
364.5955728451297
 20
172.140963110753
 30
0.0
 11
358.4112984347576
 21
163.7290285238002
 31
0.0
  0
LINE
  5
201
330
70
100
AcDbEntity
  8
HON
 62
     9
420
 12632256
370
    25
100
AcDbLine
 10
358.4112984347576
 20
163.7290285238002
 30
0.0
 11
356.509406174435
 21
173.2197922365704
 31
0.0
  0
LINE
  5
202
330
70
100
AcDbEntity
  8
HON
 62
     9
420
 12632256
370
    25
100
AcDbLine
 10
356.509406174435
 20
173.2197922365704
 30
0.0
 11
350.0558710329102
 21
165.147126195584
 31
0.0
  0
LINE
  5
203
330
70
100
AcDbEntity
  8
HON
 62
     9
420
 12632256
370
    25
100
AcDbLine
 10
350.0558710329102
 20
165.147126195584
 30
0.0
 11
347.5790705788766
 21
173.9172649699209
 31
0.0
  0
LINE
  5
204
330
70
100
AcDbEntity
  8
HON
 62
     9
420
 12632256
370
    25
100
AcDbLine
 10
347.5790705788766
 20
173.9172649699209
 30
0.0
 11
342.1332738074604
 21
165.7158964027777
 31
0.0
  0
LINE
  5
205
330
70
100
AcDbEntity
  8
HON
 62
     9
420
 12632256
370
    25
100
AcDbLine
 10
387.2080061525457
 20
164.7431619085673
 30
0.0
 11
382.6321317936557
 21
171.573162952664
 31
0.0
  0
LINE
  5
206
330
70
100
AcDbEntity
  8
HON
 62
     9
420
 12632256
370
    25
100
AcDbLine
 10
385.8447718367236
 20
165.6631999123001
 30
0.0
 11
381.2790834476255
 21
172.3128747239385
 31
0.0
  0
LINE
  5
207
330
70
100
AcDbEntity
  8
HON
 62
     9
420
 12632256
370
    25
100
AcDbLine
 10
383.418367658774
 20
167.5776730604143
 30
0.0
 11
378.9054229572794
 21
172.7890492638845
 31
0.0
  0
LINE
  5
208
330
70
100
AcDbEntity
  8
HON
 62
     9
420
 12632256
370
    25
100
AcDbLine
 10
379.0824807984523
 20
169.2905627131079
 30
0.0
 11
374.5060583728203
 21
173.771799085063
 31
0.0
  0
LINE
  5
209
330
70
100
AcDbEntity
  8
HON
 62
     9
420
 12632256
370
    25
100
AcDbLine
 10
372.3440153146819
 20
170.889114945563
 30
0.0
 11
368.8097015584685
 21
174.3365586838784
 31
0.0
  0
LINE
  5
20A
330
70
100
AcDbEntity
  8
HON
 62
     9
420
 12632256
370
    25
100
AcDbLine
 10
364.5955728451297
 20
172.140963110753
 30
0.0
 11
361.7248527785993
 21
175.3581553084512
 31
0.0
  0
LINE
  5
20B
330
70
100
AcDbEntity
  8
HON
 62
     9
420
 12632256
370
    25
100
AcDbLine
 10
356.509406174435
 20
173.2197922365704
 30
0.0
 11
352.8752850554425
 21
176.4958949375917
 31
0.0
  0
LINE
  5
20C
330
70
100
AcDbEntity
  8
HON
 62
     9
420
 12632256
370
    25
100
AcDbLine
 10
347.5790705788766
 20
173.9172649699209
 30
0.0
 11
343.4913361665639
 21
177.3620332778068
 31
0.0
  0
LINE
  5
20D
330
70
100
AcDbEntity
  8
HON
 62
     9
420
 12632256
370
    25
100
AcDbLine
 10
382.1150410614646
 20
188.6661406856054
 30
0.0
 11
380.7939141240102
 21
184.7413437741219
 31
0.0
  0
LINE
  5
20E
330
70
100
AcDbEntity
  8
HON
 62
     9
420
 12632256
370
    25
100
AcDbLine
 10
348.9630157332481
 20
193.2855136206103
 30
0.0
 11
346.3207772851693
 21
196.7990598377297
 31
0.0
  0
LINE
  5
20F
330
70
100
AcDbEntity
  8
HON
 62
     9
420
 12632256
370
    25
100
AcDbLine
 10
357.285536758633
 20
192.4576260036835
 30
0.0
 11
353.3069259117994
 21
195.8637894399695
 31
0.0
  0
LINE
  5
210
330
70
100
AcDbEntity
  8
HON
 62
     9
420
 12632256
370
    25
100
AcDbLine
 10
366.0311737432965
 20
191.3646702965045
 30
0.0
 11
361.4026553953348
 21
195.3265370417698
 31
0.0
  0
LINE
  5
211
330
70
100
AcDbEntity
  8
HON
 62
     9
420
 12632256
370
    25
100
AcDbLine
 10
369.1338373579045
 20
194.5761033624153
 30
0.0
 11
371.914457150877
 21
190.0346240626382
 31
0.0
  0
LINE
  5
212
330
70
100
AcDbEntity
  8
HON
 62
     9
420
 12632256
370
    25
100
AcDbLine
 10
375.9565000133014
 20
188.5526475298103
 30
0.0
 11
373.9607752562836
 21
193.3004937978167
 31
0.0
  0
LINE
  5
213
330
70
100
AcDbEntity
  8
HON
 62
     9
420
 12632256
370
    25
100
AcDbLine
 10
378.3474505713668
 20
187.068887361856
 30
0.0
 11
378.3658212286336
 21
191.4358933761945
 31
0.0
  0
LINE
  5
214
330
70
100
AcDbEntity
  8
HON
 62
     9
420
 12632256
370
    25
100
AcDbLine
 10
379.8743597928417
 20
185.2448495530541
 30
0.0
 11
380.4694258955047
 21
190.8312255899
 31
0.0
  0
LINE
  5
215
330
70
100
AcDbEntity
  8
HON
 62
     9
420
 12632256
370
    25
100
AcDbLine
 10
351.2238280996225
 20
174.3630686515789
 30
0.0
 11
350.0558710329102
 21
165.147126195584
 31
0.0
  0
LINE
  5
216
330
70
100
AcDbEntity
  8
HON
 62
     9
420
 12632256
370
    25
100
AcDbLine
 10
360.5503343389721
 20
173.898890663469
 30
0.0
 11
358.4112984347576
 21
163.7290285238002
 31
0.0
  0
LINE
  5
217
330
70
100
AcDbEntity
  8
HON
 62
     9
420
 12632256
370
    25
100
AcDbLine
 10
367.5840792388189
 20
172.8787047719131
 30
0.0
 11
366.2753072293963
 21
162.4665111164939
 31
0.0
  0
LINE
  5
218
330
70
100
AcDbEntity
  8
HON
 62
     9
420
 12632256
370
    25
100
AcDbLine
 10
373.8777950785741
 20
172.9594938010333
 30
0.0
 11
373.8182642144218
 21
160.5054951325893
 31
0.0
  0
LINE
  5
219
330
70
100
AcDbEntity
  8
HON
 62
     9
420
 12632256
370
    25
100
AcDbLine
 10
346.3106698297492
 20
196.7914588825454
 30
0.0
 11
342.1529998022543
 21
193.664829852437
 31
0.0
  0
LINE
  5
21A
330
70
100
AcDbEntity
  8
HON
 62
     9
420
 12632256
370
    25
100
AcDbLine
 10
353.3069259117994
 20
195.8637894399695
 30
0.0
 11
348.9296688277109
 21
193.0353217418322
 31
0.0
  0
LINE
  5
21B
330
70
100
AcDbEntity
  8
HON
 62
     9
420
 12632256
370
    25
100
AcDbLine
 10
361.4026553953348
 20
195.3265370417698
 30
0.0
 11
357.2821095157034
 21
192.6175257562132
 31
0.0
  0
LINE
  5
21C
330
70
100
AcDbEntity
  8
HON
 62
     9
420
 12632256
370
    25
100
AcDbLine
 10
369.1338373579045
 20
194.5761033624153
 30
0.0
 11
366.0311737432965
 21
191.3646702965045
 31
0.0
  0
LINE
  5
21D
330
70
100
AcDbEntity
  8
HON
 62
     9
420
 12632256
370
    25
100
AcDbLine
 10
350.0782305329829
 20
160.8297756309274
 30
0.0
 11
361.9320565227738
 21
149.1821304725686
 31
0.0
  0
LINE
  5
21E
330
70
100
AcDbEntity
  8
HON
 62
     9
420
 12632256
370
    25
100
AcDbLine
 10
361.9320565227738
 20
149.1821304725686
 30
0.0
 11
358.2293116378596
 21
160.7832979464991
 31
0.0
  0
LINE
  5
21F
330
70
100
AcDbEntity
  8
HON
 62
     9
420
 12632256
370
    25
100
AcDbLine
 10
358.2293116378596
 20
160.7832979464991
 30
0.0
 11
371.7072976554941
 21
146.3564124708539
 31
0.0
  0
LINE
  5
220
330
70
100
AcDbEntity
  8
HON
 62
     9
420
 12632256
370
    25
100
AcDbLine
 10
371.7072976554941
 20
146.3564124708539
 30
0.0
 11
366.6776564229071
 21
159.3659807476826
 31
0.0
  0
LINE
  5
221
330
70
100
AcDbEntity
  8
HON
 62
     9
420
 12632256
370
    25
100
AcDbLine
 10
366.6776564229071
 20
159.3659807476826
 30
0.0
 11
379.1171454527679
 21
143.2521440427726
 31
0.0
  0
LINE
  5
222
330
70
100
AcDbEntity
  8
HON
 62
     9
420
 12632256
370
    25
100
AcDbLine
 10
379.1171454527679
 20
143.2521440427726
 30
0.0
 11
374.852486292026
 21
157.924509697959
 31
0.0
  0
LINE
  5
223
330
70
100
AcDbEntity
  8
HON
 62
     9
420
 12632256
370
    25
100
AcDbLine
 10
374.852486292026
 20
157.924509697959
 30
0.0
 11
384.8035904748008
 21
140.8987961899171
 31
0.0
  0
LINE
  5
224
330
70
100
AcDbEntity
  8
HON
 62
     9
420
 12632256
370
    25
100
AcDbLine
 10
384.8035904748008
 20
140.8987961899171
 30
0.0
 11
381.0420857556896
 21
155.6529616868106
 31
0.0
  0
LINE
  5
225
330
70
100
AcDbEntity
  8
HON
 62
     9
420
 12632256
370
    25
100
AcDbLine
 10
381.0420857556896
 20
155.6529616868106
 30
0.0
 11
388.1828591546727
 21
138.9308617495508
 31
0.0
  0
LINE
  5
226
330
70
100
AcDbEntity
  8
HON
 62
     9
420
 12632256
370
    25
100
AcDbLine
 10
390.0703804415939
 20
137.2530957266308
 30
0.0
 11
385.9060850019236
 21
149.8553073406766
 31
0.0
  0
LINE
  5
227
330
70
100
AcDbEntity
  8
HON
 62
     9
420
 12632256
370
    25
100
AcDbLine
 10
350.0782305329829
 20
160.8297756309274
 30
0.0
 11
350.8661423366277
 21
150.0565080654744
 31
0.0
  0
LINE
  5
228
330
70
100
AcDbEntity
  8
HON
 62
     9
420
 12632256
370
    25
100
AcDbLine
 10
350.0558710329102
 20
165.147126195584
 30
0.0
 11
346.6347150708605
 21
157.4396161945893
 31
0.0
  0
LINE
  5
229
330
70
100
AcDbEntity
  8
HON
 62
     9
420
 12632256
370
    25
100
AcDbLine
 10
358.4112984347576
 20
163.7290285238002
 30
0.0
 11
354.6320280676733
 21
156.2927780660719
 31
0.0
  0
LINE
  5
22A
330
70
100
AcDbEntity
  8
HON
 62
     9
420
 12632256
370
    25
100
AcDbLine
 10
366.2753072293963
 20
162.4665111164939
 30
0.0
 11
363.4890677203701
 21
155.529451781742
 31
0.0
  0
LINE
  5
22B
330
70
100
AcDbEntity
  8
HON
 62
     9
420
 12632256
370
    25
100
AcDbLine
 10
373.8182642144218
 20
160.5054951325893
 30
0.0
 11
371.3308882473908
 21
154.5761966345365
 31
0.0
  0
LINE
  5
22C
330
70
100
AcDbEntity
  8
HON
 62
     9
420
 12632256
370
    25
100
AcDbLine
 10
380.5300514114361
 20
158.0907517712017
 30
0.0
 11
378.0727928830548
 21
152.4549157267186
 31
0.0
  0
LINE
  5
22D
330
70
100
AcDbEntity
  8
HON
 62
     9
420
 12632256
370
    25
100
AcDbLine
 10
385.0507267576097
 20
155.784911512276
 30
0.0
 11
382.2820430717069
 21
149.6660358552567
 31
0.0
  0
LINE
  5
22E
330
70
100
AcDbEntity
  8
HON
 62
     9
420
 12632256
370
    25
100
AcDbLine
 10
388.1828591546727
 20
138.9308617495508
 30
0.0
 11
385.0589680297176
 21
152.0924761980147
 31
0.0
  0
LINE
  5
22F
330
70
100
AcDbEntity
  8
HON
 62
     9
420
 12632256
370
    25
100
AcDbLine
 10
350.0782305329829
 20
160.8297756309274
 30
0.0
 11
345.3007536198887
 21
156.0503834411628
 31
0.0
  0
LINE
  5
230
330
70
100
AcDbEntity
  8
HON
 62
     9
420
 12632256
370
    25
100
AcDbLine
 10
358.2293116378596
 20
160.7832979464991
 30
0.0
 11
354.8994451146346
 21
155.9809699358732
 31
0.0
  0
LINE
  5
231
330
70
100
AcDbEntity
  8
HON
 62
     9
420
 12632256
370
    25
100
AcDbLine
 10
366.6776564229071
 20
159.3659807476826
 30
0.0
 11
363.6144801007824
 21
155.3710035525075
 31
0.0
  0
LINE
  5
232
330
70
100
AcDbEntity
  8
HON
 62
     9
420
 12632256
370
    25
100
AcDbLine
 10
374.852486292026
 20
157.924509697959
 30
0.0
 11
371.1509941385815
 21
154.0262627213683
 31
0.0
  0
LINE
  5
233
330
70
100
AcDbEntity
  8
HON
 62
     9
420
 12632256
370
    25
100
AcDbLine
 10
381.0420857556896
 20
155.6529616868106
 30
0.0
 11
377.6674299821006
 21
151.4852562961459
 31
0.0
  0
LINE
  5
234
330
70
100
AcDbEntity
  8
HON
 62
     9
420
 12632256
370
    25
100
AcDbLine
 10
385.0589680297176
 20
152.0924761980147
 30
0.0
 11
382.1595392128002
 21
149.3041121705598
 31
0.0
  0
LINE
  5
235
330
70
100
AcDbEntity
  8
HON
 62
     9
420
 12632256
370
    25
100
AcDbLine
 10
350.0782305329829
 20
160.8297756309274
 30
0.0
 11
348.3407927544125
 21
161.972499830007
 31
0.0
  0
LINE
  5
236
330
70
100
AcDbEntity
  8
HON
 62
     9
420
 12632256
370
    25
100
AcDbLine
 10
358.2293116378596
 20
160.7832979464991
 30
0.0
 11
356.6040080193123
 21
161.9514377049446
 31
0.0
  0
LINE
  5
237
330
70
100
AcDbEntity
  8
HON
 62
     9
420
 12632256
370
    25
100
AcDbLine
 10
389.6989753766034
 20
132.1396669081857
 30
0.0
 11
390.0439564421103
 21
137.3132114252604
 31
0.0
  0
LINE
  5
238
330
70
100
AcDbEntity
  8
HON
 62
     9
420
 12632256
370
    25
100
AcDbLine
 10
387.8461609245793
 20
133.6434002242163
 30
0.0
 11
388.156535834592
 21
138.9780186250671
 31
0.0
  0
LINE
  5
239
330
70
100
AcDbEntity
  8
HON
 62
     9
420
 12632256
370
    25
100
AcDbLine
 10
384.4888975106657
 20
135.9725466923411
 30
0.0
 11
384.7773215533398
 21
140.938951214095
 31
0.0
  0
LINE
  5
23A
330
70
100
AcDbEntity
  8
HON
 62
     9
420
 12632256
370
    25
100
AcDbLine
 10
378.5972048425982
 20
138.4167109150036
 30
0.0
 11
379.0908991442389
 21
143.2893884706022
 31
0.0
  0
LINE
  5
23B
330
70
100
AcDbEntity
  8
HON
 62
     9
420
 12632256
370
    25
100
AcDbLine
 10
371.275742166856
 20
139.9796828321423
 30
0.0
 11
371.6810303416324
 21
146.3963605752865
 31
0.0
  0
LINE
  5
23C
330
70
100
AcDbEntity
  8
HON
 62
     9
420
 12632256
370
    25
100
AcDbLine
 10
361.5888457047796
 20
141.1747500774075
 30
0.0
 11
361.9057435188919
 21
149.2279595109763
 31
0.0
  0
LINE
  5
23D
330
70
100
AcDbEntity
  8
HON
 62
     9
420
 12632256
370
    25
100
AcDbLine
 10
366.6776564229071
 20
159.3659807476826
 30
0.0
 11
365.2216846121524
 21
160.84848466642
 31
0.0
  0
LINE
  5
23E
330
70
100
AcDbEntity
  8
HON
 62
     9
420
 12632256
370
    25
100
AcDbLine
 10
374.852486292026
 20
157.924509697959
 30
0.0
 11
373.6160246889324
 21
159.4070136166964
 31
0.0
  0
LINE
  5
23F
330
70
100
AcDbEntity
  8
HON
 62
     9
420
 12632256
370
    25
100
AcDbLine
 10
381.0420857556896
 20
155.6529616868106
 30
0.0
 11
380.1190608346558
 21
157.1354656055479
 31
0.0
  0
LINE
  5
240
330
70
100
AcDbEntity
  8
HON
 62
     9
420
 12632256
370
    25
100
AcDbLine
 10
385.0589680297176
 20
152.0924761980147
 30
0.0
 11
384.5066970510593
 21
153.574980116752
 31
0.0
  0
LINE
  5
241
330
70
100
AcDbEntity
  8
HON
 62
     9
420
 12632256
370
    25
100
AcDbLine
 10
367.2656948902297
 20
99.80591160039002
 30
0.0
 11
357.2741947089353
 21
91.34067928993967
 31
0.0
  0
LINE
  5
242
330
70
100
AcDbEntity
  8
HON
 62
     9
420
 12632256
370
    25
100
AcDbLine
 10
380.0596151087937
 20
113.488858178712
 30
0.0
 11
383.9051885421551
 21
118.7753740668014
 31
0.0
  0
LINE
  5
243
330
70
100
AcDbEntity
  8
HON
 62
     9
420
 12632256
370
    25
100
AcDbLine
 10
377.3263168474212
 20
107.5907194228661
 30
0.0
 11
371.8298969529976
 21
99.6575202282392
 31
0.0
  0
LINE
  5
244
330
70
100
AcDbEntity
  8
HON
 62
     9
420
 12632256
370
    25
100
AcDbLine
 10
377.3263168474212
 20
107.5907194228661
 30
0.0
 11
376.7886292128489
 21
112.5040983632846
 31
0.0
  0
LINE
  5
245
330
70
100
AcDbEntity
  8
HON
 62
     9
420
 12632256
370
    25
100
AcDbLine
 10
383.9051885421551
 20
118.7753740668014
 30
0.0
 11
384.0663736136731
 21
124.1488648671616
 31
0.0
  0
LINE
  5
246
330
70
100
AcDbEntity
  8
HON
 62
     9
420
 12632256
370
    25
100
AcDbLine
 10
345.0651070555513
 20
102.0708391550816
 30
0.0
 11
342.1854497033996
 21
93.88975296898101
 31
0.0
  0
LINE
  5
247
330
70
100
AcDbEntity
  8
HON
 62
     9
420
 12632256
370
    25
100
AcDbLine
 10
345.0651070555513
 20
102.0708391550816
 30
0.0
 11
345.2155744637315
 21
93.8378526962421
 31
0.0
  0
LINE
  5
248
330
70
100
AcDbEntity
  8
HON
 62
     9
420
 12632256
370
    25
100
AcDbLine
 10
345.2155744637315
 20
93.8378526962421
 30
0.0
 11
350.4844802087563
 21
101.8825380726678
 31
0.0
  0
LINE
  5
249
330
70
100
AcDbEntity
  8
HON
 62
     9
420
 12632256
370
    25
100
AcDbLine
 10
350.4844802087563
 20
101.8825380726678
 30
0.0
 11
348.5043479832329
 21
93.65552477823605
 31
0.0
  0
LINE
  5
24A
330
70
100
AcDbEntity
  8
HON
 62
     9
420
 12632256
370
    25
100
AcDbLine
 10
348.5043479832329
 20
93.65552477823605
 30
0.0
 11
355.4790031113756
 21
101.8483228956834
 31
0.0
  0
LINE
  5
24B
330
70
100
AcDbEntity
  8
HON
 62
     9
420
 12632256
370
    25
100
AcDbLine
 10
355.4790031113756
 20
101.8483228956834
 30
0.0
 11
351.486925224308
 21
93.34791364483837
 31
0.0
  0
LINE
  5
24C
330
70
100
AcDbEntity
  8
HON
 62
     9
420
 12632256
370
    25
100
AcDbLine
 10
351.486925224308
 20
93.34791364483837
 30
0.0
 11
359.8567390492228
 21
101.3159702054848
 31
0.0
  0
LINE
  5
24D
330
70
100
AcDbEntity
  8
HON
 62
     9
420
 12632256
370
    25
100
AcDbLine
 10
359.8567390492228
 20
101.3159702054848
 30
0.0
 11
353.9029070395646
 21
92.94685195371604
 31
0.0
  0
LINE
  5
24E
330
70
100
AcDbEntity
  8
HON
 62
     9
420
 12632256
370
    25
100
AcDbLine
 10
353.9029070395646
 20
92.94685195371604
 30
0.0
 11
363.4494540852421
 21
101.8477800848351
 31
0.0
  0
LINE
  5
24F
330
70
100
AcDbEntity
  8
HON
 62
     9
420
 12632256
370
    25
100
AcDbLine
 10
363.4494540852421
 20
101.8477800848351
 30
0.0
 11
355.6627848099449
 21
92.48715444678639
 31
0.0
  0
LINE
  5
250
330
70
100
AcDbEntity
  8
HON
 62
     9
420
 12632256
370
    25
100
AcDbLine
 10
355.6627848099449
 20
92.48715444678639
 30
0.0
 11
365.5984035084356
 21
100.9939755918662
 31
0.0
  0
LINE
  5
251
330
70
100
AcDbEntity
  8
HON
 62
     9
420
 12632256
370
    25
100
AcDbLine
 10
365.6953470408315
 20
101.0296127372425
 30
0.0
 11
356.7477529782988
 21
92.00866217323714
 31
0.0
  0
LINE
  5
252
330
70
100
AcDbEntity
  8
HON
 62
     9
420
 12632256
370
    25
100
AcDbLine
 10
356.7477529782988
 20
92.00866217323714
 30
0.0
 11
366.1696901104483
 21
100.3063719582555
 31
0.0
  0
LINE
  5
253
330
70
100
AcDbEntity
  8
HON
 62
     9
420
 12632256
370
    25
100
AcDbLine
 10
366.3170993110611
 20
100.3574951753266
 30
0.0
 11
357.2117987532567
 21
91.57381262959566
 31
0.0
  0
LINE
  5
254
330
70
100
AcDbEntity
  8
HON
 62
     9
420
 12632256
370
    25
100
AcDbLine
 10
357.2117987532567
 20
91.57381262959566
 30
0.0
 11
366.5896132934104
 21
99.89453315192207
 31
0.0
  0
LINE
  5
255
330
70
100
AcDbEntity
  8
HON
 62
     9
420
 12632256
370
    25
100
AcDbLine
 10
366.6510432236499
 20
99.91420237990388
 30
0.0
 11
357.2741947089353
 21
91.3406792899326
 31
0.0
  0
LINE
  5
256
330
70
100
AcDbEntity
  8
HON
 62
     9
420
 12632256
370
    25
100
AcDbLine
 10
342.3550521395868
 20
102.0708391550816
 30
0.0
 11
350.2456447443322
 21
111.3817103701192
 31
0.0
  0
LINE
  5
257
330
70
100
AcDbEntity
  8
HON
 62
     9
420
 12632256
370
    25
100
AcDbLine
 10
350.2456447443322
 20
111.3817103701192
 30
0.0
 11
347.9920465577277
 21
101.8825380726678
 31
0.0
  0
LINE
  5
258
330
70
100
AcDbEntity
  8
HON
 62
     9
420
 12632256
370
    25
100
AcDbLine
 10
347.9920465577277
 20
101.8825380726678
 30
0.0
 11
357.0782296524784
 21
110.8705634902938
 31
0.0
  0
LINE
  5
259
330
70
100
AcDbEntity
  8
HON
 62
     9
420
 12632256
370
    25
100
AcDbLine
 10
357.0782296524784
 20
110.8705634902938
 30
0.0
 11
353.5754991513246
 21
101.8483228956834
 31
0.0
  0
LINE
  5
25A
330
70
100
AcDbEntity
  8
HON
 62
     9
420
 12632256
370
    25
100
AcDbLine
 10
353.5754991513246
 20
101.8483228956834
 30
0.0
 11
362.8438961715596
 21
110.8874630012954
 31
0.0
  0
LINE
  5
25B
330
70
100
AcDbEntity
  8
HON
 62
     9
420
 12632256
370
    25
100
AcDbLine
 10
362.8438961715596
 20
110.8874630012954
 30
0.0
 11
358.7212385322572
 21
101.5390292757319
 31
0.0
  0
LINE
  5
25C
330
70
100
AcDbEntity
  8
HON
 62
     9
420
 12632256
370
    25
100
AcDbLine
 10
358.7212385322572
 20
101.5390292757319
 30
0.0
 11
368.0304234572541
 21
110.2431103399118
 31
0.0
  0
LINE
  5
25D
330
70
100
AcDbEntity
  8
HON
 62
     9
420
 12632256
370
    25
100
AcDbLine
 10
368.0304234572541
 20
110.2431103399118
 30
0.0
 11
363.2315168218612
 21
101.8477800848351
 31
0.0
  0
LINE
  5
25E
330
70
100
AcDbEntity
  8
HON
 62
     9
420
 12632256
370
    25
100
AcDbLine
 10
363.2315168218612
 20
101.8477800848351
 30
0.0
 11
372.200264194635
 21
109.5779861168315
 31
0.0
  0
LINE
  5
25F
330
70
100
AcDbEntity
  8
HON
 62
     9
420
 12632256
370
    25
100
AcDbLine
 10
372.200264194635
 20
109.5779861168315
 30
0.0
 11
366.9330065548856
 21
101.4845853479003
 31
0.0
  0
LINE
  5
260
330
70
100
AcDbEntity
  8
HON
 62
     9
420
 12632256
370
    25
100
AcDbLine
 10
366.9330065548856
 20
101.4845853479003
 30
0.0
 11
374.8591657680372
 21
108.8987488117455
 31
0.0
  0
LINE
  5
261
330
70
100
AcDbEntity
  8
HON
 62
     9
420
 12632256
370
    25
100
AcDbLine
 10
374.8591657680372
 20
108.8987488117455
 30
0.0
 11
369.4764747298396
 21
100.8215961808061
 31
0.0
  0
LINE
  5
262
330
70
100
AcDbEntity
  8
HON
 62
     9
420
 12632256
370
    25
100
AcDbLine
 10
369.4764747298396
 20
100.8215961808061
 30
0.0
 11
376.4995370711909
 21
108.084706243089
 31
0.0
  0
LINE
  5
263
330
70
100
AcDbEntity
  8
HON
 62
     9
420
 12632256
370
    25
100
AcDbLine
 10
376.4995370711909
 20
108.084706243089
 30
0.0
 11
371.2466252996403
 21
100.2039629149618
 31
0.0
  0
LINE
  5
264
330
70
100
AcDbEntity
  8
HON
 62
     9
420
 12632256
370
    25
100
AcDbLine
 10
371.2466252996403
 20
100.2039629149618
 30
0.0
 11
377.3263168474212
 21
107.5907194228661
 31
0.0
  0
LINE
  5
265
330
70
100
AcDbEntity
  8
HON
 62
     9
420
 12632256
370
    25
100
AcDbLine
 10
376.4995370711909
 20
108.084706243089
 30
0.0
 11
375.7053835853387
 21
114.1383579851589
 31
0.0
  0
LINE
  5
266
330
70
100
AcDbEntity
  8
HON
 62
     9
420
 12632256
370
    25
100
AcDbLine
 10
374.8591657680372
 20
108.8987488117455
 30
0.0
 11
373.8426003303579
 21
115.8831371752622
 31
0.0
  0
LINE
  5
267
330
70
100
AcDbEntity
  8
HON
 62
     9
420
 12632256
370
    25
100
AcDbLine
 10
373.8426003303579
 20
115.8831371752622
 30
0.0
 11
372.200264194635
 21
109.5779861168315
 31
0.0
  0
LINE
  5
268
330
70
100
AcDbEntity
  8
HON
 62
     9
420
 12632256
370
    25
100
AcDbLine
 10
372.200264194635
 20
109.5779861168315
 30
0.0
 11
370.7064621278915
 21
116.4525095651422
 31
0.0
  0
LINE
  5
269
330
70
100
AcDbEntity
  8
HON
 62
     9
420
 12632256
370
    25
100
AcDbLine
 10
370.7064621278915
 20
116.4525095651422
 30
0.0
 11
368.0304234572541
 21
110.2431103399118
 31
0.0
  0
LINE
  5
26A
330
70
100
AcDbEntity
  8
HON
 62
     9
420
 12632256
370
    25
100
AcDbLine
 10
368.0304234572541
 20
110.2431103399118
 30
0.0
 11
366.3817121071728
 21
116.5593528332999
 31
0.0
  0
LINE
  5
26B
330
70
100
AcDbEntity
  8
HON
 62
     9
420
 12632256
370
    25
100
AcDbLine
 10
366.3817121071728
 20
116.5593528332999
 30
0.0
 11
362.8438961715596
 21
110.8874630012954
 31
0.0
  0
LINE
  5
26C
330
70
100
AcDbEntity
  8
HON
 62
     9
420
 12632256
370
    25
100
AcDbLine
 10
362.8438961715596
 20
110.8874630012954
 30
0.0
 11
360.7788976965782
 21
116.9361178413849
 31
0.0
  0
LINE
  5
26D
330
70
100
AcDbEntity
  8
HON
 62
     9
420
 12632256
370
    25
100
AcDbLine
 10
360.7788976965782
 20
116.9361178413849
 30
0.0
 11
357.0782296524784
 21
110.8705634902938
 31
0.0
  0
LINE
  5
26E
330
70
100
AcDbEntity
  8
HON
 62
     9
420
 12632256
370
    25
100
AcDbLine
 10
357.0782296524784
 20
110.8705634902938
 30
0.0
 11
353.9817225317954
 21
117.0241979479648
 31
0.0
  0
LINE
  5
26F
330
70
100
AcDbEntity
  8
HON
 62
     9
420
 12632256
370
    25
100
AcDbLine
 10
353.9817225317954
 20
117.0241979479648
 30
0.0
 11
350.2456447443322
 21
111.3817103701192
 31
0.0
  0
LINE
  5
270
330
70
100
AcDbEntity
  8
HON
 62
     9
420
 12632256
370
    25
100
AcDbLine
 10
350.2456447443322
 20
111.3817103701192
 30
0.0
 11
346.8674087020618
 21
116.5617050136322
 31
0.0
  0
LINE
  5
271
330
70
100
AcDbEntity
  8
HON
 62
     9
420
 12632256
370
    25
100
AcDbLine
 10
346.8674087020618
 20
116.5617050136322
 30
0.0
 11
342.1752009371124
 21
111.8217309354358
 31
0.0
  0
LINE
  5
272
330
70
100
AcDbEntity
  8
HON
 62
     9
420
 12632256
370
    25
100
AcDbLine
 10
380.0596151087937
 20
113.488858178712
 30
0.0
 11
382.6533665144469
 21
120.057475190949
 31
0.0
  0
LINE
  5
273
330
70
100
AcDbEntity
  8
HON
 62
     9
420
 12632256
370
    25
100
AcDbLine
 10
382.6533665144469
 20
120.057475190949
 30
0.0
 11
379.0514980892924
 21
114.5069361074435
 31
0.0
  0
LINE
  5
274
330
70
100
AcDbEntity
  8
HON
 62
     9
420
 12632256
370
    25
100
AcDbLine
 10
379.0514980892924
 20
114.5069361074435
 30
0.0
 11
380.4603743903883
 21
121.4829507531697
 31
0.0
  0
LINE
  5
275
330
70
100
AcDbEntity
  8
HON
 62
     9
420
 12632256
370
    25
100
AcDbLine
 10
380.4603743903883
 20
121.4829507531697
 30
0.0
 11
376.9822090636218
 21
115.5967193489155
 31
0.0
  0
LINE
  5
276
330
70
100
AcDbEntity
  8
HON
 62
     9
420
 12632256
370
    25
100
AcDbLine
 10
376.9822090636218
 20
115.5967193489155
 30
0.0
 11
376.3390183017993
 21
122.9470563539189
 31
0.0
  0
LINE
  5
277
330
70
100
AcDbEntity
  8
HON
 62
     9
420
 12632256
370
    25
100
AcDbLine
 10
376.3390183017993
 20
122.9470563539189
 30
0.0
 11
373.8219091951562
 21
116.321169679603
 31
0.0
  0
LINE
  5
278
330
70
100
AcDbEntity
  8
HON
 62
     9
420
 12632256
370
    25
100
AcDbLine
 10
373.8219091951562
 20
116.321169679603
 30
0.0
 11
371.0228646422598
 21
124.3571522755073
 31
0.0
  0
LINE
  5
279
330
70
100
AcDbEntity
  8
HON
 62
     9
420
 12632256
370
    25
100
AcDbLine
 10
371.0228646422598
 20
124.3571522755073
 30
0.0
 11
368.9079830568787
 21
117.0502749565595
 31
0.0
  0
LINE
  5
27A
330
70
100
AcDbEntity
  8
HON
 62
     9
420
 12632256
370
    25
100
AcDbLine
 10
368.9079830568787
 20
117.0502749565595
 30
0.0
 11
364.6728337393443
 21
124.8626720162243
 31
0.0
  0
LINE
  5
27B
330
70
100
AcDbEntity
  8
HON
 62
     9
420
 12632256
370
    25
100
AcDbLine
 10
364.6728337393443
 20
124.8626720162243
 30
0.0
 11
362.9534395627668
 21
117.5530013170982
 31
0.0
  0
LINE
  5
27C
330
70
100
AcDbEntity
  8
HON
 62
     9
420
 12632256
370
    25
100
AcDbLine
 10
362.9534395627668
 20
117.5530013170982
 30
0.0
 11
357.2791645056804
 21
125.3904289079314
 31
0.0
  0
LINE
  5
27D
330
70
100
AcDbEntity
  8
HON
 62
     9
420
 12632256
370
    25
100
AcDbLine
 10
357.2791645056804
 20
125.3904289079314
 30
0.0
 11
356.4906899239069
 21
118.0563785925584
 31
0.0
  0
LINE
  5
27E
330
70
100
AcDbEntity
  8
HON
 62
     9
420
 12632256
370
    25
100
AcDbLine
 10
356.4906899239069
 20
118.0563785925584
 30
0.0
 11
349.9451834860931
 21
126.1648093305647
 31
0.0
  0
LINE
  5
27F
330
70
100
AcDbEntity
  8
HON
 62
     9
420
 12632256
370
    25
100
AcDbLine
 10
349.9451834860931
 20
126.1648093305647
 30
0.0
 11
349.2962972570396
 21
118.4202121064193
 31
0.0
  0
LINE
  5
280
330
70
100
AcDbEntity
  8
HON
 62
     9
420
 12632256
370
    25
100
AcDbLine
 10
349.2962972570396
 20
118.4202121064193
 30
0.0
 11
342.0664085524318
 21
127.310296588526
 31
0.0
  0
LINE
  5
281
330
70
100
AcDbEntity
  8
HON
 62
     9
420
 12632256
370
    25
100
AcDbLine
 10
380.0596151087886
 20
113.4888581787049
 30
0.0
 11
376.8537030696839
 21
111.9535594417506
 31
0.0
  0
LINE
  5
282
330
70
100
AcDbEntity
  8
HON
 62
     9
420
 12632256
370
    25
100
AcDbLine
 10
379.0514980892924
 20
114.5069361074435
 30
0.0
 11
375.7774179846915
 21
112.9545388288435
 31
0.0
  0
LINE
  5
283
330
70
100
AcDbEntity
  8
HON
 62
     9
420
 12632256
370
    25
100
AcDbLine
 10
376.9822090636218
 20
115.5967193489155
 30
0.0
 11
374.2555333941798
 21
113.1261741754824
 31
0.0
  0
LINE
  5
284
330
70
100
AcDbEntity
  8
HON
 62
     9
420
 12632256
370
    25
100
AcDbLine
 10
373.8219091951562
 20
116.321169679603
 30
0.0
 11
371.2006876720851
 21
114.4711931843218
 31
0.0
  0
LINE
  5
285
330
70
100
AcDbEntity
  8
HON
 62
     9
420
 12632256
370
    25
100
AcDbLine
 10
368.9079830568787
 20
117.0502749565595
 30
0.0
 11
366.8982978141153
 21
115.0692002811403
 31
0.0
  0
LINE
  5
286
330
70
100
AcDbEntity
  8
HON
 62
     9
420
 12632256
370
    25
100
AcDbLine
 10
362.9534395627668
 20
117.5530013170982
 30
0.0
 11
361.4791330484104
 21
114.4190867899143
 31
0.0
  0
LINE
  5
287
330
70
100
AcDbEntity
  8
HON
 62
     9
420
 12632256
370
    25
100
AcDbLine
 10
356.4906899239069
 20
118.0563785925584
 30
0.0
 11
355.387237728434
 21
114.3890684665266
 31
0.0
  0
LINE
  5
288
330
70
100
AcDbEntity
  8
HON
 62
     9
420
 12632256
370
    25
100
AcDbLine
 10
349.2962972570396
 20
118.4202121064193
 30
0.0
 11
348.5916512201101
 21
114.2415252506014
 31
0.0
  0
LINE
  5
289
330
70
100
AcDbEntity
  8
HON
 62
     9
420
 12632256
370
    25
100
AcDbLine
 10
366.72492868246
 20
99.29641724919655
 30
0.0
 11
371.8298969529976
 21
99.6575202282392
 31
0.0
  0
LINE
  5
28A
330
70
100
AcDbEntity
  8
HON
 62
     9
420
 12632256
370
    25
100
AcDbLine
 10
347.9920465577277
 20
101.8825380726678
 30
0.0
 11
345.075999762982
 21
100.2448887338064
 31
0.0
  0
LINE
  5
28B
330
70
100
AcDbEntity
  8
HON
 62
     9
420
 12632256
370
    25
100
AcDbLine
 10
353.5754991513246
 20
101.8483228956834
 30
0.0
 11
350.054832175488
 21
100.056587651392
 31
0.0
  0
LINE
  5
28C
330
70
100
AcDbEntity
  8
HON
 62
     9
420
 12632256
370
    25
100
AcDbLine
 10
358.7212385322572
 20
101.5390292757319
 30
0.0
 11
354.6433504062016
 21
100.2448887338064
 31
0.0
  0
LINE
  5
28D
330
70
100
AcDbEntity
  8
HON
 62
     9
420
 12632256
370
    25
100
AcDbLine
 10
358.6652202728048
 20
100.2448887338064
 30
0.0
 11
363.2315168218612
 21
101.8477800848351
 31
0.0
  0
LINE
  5
28E
330
70
100
AcDbEntity
  8
HON
 62
     9
420
 12632256
370
    25
100
AcDbLine
 10
366.9330065548856
 20
101.4845853479003
 30
0.0
 11
361.9658835717782
 21
100.2448887338064
 31
0.0
  0
LINE
  5
28F
330
70
100
AcDbEntity
  8
HON
 62
     9
420
 12632256
370
    25
100
AcDbLine
 10
369.4764747298396
 20
100.8215961808061
 30
0.0
 11
364.4184976636092
 21
99.69903814724219
 31
0.0
  0
LINE
  5
290
330
70
100
AcDbEntity
  8
HON
 62
     9
420
 12632256
370
    25
100
AcDbLine
 10
371.2466252996403
 20
100.2039629149618
 30
0.0
 11
365.6744681032533
 21
99.60151313194565
 31
0.0
  0
LINE
  5
291
330
70
100
AcDbEntity
  8
HON
 62
     9
420
 12632256
370
    25
100
AcDbLine
 10
346.8674087020618
 20
116.5617050136322
 30
0.0
 11
342.0664085524318
 21
127.310296588526
 31
0.0
  0
LINE
  5
292
330
70
100
AcDbEntity
  8
HON
 62
     9
420
 12632256
370
    25
100
AcDbLine
 10
353.9817225317954
 20
117.0241979479648
 30
0.0
 11
349.9451834860931
 21
126.1648093305647
 31
0.0
  0
LINE
  5
293
330
70
100
AcDbEntity
  8
HON
 62
     9
420
 12632256
370
    25
100
AcDbLine
 10
360.7788976965782
 20
116.9361178413849
 30
0.0
 11
357.2791645056804
 21
125.3904289079314
 31
0.0
  0
LINE
  5
294
330
70
100
AcDbEntity
  8
HON
 62
     9
420
 12632256
370
    25
100
AcDbLine
 10
366.3817121071728
 20
116.5593528332999
 30
0.0
 11
364.6728337393443
 21
124.8626720162243
 31
0.0
  0
LINE
  5
295
330
70
100
AcDbEntity
  8
HON
 62
     9
420
 12632256
370
    25
100
AcDbLine
 10
370.7064621278915
 20
116.4525095651422
 30
0.0
 11
371.0228646422598
 21
124.3571522755073
 31
0.0
  0
LINE
  5
296
330
70
100
AcDbEntity
  8
HON
 62
     9
420
 12632256
370
    25
100
AcDbLine
 10
345.0651070555513
 20
102.0708391550816
 30
0.0
 11
345.0651070555513
 21
105.1857323585259
 31
0.0
  0
LINE
  5
297
330
70
100
AcDbEntity
  8
HON
 62
     9
420
 12632256
370
    25
100
AcDbLine
 10
350.4844802087563
 20
101.8825380726678
 30
0.0
 11
350.4844802087563
 21
104.4399198869666
 31
0.0
  0
LINE
  5
298
330
70
100
AcDbEntity
  8
HON
 62
     9
420
 12632256
370
    25
100
AcDbLine
 10
355.4790031113756
 20
101.8483228956834
 30
0.0
 11
355.4790031113756
 21
103.8286254762554
 31
0.0
  0
LINE
  5
299
330
70
100
AcDbEntity
  8
HON
 62
     9
420
 12632256
370
    25
100
AcDbLine
 10
359.8567390492228
 20
101.3159702054848
 30
0.0
 11
359.8567390492228
 21
103.1871765917099
 31
0.0
  0
LINE
  5
29A
330
70
100
AcDbEntity
  8
HON
 62
     9
420
 12632256
370
    25
100
AcDbLine
 10
342.0481891467147
 20
127.3326997073889
 30
0.0
 11
350.8095515883438
 21
142.5226520811053
 31
0.0
  0
LINE
  5
29B
330
70
100
AcDbEntity
  8
HON
 62
     9
420
 12632256
370
    25
100
AcDbLine
 10
351.2098836951937
 20
127.6226409281479
 30
0.0
 11
361.5785969384418
 21
141.2761997625086
 31
0.0
  0
LINE
  5
29C
330
70
100
AcDbEntity
  8
HON
 62
     9
420
 12632256
370
    25
100
AcDbLine
 10
361.5785969384418
 20
141.2761997625086
 30
0.0
 11
358.9677733436056
 21
126.8117719929573
 31
0.0
  0
LINE
  5
29D
330
70
100
AcDbEntity
  8
HON
 62
     9
420
 12632256
370
    25
100
AcDbLine
 10
358.9677733436056
 20
126.8117719929573
 30
0.0
 11
371.265493400504
 21
140.0811325172504
 31
0.0
  0
LINE
  5
29E
330
70
100
AcDbEntity
  8
HON
 62
     9
420
 12632256
370
    25
100
AcDbLine
 10
371.265493400504
 20
140.0811325172504
 30
0.0
 11
365.6493312750903
 21
126.1201766942949
 31
0.0
  0
LINE
  5
29F
330
70
100
AcDbEntity
  8
HON
 62
     9
420
 12632256
370
    25
100
AcDbLine
 10
365.6493312750903
 20
126.1201766942949
 30
0.0
 11
378.5869560762577
 21
138.5181606001182
 31
0.0
  0
LINE
  5
2A0
330
70
100
AcDbEntity
  8
HON
 62
     9
420
 12632256
370
    25
100
AcDbLine
 10
378.5869560762577
 20
138.5181606001182
 30
0.0
 11
371.9981779968065
 21
125.8433793503078
 31
0.0
  0
LINE
  5
2A1
330
70
100
AcDbEntity
  8
HON
 62
     9
420
 12632256
370
    25
100
AcDbLine
 10
371.9981779968065
 20
125.8433793503078
 30
0.0
 11
384.4786487443137
 21
136.0739963774557
 31
0.0
  0
LINE
  5
2A2
330
70
100
AcDbEntity
  8
HON
 62
     9
420
 12632256
370
    25
100
AcDbLine
 10
384.4786487443137
 20
136.0739963774557
 30
0.0
 11
377.1169934482435
 21
124.2579555255188
 31
0.0
  0
LINE
  5
2A3
330
70
100
AcDbEntity
  8
HON
 62
     9
420
 12632256
370
    25
100
AcDbLine
 10
377.1169934482435
 20
124.2579555255188
 30
0.0
 11
387.8359121582408
 21
133.7448499093245
 31
0.0
  0
LINE
  5
2A4
330
70
100
AcDbEntity
  8
HON
 62
     9
420
 12632256
370
    25
100
AcDbLine
 10
389.6887266102584
 20
132.2411165933004
 30
0.0
 11
383.2703948004227
 21
123.0637354773143
 31
0.0
  0
LINE
  5
2A5
330
70
100
AcDbEntity
  8
HON
 62
     9
420
 12632256
370
    25
100
AcDbLine
 10
380.8528034280811
 20
123.9231859831989
 30
0.0
 11
389.6887266102584
 21
132.2411165933004
 31
0.0
  0
LINE
  5
2A6
330
70
100
AcDbEntity
  8
HON
 62
     9
420
 12632256
370
    25
100
AcDbLine
 10
351.2098836951937
 20
127.6226409281479
 30
0.0
 11
350.8095515883438
 21
142.5226520811053
 31
0.0
  0
LINE
  5
2A7
330
70
100
AcDbEntity
  8
HON
 62
     9
420
 12632256
370
    25
100
AcDbLine
 10
349.9451834860931
 20
126.1648093305647
 30
0.0
 11
346.2744942140495
 21
135.8054768088009
 31
0.0
  0
LINE
  5
2A8
330
70
100
AcDbEntity
  8
HON
 62
     9
420
 12632256
370
    25
100
AcDbLine
 10
357.2791645056804
 20
125.3904289079314
 30
0.0
 11
355.9593495889903
 21
134.5346785305657
 31
0.0
  0
LINE
  5
2A9
330
70
100
AcDbEntity
  8
HON
 62
     9
420
 12632256
370
    25
100
AcDbLine
 10
364.6728337393443
 20
124.8626720162243
 30
0.0
 11
363.057079934316
 21
131.4736551859171
 31
0.0
  0
LINE
  5
2AA
330
70
100
AcDbEntity
  8
HON
 62
     9
420
 12632256
370
    25
100
AcDbLine
 10
371.0228646422598
 20
124.3571522755073
 30
0.0
 11
370.0877860738623
 21
130.2749181661201
 31
0.0
  0
LINE
  5
2AB
330
70
100
AcDbEntity
  8
HON
 62
     9
420
 12632256
370
    25
100
AcDbLine
 10
376.3390183017993
 20
122.9470563539189
 30
0.0
 11
375.6773903522868
 21
128.7238160131058
 31
0.0
  0
LINE
  5
2AC
330
70
100
AcDbEntity
  8
HON
 62
     9
420
 12632256
370
    25
100
AcDbLine
 10
380.4603743903883
 20
121.4829507531697
 30
0.0
 11
380.1495987733311
 21
126.8743206907895
 31
0.0
  0
LINE
  5
2AD
330
70
100
AcDbEntity
  8
HON
 62
     9
420
 12632256
370
    25
100
AcDbLine
 10
382.6533665144469
 20
120.057475190949
 30
0.0
 11
382.9144539060465
 21
125.658387871353
 31
0.0
  0
LINE
  5
2AE
330
70
100
AcDbEntity
  8
HON
 62
     9
420
 12632256
370
    25
100
AcDbLine
 10
387.8359121582408
 20
133.7448499093245
 30
0.0
 11
380.8528034280811
 21
123.9231859831989
 31
0.0
  0
LINE
  5
2AF
330
70
100
AcDbEntity
  8
HON
 62
     9
420
 12632256
370
    25
100
AcDbLine
 10
351.2098836951937
 20
127.6226409281479
 30
0.0
 11
346.2744942140495
 21
135.8054768088009
 31
0.0
  0
LINE
  5
2B0
330
70
100
AcDbEntity
  8
HON
 62
     9
420
 12632256
370
    25
100
AcDbLine
 10
358.9677733436056
 20
126.8117719929573
 30
0.0
 11
355.9593495889903
 21
134.5346785305657
 31
0.0
  0
LINE
  5
2B1
330
70
100
AcDbEntity
  8
HON
 62
     9
420
 12632256
370
    25
100
AcDbLine
 10
365.6493312750903
 20
126.1201766942949
 30
0.0
 11
363.057079934316
 21
131.4736551859171
 31
0.0
  0
LINE
  5
2B2
330
70
100
AcDbEntity
  8
HON
 62
     9
420
 12632256
370
    25
100
AcDbLine
 10
371.9981779968065
 20
125.8433793503078
 30
0.0
 11
370.0877860738623
 21
130.2749181661201
 31
0.0
  0
LINE
  5
2B3
330
70
100
AcDbEntity
  8
HON
 62
     9
420
 12632256
370
    25
100
AcDbLine
 10
377.1169934482435
 20
124.2579555255188
 30
0.0
 11
375.6773903522868
 21
128.7238160131058
 31
0.0
  0
LINE
  5
2B4
330
70
100
AcDbEntity
  8
HON
 62
     9
420
 12632256
370
    25
100
AcDbLine
 10
380.8528034280811
 20
123.9231859831989
 30
0.0
 11
380.1495987733311
 21
126.8743206907895
 31
0.0
  0
LINE
  5
2B5
330
70
100
AcDbEntity
  8
HON
 62
     9
420
 12632256
370
    25
100
AcDbLine
 10
383.2703948004227
 20
123.0637354773143
 30
0.0
 11
382.9144539060465
 21
125.658387871353
 31
0.0
  0
LINE
  5
2B6
330
70
100
AcDbEntity
  8
HON
 62
     9
420
 12632256
370
    25
100
AcDbLine
 10
351.2098836951937
 20
127.6226409281479
 30
0.0
 11
349.9451834860931
 21
126.1648093305647
 31
0.0
  0
LINE
  5
2B7
330
70
100
AcDbEntity
  8
HON
 62
     9
420
 12632256
370
    25
100
AcDbLine
 10
358.9677733436056
 20
126.8117719929573
 30
0.0
 11
357.2791645056804
 21
125.3904289079314
 31
0.0
  0
LINE
  5
2B8
330
70
100
AcDbEntity
  8
HON
 62
     9
420
 12632256
370
    25
100
AcDbLine
 10
365.6493312750903
 20
126.1201766942949
 30
0.0
 11
364.6728337393443
 21
124.8626720162243
 31
0.0
  0
LINE
  5
2B9
330
70
100
AcDbEntity
  8
HON
 62
     9
420
 12632256
370
    25
100
AcDbLine
 10
371.9981779968065
 20
125.8433793503078
 30
0.0
 11
371.0228646422598
 21
124.3571522755073
 31
0.0
  0
LINE
  5
2BA
330
70
100
AcDbEntity
  8
HON
 62
     9
420
 12632256
370
    25
100
AcDbLine
 10
377.1169934482435
 20
124.2579555255188
 30
0.0
 11
376.3390183017993
 21
122.9470563539189
 31
0.0
  0
LINE
  5
2BB
330
70
100
AcDbEntity
  8
HON
 62
     9
420
 12632256
370
    25
100
AcDbLine
 10
380.8528034280811
 20
123.9231859831989
 30
0.0
 11
380.3005324494228
 21
122.7010684272041
 31
0.0
  0
LINE
  5
2BC
330
70
100
AcDbEntity
  8
HON
 62
     9
420
 12632256
370
    25
100
AcDbLine
 10
382.8478872130948
 20
121.581231558577
 30
0.0
 11
383.2703948004227
 21
123.0637354773143
 31
0.0
  0
LINE
  5
2BD
330
70
100
AcDbEntity
  8
HON
 62
     9
420
 12632256
370
    25
100
AcDbLine
 10
343.6264208100064
 20
91.80177063954605
 30
0.0
 11
345.9147697328615
 21
88.87065454014644
 31
0.0
  0
LINE
  5
2BE
330
70
100
AcDbEntity
  8
HON
 62
     9
420
 12632256
370
    25
100
AcDbLine
 10
345.5961749021092
 20
91.93885855037773
 30
0.0
 11
349.2300789034168
 21
89.0864052591651
 31
0.0
  0
LINE
  5
2BF
330
70
100
AcDbEntity
  8
HON
 62
     9
420
 12632256
370
    25
100
AcDbLine
 10
346.9567110131189
 20
92.13894005759597
 30
0.0
 11
351.9754659440248
 21
89.40088067153419
 31
0.0
  0
LINE
  5
2C0
330
70
100
AcDbEntity
  8
HON
 62
     9
420
 12632256
370
    25
100
AcDbLine
 10
347.793349491044
 20
92.36943783946598
 30
0.0
 11
354.8957546522872
 21
89.96676184512983
 31
0.0
  0
LINE
  5
2C1
330
70
100
AcDbEntity
  8
HON
 62
     9
420
 12632256
370
    25
100
AcDbLine
 10
348.1202327788046
 20
92.55523443750432
 30
0.0
 11
356.4155819839627
 21
90.49265515109871
 31
0.0
  0
LINE
  5
2C2
330
70
100
AcDbEntity
  8
HON
 62
     9
420
 12632256
370
    25
100
AcDbLine
 10
348.1993297852171
 20
92.70575809872031
 30
0.0
 11
357.2162294383534
 21
91.11584479435503
 31
0.0
  0
LINE
  5
2C3
330
70
100
AcDbEntity
  8
HON
 62
     9
420
 12632256
370
    25
100
AcDbLine
 10
373.9607752562836
 20
193.3004937978167
 30
0.0
 11
372.0897544386305
 21
191.4725582707835
 31
0.0
  0
LINE
  5
2C4
330
70
100
AcDbEntity
  8
HON
 62
     9
420
 12632256
370
    25
100
AcDbLine
 10
378.3658212286336
 20
191.4358933761945
 30
0.0
 11
376.5936864010744
 21
190.4251092679725
 31
0.0
  0
LINE
  5
2C5
330
70
100
AcDbEntity
  8
HON
 62
     9
420
 12632256
370
    25
100
AcDbLine
 10
380.4694258955047
 20
190.8312255899
 30
0.0
 11
379.2266312437334
 21
190.4335402831056
 31
0.0
  0
LINE
  5
2C6
330
70
100
AcDbEntity
  8
HON
 62
     9
420
 12632256
370
    25
100
AcDbLine
 10
385.0589680297176
 20
152.0924761980147
 30
0.0
 11
387.417035254044
 21
154.3552260587946
 31
0.0
  0
LINE
  5
2C7
330
70
100
AcDbEntity
  8
HON
 62
     9
420
 12632256
370
    25
100
AcDbLine
 10
342.3285400954573
 20
203.4296006851904
 30
0.0
 11
344.1046251591632
 21
210.9486938556604
 31
0.0
  0
LINE
  5
2C8
330
70
100
AcDbEntity
  8
HON
 62
     9
420
 12632256
370
    25
100
AcDbLine
 10
344.1046251591632
 20
210.9486938556604
 30
0.0
 11
346.2192761430879
 21
203.3375574559791
 31
0.0
  0
LINE
  5
2C9
330
70
100
AcDbEntity
  8
HON
 62
     9
420
 12632256
370
    25
100
AcDbLine
 10
346.2192761430879
 20
203.3375574559791
 30
0.0
 11
346.7284565367845
 21
210.8671253153135
 31
0.0
  0
LINE
  5
2CA
330
70
100
AcDbEntity
  8
HON
 62
     9
420
 12632256
370
    25
100
AcDbLine
 10
346.7284565367845
 20
210.8671253153135
 30
0.0
 11
351.5608613861636
 21
203.0947305257452
 31
0.0
  0
LINE
  5
2CB
330
70
100
AcDbEntity
  8
HON
 62
     9
420
 12632256
370
    25
100
AcDbLine
 10
351.5608613861636
 20
203.0947305257452
 30
0.0
 11
348.4281614520764
 21
210.7570281550276
 31
0.0
  0
LINE
  5
2CC
330
70
100
AcDbEntity
  8
HON
 62
     9
420
 12632256
370
    25
100
AcDbLine
 10
348.4281614520764
 20
210.7570281550276
 30
0.0
 11
357.9235544397774
 21
202.3578832962753
 31
0.0
  0
LINE
  5
2CD
330
70
100
AcDbEntity
  8
HON
 62
     9
420
 12632256
370
    25
100
AcDbLine
 10
357.9235544397774
 20
202.3578832962753
 30
0.0
 11
350.0364179793765
 21
210.6132146333075
 31
0.0
  0
LINE
  5
2CE
330
70
100
AcDbEntity
  8
HON
 62
     9
420
 12632256
370
    25
100
AcDbLine
 10
350.0364179793765
 20
210.6132146333075
 30
0.0
 11
362.0859235470363
 21
201.7020303865452
 31
0.0
  0
LINE
  5
2CF
330
70
100
AcDbEntity
  8
HON
 62
     9
420
 12632256
370
    25
100
AcDbLine
 10
362.0859235470363
 20
201.7020303865452
 30
0.0
 11
352.2262267801766
 21
210.3157810021792
 31
0.0
  0
LINE
  5
2D0
330
70
100
AcDbEntity
  8
HON
 62
     9
420
 12632256
370
    25
100
AcDbLine
 10
352.2262267801766
 20
210.3157810021792
 30
0.0
 11
364.03311320198
 21
201.7020303865452
 31
0.0
  0
LINE
  5
2D1
330
70
100
AcDbEntity
  8
HON
 62
     9
420
 12632256
370
    25
100
AcDbLine
 10
364.03311320198
 20
201.7020303865452
 30
0.0
 11
354.0464748730566
 21
210.0090715057907
 31
0.0
  0
LINE
  5
2D2
330
70
100
AcDbEntity
  8
HON
 62
     9
420
 12632256
370
    25
100
AcDbLine
 10
353.855385029366
 20
210.0090715057907
 30
0.0
 11
367.1029070575172
 21
200.7328205871766
 31
0.0
  0
LINE
  5
2D3
330
70
100
AcDbEntity
  8
HON
 62
     9
420
 12632256
370
    25
100
AcDbLine
 10
367.0152291870146
 20
200.8278429129402
 30
0.0
 11
355.3531155374218
 21
209.6182008720843
 31
0.0
  0
LINE
  5
2D4
330
70
100
AcDbEntity
  8
HON
 62
     9
420
 12632256
370
    25
100
AcDbLine
 10
355.5442053811124
 20
209.6182008720843
 30
0.0
 11
367.9674923579821
 21
200.6869397107702
 31
0.0
  0
LINE
  5
2D5
330
70
100
AcDbEntity
  8
HON
 62
     9
420
 12632256
370
    25
100
AcDbLine
 10
367.9674923579821
 20
200.6869397107702
 30
0.0
 11
356.7868922464837
 21
209.0794286834775
 31
0.0
  0
LINE
  5
2D6
330
70
100
AcDbEntity
  8
HON
 62
     9
420
 12632256
370
    25
100
AcDbLine
 10
367.9674923579821
 20
200.6869397107702
 30
0.0
 11
372.1922857738643
 21
199.097872230107
 31
0.0
  0
LINE
  5
2D7
330
70
100
AcDbEntity
  8
HON
 62
     9
420
 12632256
370
    25
100
AcDbLine
 10
342.1854497033996
 20
91.74737237680201
 30
0.0
 11
342.1854497033996
 21
88.68019645402039
 31
0.0
  0
LINE
  5
2D8
330
70
100
AcDbEntity
  8
HON
 62
     9
420
 12632256
370
    25
100
AcDbLine
 10
342.1298183644158
 20
160.8200242796283
 30
0.0
 11
342.0481891467147
 21
127.3326997073889
 31
0.0
  0
ENDSEC
  0
SECTION
  2
OBJECTS
  0
DICTIONARY
  5
C
330
0
100
AcDbDictionary
281
     1
  3
ACAD_COLOR
350
63
  3
ACAD_DETAILVIEWSTYLE
350
6A
  3
ACAD_GROUP
350
D
  3
ACAD_LAYOUT
350
62
  3
ACAD_MATERIAL
350
10
  3
ACAD_MLEADERSTYLE
350
66
  3
ACAD_MLINESTYLE
350
5F
  3
ACAD_PLOTSETTINGS
350
61
  3
ACAD_PLOTSTYLENAME
350
E
  3
ACAD_SCALELIST
350
42
  3
ACAD_SECTIONVIEWSTYLE
350
68
  3
ACAD_TABLESTYLE
350
64
  3
ACAD_VISUALSTYLE
350
29
  3
ACDB_RECOMPOSE_DATA
350
2E1
  3
AcDbVariableDictionary
350
2D9
  0
DICTIONARY
  5
63
102
{ACAD_REACTORS
330
C
102
}
330
C
100
AcDbDictionary
281
     1
  0
DICTIONARY
  5
6A
102
{ACAD_REACTORS
330
C
102
}
330
C
100
AcDbDictionary
281
     1
  3
Imperial24
350
6B
  0
DICTIONARY
  5
D
102
{ACAD_REACTORS
330
C
102
}
330
C
100
AcDbDictionary
281
     1
  0
DICTIONARY
  5
62
102
{ACAD_REACTORS
330
C
102
}
330
C
100
AcDbDictionary
281
     1
  3
Layout1
350
6F
  3
Layout2
350
77
  3
Model
350
73
  0
DICTIONARY
  5
10
102
{ACAD_REACTORS
330
C
102
}
330
C
100
AcDbDictionary
281
     1
  3
ByBlock
350
19
  3
ByLayer
350
11
  3
Global
350
21
  0
DICTIONARY
  5
66
102
{ACAD_REACTORS
330
C
102
}
330
C
100
AcDbDictionary
281
     1
  3
Standard
350
67
  0
DICTIONARY
  5
5F
102
{ACAD_REACTORS
330
C
102
}
330
C
100
AcDbDictionary
281
     1
  3
Standard
350
60
  0
DICTIONARY
  5
61
102
{ACAD_REACTORS
330
C
102
}
330
C
100
AcDbDictionary
281
     1
  0
ACDBDICTIONARYWDFLT
  5
E
102
{ACAD_REACTORS
330
C
102
}
330
C
100
AcDbDictionary
281
     1
  3
Normal
350
F
100
AcDbDictionaryWithDefault
340
F
  0
DICTIONARY
  5
42
102
{ACAD_REACTORS
330
C
102
}
330
C
100
AcDbDictionary
281
     1
  3
A0
350
43
  3
A1
350
44
  3
A2
350
45
  3
A3
350
46
  3
A4
350
47
  3
A5
350
48
  3
A6
350
49
  3
A7
350
4A
  3
A8
350
4B
  3
A9
350
4C
  3
B0
350
4D
  3
B1
350
4E
  3
B2
350
4F
  3
B3
350
50
  3
B4
350
51
  3
B5
350
52
  3
B6
350
53
  0
DICTIONARY
  5
68
102
{ACAD_REACTORS
330
C
102
}
330
C
100
AcDbDictionary
281
     1
  3
Imperial24
350
69
  0
DICTIONARY
  5
64
102
{ACAD_REACTORS
330
C
102
}
330
C
100
AcDbDictionary
281
     1
  3
Standard
350
65
  0
DICTIONARY
  5
29
102
{ACAD_REACTORS
330
C
102
}
330
C
100
AcDbDictionary
281
     1
  3
2dWireframe
350
2F
  3
Basic
350
2E
  3
Brighten
350
35
  3
ColorChange
350
39
  3
Conceptual
350
32
  3
Dim
350
34
  3
EdgeColorOff
350
41
  3
Facepattern
350
38
  3
Flat
350
2A
  3
FlatWithEdges
350
2B
  3
Gouraud
350
2C
  3
GouraudWithEdges
350
2D
  3
Hidden
350
31
  3
JitterOff
350
3F
  3
Linepattern
350
37
  3
OverhangOff
350
40
  3
Realistic
350
33
  3
Shaded
350
3E
  3
Shaded with edges
350
3D
  3
Shades of Gray
350
3A
  3
Sketchy
350
3B
  3
Thicken
350
36
  3
Wireframe
350
30
  3
X-Ray
350
3C
  0
XRECORD
  5
2E1
102
{ACAD_REACTORS
330
C
102
}
330
C
100
AcDbXrecord
280
     1
 90
        1
330
65
  0
DICTIONARY
  5
2D9
102
{ACAD_REACTORS
330
C
102
}
330
C
100
AcDbDictionary
281
     1
  3
CANNOSCALE
350
2DE
  3
CMLEADERSTYLE
350
2DB
  3
CTABLESTYLE
350
2DA
  3
CVIEWDETAILSTYLE
350
2DC
  3
CVIEWSECTIONSTYLE
350
2DD
  0
ACDBDETAILVIEWSTYLE
  5
6B
102
{ACAD_REACTORS
330
6A
102
}
330
6A
100
AcDbModelDocViewStyle
 70
     0
  3
Imperial24
290
     1
300
Imperial24
 90
        0
100
AcDbDetailViewStyle
 70
     0
 71
     0
 90
        3
 71
     1
340
55
 62
   256
 40
0.24
340
0
 62
   256
 40
0.24
300

 40
0.36
280
     3
 71
     2
340
5D
 90
       25
 62
   256
 71
     3
340
55
 62
   256
 40
0.24
 90
        1
 40
0.75
 90
        1
300
%<\AcVar ViewType \f "%tc1">% %<\AcVar ViewDetailId>%\PSCALE %<\AcVar ViewScale \f "%sn">%
 71
     4
340
5D
 90
       25
 62
   256
340
5D
 90
       25
 62
   256
280
     0
  0
LAYOUT
  5
6F
102
{ACAD_REACTORS
330
62
102
}
330
62
100
AcDbPlotSettings
  1

  2

  4

  6

 40
0.0
 41
0.0
 42
0.0
 43
0.0
 44
0.0
 45
0.0
 46
0.0
 47
0.0
 48
0.0
 49
0.0
140
0.0
141
0.0
142
1.0
143
1.0
 70
   688
 72
     0
 73
     0
 74
     5
  7

 75
    16
147
1.0
 76
     0
 77
     2
 78
   300
148
0.0
149
0.0
100
AcDbLayout
  1
Layout1
 70
     1
 71
     1
 10
0.0
 20
0.0
 11
12.0
 21
9.0
 12
0.0
 22
0.0
 32
0.0
 14
0.0
 24
0.0
 34
0.0
 15
0.0
 25
0.0
 35
0.0
146
0.0
 13
0.0
 23
0.0
 33
0.0
 16
1.0
 26
0.0
 36
0.0
 17
0.0
 27
1.0
 37
0.0
 76
     0
330
6C
  0
LAYOUT
  5
77
102
{ACAD_REACTORS
330
62
102
}
330
62
100
AcDbPlotSettings
  1

  2

  4

  6

 40
0.0
 41
0.0
 42
0.0
 43
0.0
 44
0.0
 45
0.0
 46
0.0
 47
0.0
 48
0.0
 49
0.0
140
0.0
141
0.0
142
1.0
143
1.0
 70
   688
 72
     0
 73
     0
 74
     5
  7

 75
    16
147
1.0
 76
     0
 77
     2
 78
   300
148
0.0
149
0.0
100
AcDbLayout
  1
Layout2
 70
     1
 71
     2
 10
0.0
 20
0.0
 11
12.0
 21
9.0
 12
0.0
 22
0.0
 32
0.0
 14
0.0
 24
0.0
 34
0.0
 15
0.0
 25
0.0
 35
0.0
146
0.0
 13
0.0
 23
0.0
 33
0.0
 16
1.0
 26
0.0
 36
0.0
 17
0.0
 27
1.0
 37
0.0
 76
     0
330
74
  0
LAYOUT
  5
73
102
{ACAD_REACTORS
330
62
102
}
330
62
100
AcDbPlotSettings
  1

  2

  4

  6

 40
0.0
 41
0.0
 42
0.0
 43
0.0
 44
0.0
 45
0.0
 46
0.0
 47
0.0
 48
0.0
 49
0.0
140
0.0
141
0.0
142
1.0
143
1.0
 70
  1712
 72
     0
 73
     0
 74
     0
  7

 75
     0
147
1.0
 76
     0
 77
     2
 78
   300
148
0.0
149
0.0
100
AcDbLayout
  1
Model
 70
     1
 71
     0
 10
0.0
 20
0.0
 11
12.0
 21
9.0
 12
0.0
 22
0.0
 32
0.0
 14
0.0
 24
0.0
 34
0.0
 15
0.0
 25
0.0
 35
0.0
146
0.0
 13
0.0
 23
0.0
 33
0.0
 16
1.0
 26
0.0
 36
0.0
 17
0.0
 27
1.0
 37
0.0
 76
     0
330
70
  0
MATERIAL
  5
19
102
{ACAD_XDICTIONARY
360
1A
102
}
102
{ACAD_REACTORS
330
10
102
}
330
10
100
AcDbMaterial
  1
ByBlock
 72
     0
 43
0.0208333333333333
 43
0.0
 43
0.0
 43
0.0
 43
0.0
 43
0.0208333333333333
 43
0.0
 43
0.0
 43
0.0
 43
0.0
 43
1.0
 43
0.0
 43
0.0
 43
0.0
 43
0.0
 43
1.0
 77
     0
 47
0.0208333333333333
 47
0.0
 47
0.0
 47
0.0
 47
0.0
 47
0.0208333333333333
 47
0.0
 47
0.0
 47
0.0
 47
0.0
 47
1.0
 47
0.0
 47
0.0
 47
0.0
 47
0.0
 47
1.0
171
     0
 49
0.0208333333333333
 49
0.0
 49
0.0
 49
0.0
 49
0.0
 49
0.0208333333333333
 49
0.0
 49
0.0
 49
0.0
 49
0.0
 49
1.0
 49
0.0
 49
0.0
 49
0.0
 49
0.0
 49
1.0
175
     0
142
0.0208333333333333
142
0.0
142
0.0
142
0.0
142
0.0
142
0.0208333333333333
142
0.0
142
0.0
142
0.0
142
0.0
142
1.0
142
0.0
142
0.0
142
0.0
142
0.0
142
1.0
179
     0
144
0.0208333333333333
144
0.0
144
0.0
144
0.0
144
0.0
144
0.0208333333333333
144
0.0
144
0.0
144
0.0
144
0.0
144
1.0
144
0.0
144
0.0
144
0.0
144
0.0
144
1.0
147
0.0208333333333333
147
0.0
147
0.0
147
0.0
147
0.0
147
0.0208333333333333
147
0.0
147
0.0
147
0.0
147
0.0
147
1.0
147
0.0
147
0.0
147
0.0
147
0.0
147
1.0
  0
MATERIAL
  5
11
102
{ACAD_XDICTIONARY
360
12
102
}
102
{ACAD_REACTORS
330
10
102
}
330
10
100
AcDbMaterial
  1
ByLayer
 72
     0
 43
0.0208333333333333
 43
0.0
 43
0.0
 43
0.0
 43
0.0
 43
0.0208333333333333
 43
0.0
 43
0.0
 43
0.0
 43
0.0
 43
1.0
 43
0.0
 43
0.0
 43
0.0
 43
0.0
 43
1.0
 77
     0
 47
0.0208333333333333
 47
0.0
 47
0.0
 47
0.0
 47
0.0
 47
0.0208333333333333
 47
0.0
 47
0.0
 47
0.0
 47
0.0
 47
1.0
 47
0.0
 47
0.0
 47
0.0
 47
0.0
 47
1.0
171
     0
 49
0.0208333333333333
 49
0.0
 49
0.0
 49
0.0
 49
0.0
 49
0.0208333333333333
 49
0.0
 49
0.0
 49
0.0
 49
0.0
 49
1.0
 49
0.0
 49
0.0
 49
0.0
 49
0.0
 49
1.0
175
     0
142
0.0208333333333333
142
0.0
142
0.0
142
0.0
142
0.0
142
0.0208333333333333
142
0.0
142
0.0
142
0.0
142
0.0
142
1.0
142
0.0
142
0.0
142
0.0
142
0.0
142
1.0
179
     0
144
0.0208333333333333
144
0.0
144
0.0
144
0.0
144
0.0
144
0.0208333333333333
144
0.0
144
0.0
144
0.0
144
0.0
144
1.0
144
0.0
144
0.0
144
0.0
144
0.0
144
1.0
147
0.0208333333333333
147
0.0
147
0.0
147
0.0
147
0.0
147
0.0208333333333333
147
0.0
147
0.0
147
0.0
147
0.0
147
1.0
147
0.0
147
0.0
147
0.0
147
0.0
147
1.0
  0
MATERIAL
  5
21
102
{ACAD_XDICTIONARY
360
22
102
}
102
{ACAD_REACTORS
330
10
102
}
330
10
100
AcDbMaterial
  1
Global
 72
     0
 43
0.0208333333333333
 43
0.0
 43
0.0
 43
0.0
 43
0.0
 43
0.0208333333333333
 43
0.0
 43
0.0
 43
0.0
 43
0.0
 43
1.0
 43
0.0
 43
0.0
 43
0.0
 43
0.0
 43
1.0
 77
     0
 47
0.0208333333333333
 47
0.0
 47
0.0
 47
0.0
 47
0.0
 47
0.0208333333333333
 47
0.0
 47
0.0
 47
0.0
 47
0.0
 47
1.0
 47
0.0
 47
0.0
 47
0.0
 47
0.0
 47
1.0
171
     0
 49
0.0208333333333333
 49
0.0
 49
0.0
 49
0.0
 49
0.0
 49
0.0208333333333333
 49
0.0
 49
0.0
 49
0.0
 49
0.0
 49
1.0
 49
0.0
 49
0.0
 49
0.0
 49
0.0
 49
1.0
175
     0
142
0.0208333333333333
142
0.0
142
0.0
142
0.0
142
0.0
142
0.0208333333333333
142
0.0
142
0.0
142
0.0
142
0.0
142
1.0
142
0.0
142
0.0
142
0.0
142
0.0
142
1.0
179
     0
144
0.0208333333333333
144
0.0
144
0.0
144
0.0
144
0.0
144
0.0208333333333333
144
0.0
144
0.0
144
0.0
144
0.0
144
1.0
144
0.0
144
0.0
144
0.0
144
0.0
144
1.0
147
0.0208333333333333
147
0.0
147
0.0
147
0.0
147
0.0
147
0.0208333333333333
147
0.0
147
0.0
147
0.0
147
0.0
147
1.0
147
0.0
147
0.0
147
0.0
147
0.0
147
1.0
  0
MLEADERSTYLE
  5
67
102
{ACAD_REACTORS
330
66
102
}
330
66
100
AcDbMLeaderStyle
179
     2
170
     2
171
     1
172
     0
 90
        2
 40
0.0
 41
0.0
173
     1
 91
-1056964608
340
5B
 92
       -2
290
     1
 42
0.09
291
     1
 43
0.36
  3
Standard
 44
0.18
300

342
55
174
     1
178
     6
175
     1
176
     0
 93
-1056964608
 45
0.18
292
     0
297
     0
 46
0.18
 94
-1056964608
 47
1.0
 49
1.0
140
1.0
293
     1
141
0.0
294
     1
177
     0
142
1.0
295
     1
296
     0
143
0.125
271
     0
272
     9
273
     9
298
     1
  0
MLINESTYLE
  5
60
102
{ACAD_REACTORS
330
5F
102
}
330
5F
100
AcDbMlineStyle
  2
STANDARD
 70
     0
  3

 62
   256
 51
90.0
 52
90.0
 71
     2
 49
0.5
 62
   256
  6
BYLAYER
 49
-0.5
 62
   256
  6
BYLAYER
  0
ACDBPLACEHOLDER
  5
F
102
{ACAD_REACTORS
330
E
102
}
330
E
  0
SCALE
  5
43
102
{ACAD_REACTORS
330
42
102
}
330
42
100
AcDbScale
 70
     0
300
1:1
140
1.0
141
1.0
290
     1
  0
SCALE
  5
44
102
{ACAD_REACTORS
330
42
102
}
330
42
100
AcDbScale
 70
     0
300
1/128" = 1'-0"
140
0.0078125
141
12.0
290
     0
  0
SCALE
  5
45
102
{ACAD_REACTORS
330
42
102
}
330
42
100
AcDbScale
 70
     0
300
1/64" = 1'-0"
140
0.015625
141
12.0
290
     0
  0
SCALE
  5
46
102
{ACAD_REACTORS
330
42
102
}
330
42
100
AcDbScale
 70
     0
300
1/32" = 1'-0"
140
0.03125
141
12.0
290
     0
  0
SCALE
  5
47
102
{ACAD_REACTORS
330
42
102
}
330
42
100
AcDbScale
 70
     0
300
1/16" = 1'-0"
140
0.0625
141
12.0
290
     0
  0
SCALE
  5
48
102
{ACAD_REACTORS
330
42
102
}
330
42
100
AcDbScale
 70
     0
300
3/32" = 1'-0"
140
0.09375
141
12.0
290
     0
  0
SCALE
  5
49
102
{ACAD_REACTORS
330
42
102
}
330
42
100
AcDbScale
 70
     0
300
1/8" = 1'-0"
140
0.125
141
12.0
290
     0
  0
SCALE
  5
4A
102
{ACAD_REACTORS
330
42
102
}
330
42
100
AcDbScale
 70
     0
300
3/16" = 1'-0"
140
0.1875
141
12.0
290
     0
  0
SCALE
  5
4B
102
{ACAD_REACTORS
330
42
102
}
330
42
100
AcDbScale
 70
     0
300
1/4" = 1'-0"
140
0.25
141
12.0
290
     0
  0
SCALE
  5
4C
102
{ACAD_REACTORS
330
42
102
}
330
42
100
AcDbScale
 70
     0
300
3/8" = 1'-0"
140
0.375
141
12.0
290
     0
  0
SCALE
  5
4D
102
{ACAD_REACTORS
330
42
102
}
330
42
100
AcDbScale
 70
     0
300
1/2" = 1'-0"
140
0.5
141
12.0
290
     0
  0
SCALE
  5
4E
102
{ACAD_REACTORS
330
42
102
}
330
42
100
AcDbScale
 70
     0
300
3/4" = 1'-0"
140
0.75
141
12.0
290
     0
  0
SCALE
  5
4F
102
{ACAD_REACTORS
330
42
102
}
330
42
100
AcDbScale
 70
     0
300
1" = 1'-0"
140
1.0
141
12.0
290
     0
  0
SCALE
  5
50
102
{ACAD_REACTORS
330
42
102
}
330
42
100
AcDbScale
 70
     0
300
1-1/2" = 1'-0"
140
1.5
141
12.0
290
     0
  0
SCALE
  5
51
102
{ACAD_REACTORS
330
42
102
}
330
42
100
AcDbScale
 70
     0
300
3" = 1'-0"
140
3.0
141
12.0
290
     0
  0
SCALE
  5
52
102
{ACAD_REACTORS
330
42
102
}
330
42
100
AcDbScale
 70
     0
300
6" = 1'-0"
140
6.0
141
12.0
290
     0
  0
SCALE
  5
53
102
{ACAD_REACTORS
330
42
102
}
330
42
100
AcDbScale
 70
     0
300
1'-0" = 1'-0"
140
12.0
141
12.0
290
     0
  0
ACDBSECTIONVIEWSTYLE
  5
69
102
{ACAD_REACTORS
330
68
102
}
330
68
100
AcDbModelDocViewStyle
 70
     0
  3
Imperial24
290
     1
300
Imperial24
 90
        0
100
AcDbSectionViewStyle
 70
     0
 71
     0
 90
       78
 71
     1
340
55
 62
   256
 40
0.24
340
0
340
0
 62
   256
 40
0.24
300
I, O, Q, S, X, Z
 40
0.48
 90
        3
 40
0.18
 90
        1
 71
     2
340
5D
 90
       25
 62
   256
340
5D
 90
       50
 62
   256
 40
0.24
 40
0.0
 40
0.24
 71
     3
340
55
 62
   256
 40
0.24
 90
        1
 40
0.75
 90
        1
300
%<\AcVar ViewType \f "%tc1">% %<\AcVar ViewSectionStartId>%-%<\AcVar ViewSectionEndId>%\PSCALE %<\AcVar ViewScale \f "%sn">%
 71
     4
 62
   256
 62
   257
300
ANSI31
 40
1.0
 90
        0
290
     0
290
     0
 90
        6
 40
0.0
 40
1.570796326794896
 40
0.2617993877991494
 40
1.308996938995747
 40
-0.2617993877991494
 40
1.832595714594046
  0
TABLESTYLE
  5
65
102
{ACAD_XDICTIONARY
360
2DF
102
}
102
{ACAD_REACTORS
330
64
102
}
330
64
100
AcDbTableStyle
280
     0
  3
Standard
 70
     0
 71
     0
 40
0.06
 41
0.06
280
     0
281
     0
  7
Standard
140
0.18
170
     2
 62
     0
 63
     7
283
     0
 90
      512
 91
        0
  1

274
    -2
284
     1
 64
     0
275
    -2
285
     1
 65
     0
276
    -2
286
     1
 66
     0
277
    -2
287
     1
 67
     0
278
    -2
288
     1
 68
     0
279
    -2
289
     1
 69
     0
  7
Standard
140
0.25
170
     5
 62
     0
 63
     7
283
     0
 90
      512
 91
        0
  1

274
    -2
284
     1
 64
     0
275
    -2
285
     1
 65
     0
276
    -2
286
     1
 66
     0
277
    -2
287
     1
 67
     0
278
    -2
288
     1
 68
     0
279
    -2
289
     1
 69
     0
  7
Standard
140
0.18
170
     5
 62
     0
 63
     7
283
     0
 90
      512
 91
        0
  1

274
    -2
284
     1
 64
     0
275
    -2
285
     1
 65
     0
276
    -2
286
     1
 66
     0
277
    -2
287
     1
 67
     0
278
    -2
288
     1
 68
     0
279
    -2
289
     1
 69
     0
  0
VISUALSTYLE
  5
2F
102
{ACAD_REACTORS
330
29
102
}
330
29
100
AcDbVisualStyle
  2
2dWireframe
 70
     4
177
     3
291
     0
 70
    58
 90
        0
176
     1
 90
        2
176
     1
 90
        0
176
     1
 90
        0
176
     1
 40
0.6
176
     1
 40
30.0
176
     1
 62
     7
420
 16777215
176
     1
 90
        1
176
     1
 90
        4
176
     1
 62
     7
176
     1
 62
   257
176
     1
 90
        1
176
     1
 90
        1
176
     1
 40
1.0
176
     1
 90
        0
176
     1
 62
   257
176
     1
 40
1.0
176
     1
 90
        1
176
     1
 90
        6
176
     1
 90
        2
176
     1
 62
     7
176
     1
 90
        5
176
     1
 90
        0
176
     1
 90
        0
176
     1
290
     0
176
     1
 90
        1
176
     1
 40
0.0
176
     1
 90
        0
176
     1
290
     1
176
     1
290
     1
176
     1
290
     0
176
     1
290
     0
176
     1
290
     0
176
     1
290
     0
176
     1
290
     0
176
     1
290
     0
176
     1
290
     0
176
     1
 90
       50
176
     1
 40
0.0
176
     1
 40
1.0
176
     1
 90
        0
176
     1
 62
    18
420
        0
176
     1
 90
       50
176
     1
 90
        3
176
     1
 62
     5
420
      255
176
     1
290
     0
176
     1
 90
       50
176
     1
 90
       50
176
     1
 90
       50
176
     1
290
     0
176
     1
 90
       50
176
     1
 62
   256
176
     0
 40
1.0
176
     0
 90
        2
176
     1
  1
strokes_ogs.tif
176
     1
290
     0
176
     1
 40
1.0
176
     1
 40
1.0
176
     1
  0
VISUALSTYLE
  5
2E
102
{ACAD_REACTORS
330
29
102
}
330
29
100
AcDbVisualStyle
  2
Basic
 70
     7
177
     3
291
     1
 70
    58
 90
        1
176
     1
 90
        0
176
     1
 90
        1
176
     1
 90
        0
176
     1
 40
0.6
176
     1
 40
30.0
176
     1
 62
     7
420
 16777215
176
     1
 90
        0
176
     1
 90
        4
176
     1
 62
     7
176
     1
 62
   257
176
     1
 90
        1
176
     1
 90
        1
176
     1
 40
1.0
176
     1
 90
        8
176
     1
 62
     7
176
     1
 40
1.0
176
     1
 90
        1
176
     1
 90
        6
176
     1
 90
        2
176
     1
 62
     7
176
     1
 90
        5
176
     1
 90
        0
176
     1
 90
        0
176
     1
290
     0
176
     1
 90
        1
176
     1
 40
0.0
176
     1
 90
        0
176
     1
290
     0
176
     1
290
     1
176
     1
290
     1
176
     1
290
     0
176
     1
290
     0
176
     1
290
     0
176
     1
290
     0
176
     1
290
     0
176
     1
290
     0
176
     1
 90
       50
176
     1
 40
0.0
176
     1
 40
1.0
176
     1
 90
        0
176
     1
 62
    18
420
        0
176
     1
 90
       50
176
     1
 90
        3
176
     1
 62
     5
420
      255
176
     1
290
     0
176
     1
 90
       50
176
     1
 90
       50
176
     1
 90
       50
176
     1
290
     0
176
     1
 90
       50
176
     1
 62
   256
176
     0
 40
1.0
176
     0
 90
        2
176
     1
  1
strokes_ogs.tif
176
     1
290
     0
176
     1
 40
1.0
176
     1
 40
1.0
176
     1
  0
VISUALSTYLE
  5
35
102
{ACAD_REACTORS
330
29
102
}
330
29
100
AcDbVisualStyle
  2
Brighten
 70
    12
177
     3
291
     1
 70
    58
 90
        2
176
     1
 90
        2
176
     1
 90
        0
176
     1
 90
        0
176
     1
 40
0.6
176
     1
 40
30.0
176
     1
 62
     7
420
 16777215
176
     1
 90
        1
176
     1
 90
        4
176
     1
 62
     7
176
     1
 62
   257
176
     1
 90
        1
176
     1
 90
        1
176
     1
 40
1.0
176
     1
 90
        8
176
     1
 62
     7
176
     1
 40
1.0
176
     1
 90
        1
176
     1
 90
        6
176
     1
 90
        2
176
     1
 62
     7
176
     1
 90
        5
176
     1
 90
        0
176
     1
 90
        0
176
     1
290
     0
176
     1
 90
        1
176
     1
 40
50.0
176
     1
 90
        0
176
     1
290
     0
176
     1
290
     1
176
     1
290
     1
176
     1
290
     0
176
     1
290
     0
176
     1
290
     0
176
     1
290
     0
176
     1
290
     0
176
     1
290
     0
176
     1
 90
       50
176
     1
 40
0.0
176
     1
 40
1.0
176
     1
 90
        0
176
     1
 62
    18
420
        0
176
     1
 90
       50
176
     1
 90
        3
176
     1
 62
     5
420
      255
176
     1
290
     0
176
     1
 90
       50
176
     1
 90
       50
176
     1
 90
       50
176
     1
290
     0
176
     1
 90
       50
176
     1
 62
   256
176
     0
 40
1.0
176
     0
 90
        2
176
     1
  1
strokes_ogs.tif
176
     1
290
     0
176
     1
 40
1.0
176
     1
 40
1.0
176
     1
  0
VISUALSTYLE
  5
39
102
{ACAD_REACTORS
330
29
102
}
330
29
100
AcDbVisualStyle
  2
ColorChange
 70
    16
177
     3
291
     1
 70
    58
 90
        2
176
     1
 90
        2
176
     1
 90
        3
176
     1
 90
        0
176
     1
 40
0.6
176
     1
 40
30.0
176
     1
 62
     8
420
  8421504
176
     1
 90
        1
176
     1
 90
        4
176
     1
 62
     7
176
     1
 62
   257
176
     1
 90
        1
176
     1
 90
        1
176
     1
 40
1.0
176
     1
 90
        8
176
     1
 62
     8
420
  8421504
176
     1
 40
1.0
176
     1
 90
        1
176
     1
 90
        6
176
     1
 90
        2
176
     1
 62
     7
176
     1
 90
        5
176
     1
 90
        0
176
     1
 90
        0
176
     1
290
     0
176
     1
 90
        1
176
     1
 40
0.0
176
     1
 90
        0
176
     1
290
     0
176
     1
290
     1
176
     1
290
     1
176
     1
290
     0
176
     1
290
     0
176
     1
290
     0
176
     1
290
     0
176
     1
290
     0
176
     1
290
     0
176
     1
 90
       50
176
     1
 40
0.0
176
     1
 40
1.0
176
     1
 90
        0
176
     1
 62
    18
420
        0
176
     1
 90
       50
176
     1
 90
        3
176
     1
 62
     5
420
      255
176
     1
290
     0
176
     1
 90
       50
176
     1
 90
       50
176
     1
 90
       50
176
     1
290
     0
176
     1
 90
       50
176
     1
 62
   256
176
     0
 40
1.0
176
     0
 90
        2
176
     1
  1
strokes_ogs.tif
176
     1
290
     0
176
     1
 40
1.0
176
     1
 40
1.0
176
     1
  0
VISUALSTYLE
  5
32
102
{ACAD_REACTORS
330
29
102
}
330
29
100
AcDbVisualStyle
  2
Conceptual
 70
     9
177
     3
291
     0
 70
    58
 90
        3
176
     1
 90
        2
176
     1
 90
        0
176
     1
 90
        0
176
     1
 40
0.6
176
     1
 40
30.0
176
     1
 62
     7
420
 16777215
176
     1
 90
        2
176
     1
 90
        2
176
     1
 62
     7
176
     1
 62
   257
176
     1
 90
        1
176
     1
 90
        1
176
     1
 40
179.0
176
     1
 90
        8
176
     1
 62
     7
176
     1
 40
1.0
176
     1
 90
        1
176
     1
 90
        6
176
     1
 90
        2
176
     1
 62
     7
176
     1
 90
        3
176
     1
 90
        0
176
     1
 90
        0
176
     1
290
     0
176
     1
 90
        1
176
     1
 40
0.0
176
     1
 90
        0
176
     1
290
     0
176
     1
290
     1
176
     1
290
     1
176
     1
290
     0
176
     1
290
     0
176
     1
290
     0
176
     1
290
     0
176
     1
290
     0
176
     1
290
     0
176
     1
 90
       50
176
     1
 40
0.0
176
     1
 40
1.0
176
     1
 90
        0
176
     1
 62
    18
420
        0
176
     1
 90
       50
176
     1
 90
        3
176
     1
 62
     5
420
      255
176
     1
290
     0
176
     1
 90
       50
176
     1
 90
       50
176
     1
 90
       50
176
     1
290
     0
176
     1
 90
       50
176
     1
 62
   256
176
     0
 40
1.0
176
     0
 90
        2
176
     1
  1
strokes_ogs.tif
176
     1
290
     0
176
     1
 40
1.0
176
     1
 40
1.0
176
     1
  0
VISUALSTYLE
  5
34
102
{ACAD_REACTORS
330
29
102
}
330
29
100
AcDbVisualStyle
  2
Dim
 70
    11
177
     3
291
     1
 70
    58
 90
        2
176
     1
 90
        2
176
     1
 90
        0
176
     1
 90
        0
176
     1
 40
0.6
176
     1
 40
30.0
176
     1
 62
     7
420
 16777215
176
     1
 90
        1
176
     1
 90
        4
176
     1
 62
     7
176
     1
 62
   257
176
     1
 90
        1
176
     1
 90
        1
176
     1
 40
1.0
176
     1
 90
        8
176
     1
 62
     7
176
     1
 40
1.0
176
     1
 90
        1
176
     1
 90
        6
176
     1
 90
        2
176
     1
 62
     7
176
     1
 90
        5
176
     1
 90
        0
176
     1
 90
        0
176
     1
290
     0
176
     1
 90
        1
176
     1
 40
-50.0
176
     1
 90
        0
176
     1
290
     0
176
     1
290
     1
176
     1
290
     1
176
     1
290
     0
176
     1
290
     0
176
     1
290
     0
176
     1
290
     0
176
     1
290
     0
176
     1
290
     0
176
     1
 90
       50
176
     1
 40
0.0
176
     1
 40
1.0
176
     1
 90
        0
176
     1
 62
    18
420
        0
176
     1
 90
       50
176
     1
 90
        3
176
     1
 62
     5
420
      255
176
     1
290
     0
176
     1
 90
       50
176
     1
 90
       50
176
     1
 90
       50
176
     1
290
     0
176
     1
 90
       50
176
     1
 62
   256
176
     0
 40
1.0
176
     0
 90
        2
176
     1
  1
strokes_ogs.tif
176
     1
290
     0
176
     1
 40
1.0
176
     1
 40
1.0
176
     1
  0
VISUALSTYLE
  5
41
102
{ACAD_REACTORS
330
29
102
}
330
29
100
AcDbVisualStyle
  2
EdgeColorOff
 70
    22
177
     3
291
     1
 70
    58
 90
        2
176
     0
 90
        2
176
     0
 90
        0
176
     0
 90
        0
176
     0
 40
0.6
176
     0
 40
30.0
176
     0
 62
     7
420
 16777215
176
     0
 90
        1
176
     0
 90
        4
176
     0
 62
     7
176
     0
 62
   257
176
     0
 90
        1
176
     0
 90
        1
176
     0
 40
1.0
176
     0
 90
        8
176
     2
 62
     7
176
     0
 40
1.0
176
     0
 90
        1
176
     0
 90
        6
176
     0
 90
        2
176
     0
 62
     7
176
     0
 90
        5
176
     0
 90
        0
176
     0
 90
        0
176
     0
290
     0
176
     0
 90
        1
176
     0
 40
0.0
176
     0
 90
        0
176
     0
290
     0
176
     0
290
     1
176
     0
290
     1
176
     0
290
     0
176
     0
290
     0
176
     0
290
     0
176
     0
290
     0
176
     0
290
     0
176
     0
290
     0
176
     0
 90
       50
176
     0
 40
0.0
176
     0
 40
1.0
176
     0
 90
        0
176
     0
 62
    18
420
        0
176
     0
 90
       50
176
     0
 90
        3
176
     0
 62
     5
420
      255
176
     0
290
     0
176
     0
 90
       50
176
     0
 90
       50
176
     0
 90
       50
176
     0
290
     0
176
     0
 90
       50
176
     0
 62
   256
176
     0
 40
1.0
176
     0
 90
        2
176
     0
  1
strokes_ogs.tif
176
     0
290
     0
176
     0
 40
1.0
176
     0
 40
1.0
176
     0
  0
VISUALSTYLE
  5
38
102
{ACAD_REACTORS
330
29
102
}
330
29
100
AcDbVisualStyle
  2
Facepattern
 70
    15
177
     3
291
     1
 70
    58
 90
        2
176
     1
 90
        2
176
     1
 90
        0
176
     1
 90
        0
176
     1
 40
0.6
176
     1
 40
30.0
176
     1
 62
     7
420
 16777215
176
     1
 90
        1
176
     1
 90
        4
176
     1
 62
     7
176
     1
 62
   257
176
     1
 90
        1
176
     1
 90
        1
176
     1
 40
1.0
176
     1
 90
        8
176
     1
 62
     7
176
     1
 40
1.0
176
     1
 90
        1
176
     1
 90
        6
176
     1
 90
        2
176
     1
 62
     7
176
     1
 90
        5
176
     1
 90
        0
176
     1
 90
        0
176
     1
290
     0
176
     1
 90
        1
176
     1
 40
0.0
176
     1
 90
        0
176
     1
290
     0
176
     1
290
     1
176
     1
290
     1
176
     1
290
     0
176
     1
290
     0
176
     1
290
     0
176
     1
290
     0
176
     1
290
     0
176
     1
290
     0
176
     1
 90
       50
176
     1
 40
0.0
176
     1
 40
1.0
176
     1
 90
        0
176
     1
 62
    18
420
        0
176
     1
 90
       50
176
     1
 90
        3
176
     1
 62
     5
420
      255
176
     1
290
     0
176
     1
 90
       50
176
     1
 90
       50
176
     1
 90
       50
176
     1
290
     0
176
     1
 90
       50
176
     1
 62
   256
176
     0
 40
1.0
176
     0
 90
        2
176
     1
  1
strokes_ogs.tif
176
     1
290
     0
176
     1
 40
1.0
176
     1
 40
1.0
176
     1
  0
VISUALSTYLE
  5
2A
102
{ACAD_REACTORS
330
29
102
}
330
29
100
AcDbVisualStyle
  2
Flat
 70
     0
177
     3
291
     1
 70
    58
 90
        2
176
     1
 90
        1
176
     1
 90
        1
176
     1
 90
        2
176
     1
 40
0.6
176
     1
 40
30.0
176
     1
 62
     7
420
 16777215
176
     1
 90
        0
176
     1
 90
        0
176
     1
 62
     7
176
     1
 62
   257
176
     1
 90
        1
176
     1
 90
        1
176
     1
 40
1.0
176
     1
 90
        8
176
     1
 62
     7
176
     1
 40
1.0
176
     1
 90
        1
176
     1
 90
        6
176
     1
 90
        2
176
     1
 62
     7
176
     1
 90
        5
176
     1
 90
        0
176
     1
 90
        0
176
     1
290
     0
176
     1
 90
       13
176
     1
 40
0.0
176
     1
 90
        0
176
     1
290
     0
176
     1
290
     1
176
     1
290
     1
176
     1
290
     0
176
     1
290
     0
176
     1
290
     0
176
     1
290
     0
176
     1
290
     0
176
     1
290
     0
176
     1
 90
       50
176
     1
 40
0.0
176
     1
 40
1.0
176
     1
 90
        0
176
     1
 62
    18
420
        0
176
     1
 90
       50
176
     1
 90
        3
176
     1
 62
     5
420
      255
176
     1
290
     0
176
     1
 90
       50
176
     1
 90
       50
176
     1
 90
       50
176
     1
290
     0
176
     1
 90
       50
176
     1
 62
   256
176
     0
 40
1.0
176
     0
 90
        2
176
     1
  1
strokes_ogs.tif
176
     1
290
     0
176
     1
 40
1.0
176
     1
 40
1.0
176
     1
  0
VISUALSTYLE
  5
2B
102
{ACAD_REACTORS
330
29
102
}
330
29
100
AcDbVisualStyle
  2
FlatWithEdges
 70
     1
177
     3
291
     1
 70
    58
 90
        2
176
     1
 90
        1
176
     1
 90
        1
176
     1
 90
        2
176
     1
 40
0.6
176
     1
 40
30.0
176
     1
 62
     7
420
 16777215
176
     1
 90
        1
176
     1
 90
        0
176
     1
 62
     7
176
     1
 62
   257
176
     1
 90
        1
176
     1
 90
        1
176
     1
 40
1.0
176
     1
 90
        0
176
     1
 62
   257
176
     1
 40
1.0
176
     1
 90
        1
176
     1
 90
        6
176
     1
 90
        2
176
     1
 62
     7
176
     1
 90
        5
176
     1
 90
        0
176
     1
 90
        0
176
     1
290
     0
176
     1
 90
       13
176
     1
 40
0.0
176
     1
 90
        0
176
     1
290
     0
176
     1
290
     1
176
     1
290
     1
176
     1
290
     0
176
     1
290
     0
176
     1
290
     0
176
     1
290
     0
176
     1
290
     0
176
     1
290
     0
176
     1
 90
       50
176
     1
 40
0.0
176
     1
 40
1.0
176
     1
 90
        0
176
     1
 62
    18
420
        0
176
     1
 90
       50
176
     1
 90
        3
176
     1
 62
     5
420
      255
176
     1
290
     0
176
     1
 90
       50
176
     1
 90
       50
176
     1
 90
       50
176
     1
290
     0
176
     1
 90
       50
176
     1
 62
   256
176
     0
 40
1.0
176
     0
 90
        2
176
     1
  1
strokes_ogs.tif
176
     1
290
     0
176
     1
 40
1.0
176
     1
 40
1.0
176
     1
  0
VISUALSTYLE
  5
2C
102
{ACAD_REACTORS
330
29
102
}
330
29
100
AcDbVisualStyle
  2
Gouraud
 70
     2
177
     3
291
     1
 70
    58
 90
        2
176
     1
 90
        2
176
     1
 90
        1
176
     1
 90
        2
176
     1
 40
0.6
176
     1
 40
30.0
176
     1
 62
     7
420
 16777215
176
     1
 90
        0
176
     1
 90
        0
176
     1
 62
     7
176
     1
 62
   257
176
     1
 90
        1
176
     1
 90
        1
176
     1
 40
1.0
176
     1
 90
        0
176
     1
 62
     7
176
     1
 40
1.0
176
     1
 90
        1
176
     1
 90
        6
176
     1
 90
        2
176
     1
 62
     7
176
     1
 90
        5
176
     1
 90
        0
176
     1
 90
        0
176
     1
290
     0
176
     1
 90
       13
176
     1
 40
0.0
176
     1
 90
        0
176
     1
290
     0
176
     1
290
     1
176
     1
290
     1
176
     1
290
     0
176
     1
290
     0
176
     1
290
     0
176
     1
290
     0
176
     1
290
     0
176
     1
290
     0
176
     1
 90
       50
176
     1
 40
0.0
176
     1
 40
1.0
176
     1
 90
        0
176
     1
 62
    18
420
        0
176
     1
 90
       50
176
     1
 90
        3
176
     1
 62
     5
420
      255
176
     1
290
     0
176
     1
 90
       50
176
     1
 90
       50
176
     1
 90
       50
176
     1
290
     0
176
     1
 90
       50
176
     1
 62
   256
176
     0
 40
1.0
176
     0
 90
        2
176
     1
  1
strokes_ogs.tif
176
     1
290
     0
176
     1
 40
1.0
176
     1
 40
1.0
176
     1
  0
VISUALSTYLE
  5
2D
102
{ACAD_REACTORS
330
29
102
}
330
29
100
AcDbVisualStyle
  2
GouraudWithEdges
 70
     3
177
     3
291
     1
 70
    58
 90
        2
176
     1
 90
        2
176
     1
 90
        1
176
     1
 90
        2
176
     1
 40
0.6
176
     1
 40
30.0
176
     1
 62
     7
420
 16777215
176
     1
 90
        1
176
     1
 90
        0
176
     1
 62
     7
176
     1
 62
   257
176
     1
 90
        1
176
     1
 90
        1
176
     1
 40
1.0
176
     1
 90
        0
176
     1
 62
   257
176
     1
 40
1.0
176
     1
 90
        1
176
     1
 90
        6
176
     1
 90
        2
176
     1
 62
     7
176
     1
 90
        5
176
     1
 90
        0
176
     1
 90
        0
176
     1
290
     0
176
     1
 90
       13
176
     1
 40
0.0
176
     1
 90
        0
176
     1
290
     0
176
     1
290
     1
176
     1
290
     1
176
     1
290
     0
176
     1
290
     0
176
     1
290
     0
176
     1
290
     0
176
     1
290
     0
176
     1
290
     0
176
     1
 90
       50
176
     1
 40
0.0
176
     1
 40
1.0
176
     1
 90
        0
176
     1
 62
    18
420
        0
176
     1
 90
       50
176
     1
 90
        3
176
     1
 62
     5
420
      255
176
     1
290
     0
176
     1
 90
       50
176
     1
 90
       50
176
     1
 90
       50
176
     1
290
     0
176
     1
 90
       50
176
     1
 62
   256
176
     0
 40
1.0
176
     0
 90
        2
176
     1
  1
strokes_ogs.tif
176
     1
290
     0
176
     1
 40
1.0
176
     1
 40
1.0
176
     1
  0
VISUALSTYLE
  5
31
102
{ACAD_REACTORS
330
29
102
}
330
29
100
AcDbVisualStyle
  2
Hidden
 70
     6
177
     3
291
     0
 70
    58
 90
        1
176
     1
 90
        2
176
     1
 90
        2
176
     1
 90
        0
176
     1
 40
0.6
176
     1
 40
30.0
176
     1
 62
     7
420
 16777215
176
     1
 90
        2
176
     1
 90
        2
176
     1
 62
     7
176
     1
 62
   257
176
     1
 90
        2
176
     1
 90
        1
176
     1
 40
40.0
176
     1
 90
        0
176
     1
 62
   257
176
     1
 40
1.0
176
     1
 90
        1
176
     1
 90
        6
176
     1
 90
        2
176
     1
 62
     7
176
     1
 90
        3
176
     1
 90
        0
176
     1
 90
        0
176
     1
290
     0
176
     1
 90
        1
176
     1
 40
0.0
176
     1
 90
        0
176
     1
290
     0
176
     1
290
     1
176
     1
290
     1
176
     1
290
     0
176
     1
290
     0
176
     1
290
     0
176
     1
290
     0
176
     1
290
     0
176
     1
290
     0
176
     1
 90
       50
176
     1
 40
0.0
176
     1
 40
1.0
176
     1
 90
        0
176
     1
 62
    18
420
        0
176
     1
 90
       50
176
     1
 90
        3
176
     1
 62
     5
420
      255
176
     1
290
     0
176
     1
 90
       50
176
     1
 90
       50
176
     1
 90
       50
176
     1
290
     0
176
     1
 90
       50
176
     1
 62
   256
176
     0
 40
1.0
176
     0
 90
        2
176
     1
  1
strokes_ogs.tif
176
     1
290
     0
176
     1
 40
1.0
176
     1
 40
1.0
176
     1
  0
VISUALSTYLE
  5
3F
102
{ACAD_REACTORS
330
29
102
}
330
29
100
AcDbVisualStyle
  2
JitterOff
 70
    20
177
     3
291
     1
 70
    58
 90
        2
176
     0
 90
        2
176
     0
 90
        0
176
     0
 90
        0
176
     0
 40
0.6
176
     0
 40
30.0
176
     0
 62
     7
420
 16777215
176
     0
 90
        1
176
     0
 90
        4
176
     0
 62
     7
176
     0
 62
   257
176
     0
 90
        1
176
     0
 90
        1
176
     0
 40
1.0
176
     0
 90
       10
176
     2
 62
     7
176
     0
 40
1.0
176
     0
 90
        1
176
     0
 90
        6
176
     0
 90
        2
176
     0
 62
     7
176
     0
 90
        5
176
     0
 90
        0
176
     0
 90
        0
176
     0
290
     0
176
     0
 90
        1
176
     0
 40
0.0
176
     0
 90
        0
176
     0
290
     0
176
     0
290
     1
176
     0
290
     1
176
     0
290
     0
176
     0
290
     0
176
     0
290
     0
176
     0
290
     0
176
     0
290
     0
176
     0
290
     0
176
     0
 90
       50
176
     0
 40
0.0
176
     0
 40
1.0
176
     0
 90
        0
176
     0
 62
    18
420
        0
176
     0
 90
       50
176
     0
 90
        3
176
     0
 62
     5
420
      255
176
     0
290
     0
176
     0
 90
       50
176
     0
 90
       50
176
     0
 90
       50
176
     0
290
     0
176
     0
 90
       50
176
     0
 62
   256
176
     0
 40
1.0
176
     0
 90
        2
176
     0
  1
strokes_ogs.tif
176
     0
290
     0
176
     0
 40
1.0
176
     0
 40
1.0
176
     0
  0
VISUALSTYLE
  5
37
102
{ACAD_REACTORS
330
29
102
}
330
29
100
AcDbVisualStyle
  2
Linepattern
 70
    14
177
     3
291
     1
 70
    58
 90
        2
176
     1
 90
        2
176
     1
 90
        0
176
     1
 90
        0
176
     1
 40
0.6
176
     1
 40
30.0
176
     1
 62
     7
420
 16777215
176
     1
 90
        1
176
     1
 90
        4
176
     1
 62
     7
176
     1
 62
   257
176
     1
 90
        7
176
     1
 90
        7
176
     1
 40
1.0
176
     1
 90
        8
176
     1
 62
     7
176
     1
 40
1.0
176
     1
 90
        1
176
     1
 90
        6
176
     1
 90
        2
176
     1
 62
     7
176
     1
 90
        5
176
     1
 90
        0
176
     1
 90
        0
176
     1
290
     0
176
     1
 90
        1
176
     1
 40
0.0
176
     1
 90
        0
176
     1
290
     0
176
     1
290
     1
176
     1
290
     1
176
     1
290
     0
176
     1
290
     0
176
     1
290
     0
176
     1
290
     0
176
     1
290
     0
176
     1
290
     0
176
     1
 90
       50
176
     1
 40
0.0
176
     1
 40
1.0
176
     1
 90
        0
176
     1
 62
    18
420
        0
176
     1
 90
       50
176
     1
 90
        3
176
     1
 62
     5
420
      255
176
     1
290
     0
176
     1
 90
       50
176
     1
 90
       50
176
     1
 90
       50
176
     1
290
     0
176
     1
 90
       50
176
     1
 62
   256
176
     0
 40
1.0
176
     0
 90
        2
176
     1
  1
strokes_ogs.tif
176
     1
290
     0
176
     1
 40
1.0
176
     1
 40
1.0
176
     1
  0
VISUALSTYLE
  5
40
102
{ACAD_REACTORS
330
29
102
}
330
29
100
AcDbVisualStyle
  2
OverhangOff
 70
    21
177
     3
291
     1
 70
    58
 90
        2
176
     0
 90
        2
176
     0
 90
        0
176
     0
 90
        0
176
     0
 40
0.6
176
     0
 40
30.0
176
     0
 62
     7
420
 16777215
176
     0
 90
        1
176
     0
 90
        4
176
     0
 62
     7
176
     0
 62
   257
176
     0
 90
        1
176
     0
 90
        1
176
     0
 40
1.0
176
     0
 90
        9
176
     2
 62
     7
176
     0
 40
1.0
176
     0
 90
        1
176
     0
 90
        6
176
     0
 90
        2
176
     0
 62
     7
176
     0
 90
        5
176
     0
 90
        0
176
     0
 90
        0
176
     0
290
     0
176
     0
 90
        1
176
     0
 40
0.0
176
     0
 90
        0
176
     0
290
     0
176
     0
290
     1
176
     0
290
     1
176
     0
290
     0
176
     0
290
     0
176
     0
290
     0
176
     0
290
     0
176
     0
290
     0
176
     0
290
     0
176
     0
 90
       50
176
     0
 40
0.0
176
     0
 40
1.0
176
     0
 90
        0
176
     0
 62
    18
420
        0
176
     0
 90
       50
176
     0
 90
        3
176
     0
 62
     5
420
      255
176
     0
290
     0
176
     0
 90
       50
176
     0
 90
       50
176
     0
 90
       50
176
     0
290
     0
176
     0
 90
       50
176
     0
 62
   256
176
     0
 40
1.0
176
     0
 90
        2
176
     0
  1
strokes_ogs.tif
176
     0
290
     0
176
     0
 40
1.0
176
     0
 40
1.0
176
     0
  0
VISUALSTYLE
  5
33
102
{ACAD_REACTORS
330
29
102
}
330
29
100
AcDbVisualStyle
  2
Realistic
 70
     8
177
     3
291
     0
 70
    58
 90
        2
176
     1
 90
        3
176
     1
 90
        0
176
     1
 90
        2
176
     1
 40
0.6
176
     1
 40
30.0
176
     1
 62
     7
420
 16777215
176
     1
 90
        0
176
     1
 90
        0
176
     1
 62
     7
176
     1
 62
   257
176
     1
 90
        1
176
     1
 90
        1
176
     1
 40
1.0
176
     1
 90
        8
176
     1
 62
   257
176
     1
 40
1.0
176
     1
 90
        1
176
     1
 90
        6
176
     1
 90
        2
176
     1
 62
     7
176
     1
 90
        3
176
     1
 90
        0
176
     1
 90
        0
176
     1
290
     0
176
     1
 90
       13
176
     1
 40
0.0
176
     1
 90
        0
176
     1
290
     0
176
     1
290
     1
176
     1
290
     1
176
     1
290
     0
176
     1
290
     0
176
     1
290
     0
176
     1
290
     0
176
     1
290
     0
176
     1
290
     0
176
     1
 90
       50
176
     1
 40
0.0
176
     1
 40
1.0
176
     1
 90
        0
176
     1
 62
    18
420
        0
176
     1
 90
       50
176
     1
 90
        3
176
     1
 62
     5
420
      255
176
     1
290
     0
176
     1
 90
       50
176
     1
 90
       50
176
     1
 90
       50
176
     1
290
     0
176
     1
 90
       50
176
     1
 62
   256
176
     0
 40
1.0
176
     0
 90
        2
176
     1
  1
strokes_ogs.tif
176
     1
290
     0
176
     1
 40
1.0
176
     1
 40
1.0
176
     1
  0
VISUALSTYLE
  5
3E
102
{ACAD_REACTORS
330
29
102
}
330
29
100
AcDbVisualStyle
  2
Shaded
 70
    27
177
     3
291
     0
 70
    58
 90
        2
176
     1
 90
        2
176
     1
 90
        1
176
     1
 90
        2
176
     1
 40
0.6
176
     1
 40
30.0
176
     1
 62
     7
420
 16777215
176
     1
 90
        0
176
     1
 90
        4
176
     1
 62
     7
176
     1
 62
   257
176
     1
 90
        1
176
     1
 90
        1
176
     1
 40
1.0
176
     1
 90
        8
176
     1
 62
   257
176
     1
 40
1.0
176
     1
 90
        1
176
     1
 90
        6
176
     1
 90
        2
176
     1
 62
     8
420
  7895160
176
     1
 90
        3
176
     1
 90
        0
176
     1
 90
        0
176
     1
290
     0
176
     1
 90
        5
176
     1
 40
0.0
176
     1
 90
        0
176
     1
290
     0
176
     1
290
     1
176
     1
290
     1
176
     1
290
     0
176
     1
290
     0
176
     1
290
     0
176
     1
290
     0
176
     1
290
     0
176
     1
290
     0
176
     1
 90
       50
176
     1
 40
0.0
176
     1
 40
1.0
176
     1
 90
        0
176
     1
 62
    18
420
        0
176
     1
 90
       50
176
     1
 90
        3
176
     1
 62
     5
420
      255
176
     1
290
     0
176
     1
 90
       50
176
     1
 90
       50
176
     1
 90
       50
176
     1
290
     0
176
     1
 90
       50
176
     1
 62
   256
176
     0
 40
1.0
176
     0
 90
        2
176
     1
  1
strokes_ogs.tif
176
     1
290
     0
176
     1
 40
1.0
176
     1
 40
1.0
176
     1
  0
VISUALSTYLE
  5
3D
102
{ACAD_REACTORS
330
29
102
}
330
29
100
AcDbVisualStyle
  2
Shaded with edges
 70
    26
177
     3
291
     0
 70
    58
 90
        2
176
     1
 90
        2
176
     1
 90
        1
176
     1
 90
        2
176
     1
 40
0.6
176
     1
 40
30.0
176
     1
 62
     7
420
 16777215
176
     1
 90
        1
176
     1
 90
        2
176
     1
 62
     7
176
     1
 62
   257
176
     1
 90
        2
176
     1
 90
        1
176
     1
 40
1.0
176
     1
 90
        8
176
     1
 62
   257
176
     1
 40
1.0
176
     1
 90
        1
176
     1
 90
        6
176
     1
 90
        2
176
     1
 62
     7
176
     1
 90
        3
176
     1
 90
        0
176
     1
 90
        0
176
     1
290
     0
176
     1
 90
        5
176
     1
 40
0.0
176
     1
 90
        0
176
     1
290
     0
176
     1
290
     1
176
     1
290
     1
176
     1
290
     0
176
     1
290
     0
176
     1
290
     0
176
     1
290
     0
176
     1
290
     0
176
     1
290
     0
176
     1
 90
       50
176
     1
 40
0.0
176
     1
 40
1.0
176
     1
 90
        0
176
     1
 62
    18
420
        0
176
     1
 90
       50
176
     1
 90
        3
176
     1
 62
     5
420
      255
176
     1
290
     0
176
     1
 90
       50
176
     1
 90
       50
176
     1
 90
       50
176
     1
290
     0
176
     1
 90
       50
176
     1
 62
   256
176
     0
 40
1.0
176
     0
 90
        2
176
     1
  1
strokes_ogs.tif
176
     1
290
     0
176
     1
 40
1.0
176
     1
 40
1.0
176
     1
  0
VISUALSTYLE
  5
3A
102
{ACAD_REACTORS
330
29
102
}
330
29
100
AcDbVisualStyle
  2
Shades of Gray
 70
    23
177
     3
291
     0
 70
    58
 90
        2
176
     1
 90
        2
176
     1
 90
        3
176
     1
 90
        0
176
     1
 40
0.6
176
     1
 40
30.0
176
     1
 62
     7
420
 16777215
176
     1
 90
        2
176
     1
 90
        2
176
     1
 62
     7
176
     1
 62
     7
176
     1
 90
        1
176
     1
 90
        1
176
     1
 40
40.0
176
     1
 90
        8
176
     1
 62
     7
176
     1
 40
1.0
176
     1
 90
        1
176
     1
 90
        6
176
     1
 90
        2
176
     1
 62
     7
176
     1
 90
        3
176
     1
 90
        0
176
     1
 90
        0
176
     1
290
     0
176
     1
 90
        1
176
     1
 40
0.0
176
     1
 90
        0
176
     1
290
     0
176
     1
290
     1
176
     1
290
     1
176
     1
290
     0
176
     1
290
     0
176
     1
290
     0
176
     1
290
     0
176
     1
290
     0
176
     1
290
     0
176
     1
 90
       50
176
     1
 40
0.0
176
     1
 40
1.0
176
     1
 90
        0
176
     1
 62
    18
420
        0
176
     1
 90
       50
176
     1
 90
        3
176
     1
 62
     5
420
      255
176
     1
290
     0
176
     1
 90
       50
176
     1
 90
       50
176
     1
 90
       50
176
     1
290
     0
176
     1
 90
       50
176
     1
 62
   256
176
     0
 40
1.0
176
     0
 90
        2
176
     1
  1
strokes_ogs.tif
176
     1
290
     0
176
     1
 40
1.0
176
     1
 40
1.0
176
     1
  0
VISUALSTYLE
  5
3B
102
{ACAD_REACTORS
330
29
102
}
330
29
100
AcDbVisualStyle
  2
Sketchy
 70
    24
177
     3
291
     0
 70
    58
 90
        1
176
     1
 90
        2
176
     1
 90
        2
176
     1
 90
        0
176
     1
 40
0.6
176
     1
 40
30.0
176
     1
 62
     7
420
 16777215
176
     1
 90
        2
176
     1
 90
        2
176
     1
 62
     7
176
     1
 62
     7
176
     1
 90
        1
176
     1
 90
        1
176
     1
 40
40.0
176
     1
 90
       11
176
     1
 62
     7
176
     1
 40
1.0
176
     1
 90
        1
176
     1
 90
        6
176
     1
 90
        2
176
     1
 62
     7
176
     1
 90
        6
176
     1
 90
        0
176
     1
 90
        0
176
     1
290
     0
176
     1
 90
        1
176
     1
 40
0.0
176
     1
 90
        0
176
     1
290
     0
176
     1
290
     1
176
     1
290
     1
176
     1
290
     0
176
     1
290
     0
176
     1
290
     0
176
     1
290
     0
176
     1
290
     0
176
     1
290
     0
176
     1
 90
       50
176
     1
 40
0.0
176
     1
 40
1.0
176
     1
 90
        0
176
     1
 62
    18
420
        0
176
     1
 90
       50
176
     1
 90
        3
176
     1
 62
     5
420
      255
176
     1
290
     0
176
     1
 90
       50
176
     1
 90
       50
176
     1
 90
       50
176
     1
290
     0
176
     1
 90
       50
176
     1
 62
   256
176
     0
 40
1.0
176
     0
 90
        2
176
     1
  1
strokes_ogs.tif
176
     1
290
     0
176
     1
 40
1.0
176
     1
 40
1.0
176
     1
  0
VISUALSTYLE
  5
36
102
{ACAD_REACTORS
330
29
102
}
330
29
100
AcDbVisualStyle
  2
Thicken
 70
    13
177
     3
291
     1
 70
    58
 90
        2
176
     1
 90
        2
176
     1
 90
        0
176
     1
 90
        0
176
     1
 40
0.6
176
     1
 40
30.0
176
     1
 62
     7
420
 16777215
176
     1
 90
        1
176
     1
 90
        4
176
     1
 62
     7
176
     1
 62
   257
176
     1
 90
        1
176
     1
 90
        1
176
     1
 40
1.0
176
     1
 90
       12
176
     1
 62
     7
176
     1
 40
1.0
176
     1
 90
        1
176
     1
 90
        6
176
     1
 90
        2
176
     1
 62
     7
176
     1
 90
        5
176
     1
 90
        0
176
     1
 90
        0
176
     1
290
     0
176
     1
 90
        1
176
     1
 40
0.0
176
     1
 90
        0
176
     1
290
     0
176
     1
290
     1
176
     1
290
     1
176
     1
290
     0
176
     1
290
     0
176
     1
290
     0
176
     1
290
     0
176
     1
290
     0
176
     1
290
     0
176
     1
 90
       50
176
     1
 40
0.0
176
     1
 40
1.0
176
     1
 90
        0
176
     1
 62
    18
420
        0
176
     1
 90
       50
176
     1
 90
        3
176
     1
 62
     5
420
      255
176
     1
290
     0
176
     1
 90
       50
176
     1
 90
       50
176
     1
 90
       50
176
     1
290
     0
176
     1
 90
       50
176
     1
 62
   256
176
     0
 40
1.0
176
     0
 90
        2
176
     1
  1
strokes_ogs.tif
176
     1
290
     0
176
     1
 40
1.0
176
     1
 40
1.0
176
     1
  0
VISUALSTYLE
  5
30
102
{ACAD_REACTORS
330
29
102
}
330
29
100
AcDbVisualStyle
  2
Wireframe
 70
     5
177
     3
291
     0
 70
    58
 90
        0
176
     1
 90
        2
176
     1
 90
        0
176
     1
 90
        0
176
     1
 40
0.6
176
     1
 40
30.0
176
     1
 62
     7
420
 16777215
176
     1
 90
        1
176
     1
 90
        4
176
     1
 62
     7
176
     1
 62
   257
176
     1
 90
        1
176
     1
 90
        1
176
     1
 40
1.0
176
     1
 90
        0
176
     1
 62
   257
176
     1
 40
1.0
176
     1
 90
        1
176
     1
 90
        6
176
     1
 90
        2
176
     1
 62
     7
176
     1
 90
        3
176
     1
 90
        0
176
     1
 90
        0
176
     1
290
     0
176
     1
 90
        1
176
     1
 40
0.0
176
     1
 90
        0
176
     1
290
     0
176
     1
290
     1
176
     1
290
     1
176
     1
290
     0
176
     1
290
     0
176
     1
290
     0
176
     1
290
     0
176
     1
290
     0
176
     1
290
     0
176
     1
 90
       50
176
     1
 40
0.0
176
     1
 40
1.0
176
     1
 90
        0
176
     1
 62
    18
420
        0
176
     1
 90
       50
176
     1
 90
        3
176
     1
 62
     5
420
      255
176
     1
290
     0
176
     1
 90
       50
176
     1
 90
       50
176
     1
 90
       50
176
     1
290
     0
176
     1
 90
       50
176
     1
 62
   256
176
     0
 40
1.0
176
     0
 90
        2
176
     1
  1
strokes_ogs.tif
176
     1
290
     0
176
     1
 40
1.0
176
     1
 40
1.0
176
     1
  0
VISUALSTYLE
  5
3C
102
{ACAD_REACTORS
330
29
102
}
330
29
100
AcDbVisualStyle
  2
X-Ray
 70
    25
177
     3
291
     0
 70
    58
 90
        2
176
     1
 90
        2
176
     1
 90
        1
176
     1
 90
        1
176
     1
 40
0.5
176
     1
 40
30.0
176
     1
 62
     7
420
 16777215
176
     1
 90
        1
176
     1
 90
        0
176
     1
 62
     7
176
     1
 62
   257
176
     1
 90
        1
176
     1
 90
        1
176
     1
 40
1.0
176
     1
 90
        8
176
     1
 62
     7
176
     1
 40
1.0
176
     1
 90
        1
176
     1
 90
        6
176
     1
 90
        2
176
     1
 62
     7
176
     1
 90
        3
176
     1
 90
        0
176
     1
 90
        0
176
     1
290
     0
176
     1
 90
       13
176
     1
 40
0.0
176
     1
 90
        0
176
     1
290
     0
176
     1
290
     1
176
     1
290
     1
176
     1
290
     0
176
     1
290
     0
176
     1
290
     0
176
     1
290
     0
176
     1
290
     0
176
     1
290
     0
176
     1
 90
       50
176
     1
 40
0.0
176
     1
 40
1.0
176
     1
 90
        0
176
     1
 62
    18
420
        0
176
     1
 90
       50
176
     1
 90
        3
176
     1
 62
     5
420
      255
176
     1
290
     0
176
     1
 90
       50
176
     1
 90
       50
176
     1
 90
       50
176
     1
290
     0
176
     1
 90
       50
176
     1
 62
   256
176
     0
 40
1.0
176
     0
 90
        2
176
     1
  1
strokes_ogs.tif
176
     1
290
     0
176
     1
 40
1.0
176
     1
 40
1.0
176
     1
  0
DICTIONARYVAR
  5
2DE
102
{ACAD_REACTORS
330
2D9
102
}
330
2D9
100
DictionaryVariables
280
     0
  1
1:1
  0
DICTIONARYVAR
  5
2DB
102
{ACAD_REACTORS
330
2D9
102
}
330
2D9
100
DictionaryVariables
280
     0
  1
STANDARD
  0
DICTIONARYVAR
  5
2DA
102
{ACAD_REACTORS
330
2D9
102
}
330
2D9
100
DictionaryVariables
280
     0
  1
STANDARD
  0
DICTIONARYVAR
  5
2DC
102
{ACAD_REACTORS
330
2D9
102
}
330
2D9
100
DictionaryVariables
280
     0
  1
Imperial24
  0
DICTIONARYVAR
  5
2DD
102
{ACAD_REACTORS
330
2D9
102
}
330
2D9
100
DictionaryVariables
280
     0
  1
Imperial24
  0
DICTIONARY
  5
1A
330
19
100
AcDbDictionary
280
     1
281
     1
  3
BUMPTILE
360
1C
  3
DIFFUSETILE
360
1B
  3
OPACITYTILE
360
1F
  3
REFLECTIONTILE
360
1E
  3
REFRACTIONTILE
360
20
  3
SPECULARTILE
360
1D
  0
DICTIONARY
  5
12
330
11
100
AcDbDictionary
280
     1
281
     1
  3
BUMPTILE
360
14
  3
DIFFUSETILE
360
13
  3
OPACITYTILE
360
17
  3
REFLECTIONTILE
360
16
  3
REFRACTIONTILE
360
18
  3
SPECULARTILE
360
15
  0
DICTIONARY
  5
22
330
21
100
AcDbDictionary
280
     1
281
     1
  3
BUMPTILE
360
24
  3
DIFFUSETILE
360
23
  3
OPACITYTILE
360
27
  3
REFLECTIONTILE
360
26
  3
REFRACTIONTILE
360
28
  3
SPECULARTILE
360
25
  0
DICTIONARY
  5
2DF
330
65
100
AcDbDictionary
280
     1
281
     1
  3
ACAD_ROUNDTRIP_2008_TABLESTYLE_CELLSTYLEMAP
360
2E0
  0
XRECORD
  5
1C
102
{ACAD_REACTORS
330
1A
102
}
330
1A
100
AcDbXrecord
280
     1
270
     1
271
     1
  0
XRECORD
  5
1B
102
{ACAD_REACTORS
330
1A
102
}
330
1A
100
AcDbXrecord
280
     1
270
     1
271
     1
  0
XRECORD
  5
1F
102
{ACAD_REACTORS
330
1A
102
}
330
1A
100
AcDbXrecord
280
     1
270
     1
271
     1
  0
XRECORD
  5
1E
102
{ACAD_REACTORS
330
1A
102
}
330
1A
100
AcDbXrecord
280
     1
270
     1
271
     1
  0
XRECORD
  5
20
102
{ACAD_REACTORS
330
1A
102
}
330
1A
100
AcDbXrecord
280
     1
270
     1
271
     1
  0
XRECORD
  5
1D
102
{ACAD_REACTORS
330
1A
102
}
330
1A
100
AcDbXrecord
280
     1
270
     1
271
     1
  0
XRECORD
  5
14
102
{ACAD_REACTORS
330
12
102
}
330
12
100
AcDbXrecord
280
     1
270
     1
271
     1
  0
XRECORD
  5
13
102
{ACAD_REACTORS
330
12
102
}
330
12
100
AcDbXrecord
280
     1
270
     1
271
     1
  0
XRECORD
  5
17
102
{ACAD_REACTORS
330
12
102
}
330
12
100
AcDbXrecord
280
     1
270
     1
271
     1
  0
XRECORD
  5
16
102
{ACAD_REACTORS
330
12
102
}
330
12
100
AcDbXrecord
280
     1
270
     1
271
     1
  0
XRECORD
  5
18
102
{ACAD_REACTORS
330
12
102
}
330
12
100
AcDbXrecord
280
     1
270
     1
271
     1
  0
XRECORD
  5
15
102
{ACAD_REACTORS
330
12
102
}
330
12
100
AcDbXrecord
280
     1
270
     1
271
     1
  0
XRECORD
  5
24
102
{ACAD_REACTORS
330
22
102
}
330
22
100
AcDbXrecord
280
     1
270
     1
271
     1
  0
XRECORD
  5
23
102
{ACAD_REACTORS
330
22
102
}
330
22
100
AcDbXrecord
280
     1
270
     1
271
     1
  0
XRECORD
  5
27
102
{ACAD_REACTORS
330
22
102
}
330
22
100
AcDbXrecord
280
     1
270
     1
271
     1
  0
XRECORD
  5
26
102
{ACAD_REACTORS
330
22
102
}
330
22
100
AcDbXrecord
280
     1
270
     1
271
     1
  0
XRECORD
  5
28
102
{ACAD_REACTORS
330
22
102
}
330
22
100
AcDbXrecord
280
     1
270
     1
271
     1
  0
XRECORD
  5
25
102
{ACAD_REACTORS
330
22
102
}
330
22
100
AcDbXrecord
280
     1
270
     1
271
     1
  0
CELLSTYLEMAP
  5
2E0
102
{ACAD_REACTORS
330
2DF
102
}
330
2DF
100
AcDbCellStyleMap
 90
        3
300
CELLSTYLE
  1
TABLEFORMAT_BEGIN
 90
        5
170
     1
 91
        0
 92
    32768
 62
   257
 93
        1
300
CONTENTFORMAT
  1
CONTENTFORMAT_BEGIN
 90
        0
 91
        0
 92
      512
 93
        0
300

 40
0.0
140
1.0
 94
        5
 62
     0
340
55
144
0.25
309
CONTENTFORMAT_END
171
     0
 94
        0
309
TABLEFORMAT_END
  1
CELLSTYLE_BEGIN
 90
        1
 91
        1
300
_TITLE
309
CELLSTYLE_END
300
CELLSTYLE
  1
TABLEFORMAT_BEGIN
 90
        5
170
     1
 91
        0
 92
        0
 62
   257
 93
        1
300
CONTENTFORMAT
  1
CONTENTFORMAT_BEGIN
 90
        0
 91
        0
 92
      512
 93
        0
300

 40
0.0
140
1.0
 94
        5
 62
     0
340
55
144
0.18
309
CONTENTFORMAT_END
171
     0
 94
        0
309
TABLEFORMAT_END
  1
CELLSTYLE_BEGIN
 90
        2
 91
        1
300
_HEADER
309
CELLSTYLE_END
300
CELLSTYLE
  1
TABLEFORMAT_BEGIN
 90
        5
170
     1
 91
        0
 92
        0
 62
   257
 93
        1
300
CONTENTFORMAT
  1
CONTENTFORMAT_BEGIN
 90
        0
 91
        0
 92
      512
 93
        0
300

 40
0.0
140
1.0
 94
        2
 62
     0
340
55
144
0.18
309
CONTENTFORMAT_END
171
     0
 94
        0
309
TABLEFORMAT_END
  1
CELLSTYLE_BEGIN
 90
        3
 91
        2
300
_DATA
309
CELLSTYLE_END
  0
ENDSEC
  0
EOF
