  0
SECTION
  2
HEADER
  9
$ACADVER
  1
AC1032
  9
$ACADMAINTVER
 90
      228
  9
$DWGCODEPAGE
  3
ANSI_932
  9
$REQUIREDVERSIONS
160
                 0
  9
$INSBASE
 10
0.0
 20
0.0
 30
0.0
  9
$EXTMIN
 10
1.000000000000000E+20
 20
1.000000000000000E+20
 30
1.000000000000000E+20
  9
$EXTMAX
 10
-1.000000000000000E+20
 20
-1.000000000000000E+20
 30
-1.000000000000000E+20
  9
$LIMMIN
 10
0.0
 20
0.0
  9
$LIMMAX
 10
12.0
 20
9.0
  9
$ORTHOMODE
 70
     0
  9
$REGENMODE
 70
     1
  9
$FILLMODE
 70
     1
  9
$QTEXTMODE
 70
     0
  9
$MIRRTEXT
 70
     0
  9
$LTSCALE
 40
1.0
  9
$ATTMODE
 70
     1
  9
$TEXTSIZE
 40
0.2
  9
$TRACEWID
 40
0.05
  9
$TEXTSTYLE
  7
Standard
  9
$CLAYER
  8
0
  9
$CELTYPE
  6
ByLayer
  9
$CECOLOR
 62
   256
  9
$CELTSCALE
 40
1.0
  9
$DISPSILH
 70
     0
  9
$DIMSCALE
 40
1.0
  9
$DIMASZ
 40
0.18
  9
$DIMEXO
 40
0.0625
  9
$DIMDLI
 40
0.38
  9
$DIMRND
 40
0.0
  9
$DIMDLE
 40
0.0
  9
$DIMEXE
 40
0.18
  9
$DIMTP
 40
0.0
  9
$DIMTM
 40
0.0
  9
$DIMTXT
 40
0.18
  9
$DIMCEN
 40
0.09
  9
$DIMTSZ
 40
0.0
  9
$DIMTOL
 70
     0
  9
$DIMLIM
 70
     0
  9
$DIMTIH
 70
     1
  9
$DIMTOH
 70
     1
  9
$DIMSE1
 70
     0
  9
$DIMSE2
 70
     0
  9
$DIMTAD
 70
     0
  9
$DIMZIN
 70
     0
  9
$DIMBLK
  1

  9
$DIMASO
 70
     1
  9
$DIMSHO
 70
     1
  9
$DIMPOST
  1

  9
$DIMAPOST
  1

  9
$DIMALT
 70
     0
  9
$DIMALTD
 70
     2
  9
$DIMALTF
 40
25.4
  9
$DIMLFAC
 40
1.0
  9
$DIMTOFL
 70
     0
  9
$DIMTVP
 40
0.0
  9
$DIMTIX
 70
     0
  9
$DIMSOXD
 70
     0
  9
$DIMSAH
 70
     0
  9
$DIMBLK1
  1

  9
$DIMBLK2
  1

  9
$DIMSTYLE
  2
Standard
  9
$DIMCLRD
 70
     0
  9
$DIMCLRE
 70
     0
  9
$DIMCLRT
 70
     0
  9
$DIMTFAC
 40
1.0
  9
$DIMGAP
 40
0.09
  9
$DIMJUST
 70
     0
  9
$DIMSD1
 70
     0
  9
$DIMSD2
 70
     0
  9
$DIMTOLJ
 70
     1
  9
$DIMTZIN
 70
     0
  9
$DIMALTZ
 70
     0
  9
$DIMALTTZ
 70
     0
  9
$DIMUPT
 70
     0
  9
$DIMDEC
 70
     4
  9
$DIMTDEC
 70
     4
  9
$DIMALTU
 70
     2
  9
$DIMALTTD
 70
     2
  9
$DIMTXSTY
  7
Standard
  9
$DIMAUNIT
 70
     0
  9
$DIMADEC
 70
     0
  9
$DIMALTRND
 40
0.0
  9
$DIMAZIN
 70
     0
  9
$DIMDSEP
 70
    46
  9
$DIMATFIT
 70
     3
  9
$DIMFRAC
 70
     0
  9
$DIMLDRBLK
  1

  9
$DIMLUNIT
 70
     2
  9
$DIMLWD
 70
    -2
  9
$DIMLWE
 70
    -2
  9
$DIMTMOVE
 70
     0
  9
$DIMFXL
 40
1.0
  9
$DIMFXLON
 70
     0
  9
$DIMJOGANG
 40
0.7853981633974483
  9
$DIMTFILL
 70
     0
  9
$DIMTFILLCLR
 70
     0
  9
$DIMARCSYM
 70
     0
  9
$DIMLTYPE
  6

  9
$DIMLTEX1
  6

  9
$DIMLTEX2
  6

  9
$DIMTXTDIRECTION
 70
     0
  9
$LUNITS
 70
     2
  9
$LUPREC
 70
     4
  9
$SKETCHINC
 40
0.1
  9
$FILLETRAD
 40
0.0
  9
$AUNITS
 70
     0
  9
$AUPREC
 70
     0
  9
$MENU
  1
.
  9
$ELEVATION
 40
0.0
  9
$PELEVATION
 40
0.0
  9
$THICKNESS
 40
0.0
  9
$LIMCHECK
 70
     0
  9
$CHAMFERA
 40
0.0
  9
$CHAMFERB
 40
0.0
  9
$CHAMFERC
 40
0.0
  9
$CHAMFERD
 40
0.0
  9
$SKPOLY
 70
     0
  9
$TDCREATE
 40
2460131.738877315
  9
$TDUCREATE
 40
2460131.363877315
  9
$TDUPDATE
 40
2460131.738877315
  9
$TDUUPDATE
 40
2460131.363877315
  9
$TDINDWG
 40
0.0000000000
  9
$TDUSRTIMER
 40
0.0000000000
  9
$USRTIMER
 70
     1
  9
$ANGBASE
 50
0.0
  9
$ANGDIR
 70
     0
  9
$PDMODE
 70
     0
  9
$PDSIZE
 40
0.0
  9
$PLINEWID
 40
0.0
  9
$SPLFRAME
 70
     0
  9
$SPLINETYPE
 70
     6
  9
$SPLINESEGS
 70
     8
  9
$HANDSEED
  5
EC
  9
$SURFTAB1
 70
     6
  9
$SURFTAB2
 70
     6
  9
$SURFTYPE
 70
     6
  9
$SURFU
 70
     6
  9
$SURFV
 70
     6
  9
$UCSBASE
  2

  9
$UCSNAME
  2

  9
$UCSORG
 10
0.0
 20
0.0
 30
0.0
  9
$UCSXDIR
 10
1.0
 20
0.0
 30
0.0
  9
$UCSYDIR
 10
0.0
 20
1.0
 30
0.0
  9
$UCSORTHOREF
  2

  9
$UCSORTHOVIEW
 70
     0
  9
$UCSORGTOP
 10
0.0
 20
0.0
 30
0.0
  9
$UCSORGBOTTOM
 10
0.0
 20
0.0
 30
0.0
  9
$UCSORGLEFT
 10
0.0
 20
0.0
 30
0.0
  9
$UCSORGRIGHT
 10
0.0
 20
0.0
 30
0.0
  9
$UCSORGFRONT
 10
0.0
 20
0.0
 30
0.0
  9
$UCSORGBACK
 10
0.0
 20
0.0
 30
0.0
  9
$PUCSBASE
  2

  9
$PUCSNAME
  2

  9
$PUCSORG
 10
0.0
 20
0.0
 30
0.0
  9
$PUCSXDIR
 10
1.0
 20
0.0
 30
0.0
  9
$PUCSYDIR
 10
0.0
 20
1.0
 30
0.0
  9
$PUCSORTHOREF
  2

  9
$PUCSORTHOVIEW
 70
     0
  9
$PUCSORGTOP
 10
0.0
 20
0.0
 30
0.0
  9
$PUCSORGBOTTOM
 10
0.0
 20
0.0
 30
0.0
  9
$PUCSORGLEFT
 10
0.0
 20
0.0
 30
0.0
  9
$PUCSORGRIGHT
 10
0.0
 20
0.0
 30
0.0
  9
$PUCSORGFRONT
 10
0.0
 20
0.0
 30
0.0
  9
$PUCSORGBACK
 10
0.0
 20
0.0
 30
0.0
  9
$USERI1
 70
     0
  9
$USERI2
 70
     0
  9
$USERI3
 70
     0
  9
$USERI4
 70
     0
  9
$USERI5
 70
     0
  9
$USERR1
 40
0.0
  9
$USERR2
 40
0.0
  9
$USERR3
 40
0.0
  9
$USERR4
 40
0.0
  9
$USERR5
 40
0.0
  9
$WORLDVIEW
 70
     1
  9
$SHADEDGE
 70
     3
  9
$SHADEDIF
 70
    70
  9
$TILEMODE
 70
     1
  9
$MAXACTVP
 70
    64
  9
$PINSBASE
 10
0.0
 20
0.0
 30
0.0
  9
$PLIMCHECK
 70
     0
  9
$PEXTMIN
 10
1.000000000000000E+20
 20
1.000000000000000E+20
 30
1.000000000000000E+20
  9
$PEXTMAX
 10
-1.000000000000000E+20
 20
-1.000000000000000E+20
 30
-1.000000000000000E+20
  9
$PLIMMIN
 10
0.0
 20
0.0
  9
$PLIMMAX
 10
12.0
 20
9.0
  9
$UNITMODE
 70
     0
  9
$VISRETAIN
 70
     1
  9
$PLINEGEN
 70
     0
  9
$PSLTSCALE
 70
     1
  9
$TREEDEPTH
 70
  3020
  9
$CMLSTYLE
  2
Standard
  9
$CMLJUST
 70
     0
  9
$CMLSCALE
 40
1.0
  9
$PROXYGRAPHICS
 70
     1
  9
$MEASUREMENT
 70
     0
  9
$CELWEIGHT
370
    -1
  9
$ENDCAPS
280
     0
  9
$JOINSTYLE
280
     0
  9
$LWDISPLAY
290
     1
  9
$INSUNITS
 70
     4
  9
$HYPERLINKBASE
  1

  9
$STYLESHEET
  1

  9
$XEDIT
290
     1
  9
$CEPSNTYPE
380
     0
  9
$PSTYLEMODE
290
     1
  9
$FINGERPRINTGUID
  2
{1AEC7350-ED77-E34B-934B-6B86BD8ED22A}
  9
$VERSIONGUID
  2
{A802B5F8-C65B-7548-AF09-306B25004D73}
  9
$EXTNAMES
290
     1
  9
$PSVPSCALE
 40
0.0
  9
$OLESTARTUP
290
     0
  9
$SORTENTS
280
   127
  9
$INDEXCTL
280
     0
  9
$HIDETEXT
280
     1
  9
$XCLIPFRAME
280
     2
  9
$HALOGAP
280
     0
  9
$OBSCOLOR
 70
   257
  9
$OBSLTYPE
280
     0
  9
$INTERSECTIONDISPLAY
280
     0
  9
$INTERSECTIONCOLOR
 70
   257
  9
$DIMASSOC
280
     2
  9
$PROJECTNAME
  1

  9
$CAMERADISPLAY
290
     0
  9
$LENSLENGTH
 40
50.0
  9
$CAMERAHEIGHT
 40
0.0
  9
$STEPSPERSEC
 40
2.0
  9
$STEPSIZE
 40
6.0
  9
$3DDWFPREC
 40
2.0
  9
$PSOLWIDTH
 40
0.25
  9
$PSOLHEIGHT
 40
4.0
  9
$LOFTANG1
 40
1.570796326794896
  9
$LOFTANG2
 40
1.570796326794896
  9
$LOFTMAG1
 40
0.0
  9
$LOFTMAG2
 40
0.0
  9
$LOFTPARAM
 70
     7
  9
$LOFTNORMALS
280
     1
  9
$LATITUDE
 40
37.795
  9
$LONGITUDE
 40
-122.394
  9
$NORTHDIRECTION
 40
0.0
  9
$TIMEZONE
 70
 -8000
  9
$LIGHTGLYPHDISPLAY
280
     1
  9
$TILEMODELIGHTSYNCH
280
     1
  9
$CMATERIAL
347
11
  9
$SOLIDHIST
280
     0
  9
$SHOWHIST
280
     1
  9
$DWFFRAME
280
     2
  9
$DGNFRAME
280
     0
  9
$REALWORLDSCALE
290
     1
  9
$INTERFERECOLOR
 62
     1
  9
$INTERFEREOBJVS
345
33
  9
$INTERFEREVPVS
346
30
  9
$CSHADOW
280
     0
  9
$SHADOWPLANELOCATION
 40
0.0
  0
ENDSEC
  0
SECTION
  2
CLASSES
  0
CLASS
  1
ACDBDICTIONARYWDFLT
  2
AcDbDictionaryWithDefault
  3
ObjectDBX Classes
 90
        0
 91
        1
280
     0
281
     0
  0
CLASS
  1
MATERIAL
  2
AcDbMaterial
  3
ObjectDBX Classes
 90
     1153
 91
        3
280
     0
281
     0
  0
CLASS
  1
VISUALSTYLE
  2
AcDbVisualStyle
  3
ObjectDBX Classes
 90
     4095
 91
       24
280
     0
281
     0
  0
CLASS
  1
SCALE
  2
AcDbScale
  3
ObjectDBX Classes
 90
     1153
 91
       17
280
     0
281
     0
  0
CLASS
  1
TABLESTYLE
  2
AcDbTableStyle
  3
ObjectDBX Classes
 90
     4095
 91
        1
280
     0
281
     0
  0
CLASS
  1
MLEADERSTYLE
  2
AcDbMLeaderStyle
  3
ACDB_MLEADERSTYLE_CLASS
 90
     4095
 91
        1
280
     0
281
     0
  0
CLASS
  1
ACDBSECTIONVIEWSTYLE
  2
AcDbSectionViewStyle
  3
ObjectDBX Classes
 90
     1025
 91
        1
280
     0
281
     0
  0
CLASS
  1
ACDBDETAILVIEWSTYLE
  2
AcDbDetailViewStyle
  3
ObjectDBX Classes
 90
     1025
 91
        1
280
     0
281
     0
  0
CLASS
  1
DICTIONARYVAR
  2
AcDbDictionaryVar
  3
ObjectDBX Classes
 90
        0
 91
        5
280
     0
281
     0
  0
CLASS
  1
CELLSTYLEMAP
  2
AcDbCellStyleMap
  3
ObjectDBX Classes
 90
     1152
 91
        1
280
     0
281
     0
  0
ENDSEC
  0
SECTION
  2
TABLES
  0
TABLE
  2
VPORT
  5
8
330
0
100
AcDbSymbolTable
 70
     1
  0
VPORT
  5
57
330
8
100
AcDbSymbolTableRecord
100
AcDbViewportTableRecord
  2
*Active
 70
     0
 10
0.0
 20
0.0
 11
1.0
 21
1.0
 12
0.0
 22
0.0
 13
0.0
 23
0.0
 14
1.0
 24
1.0
 15
0.0
 25
0.0
 16
0.0
 26
0.0
 36
1.0
 17
338.666666582
 27
190.4999999523751
 37
0.0
 40
388.8749999028449
 41
1.776612021857632
 42
50.0
 43
0.0
 44
0.0
 50
0.0
 51
0.0
 71
     0
 72
   100
 73
     1
 74
     1
 75
     0
 76
     0
 77
     0
 78
     0
281
     0
 65
     1
110
0.0
120
0.0
130
0.0
111
1.0
121
0.0
131
0.0
112
0.0
122
1.0
132
0.0
 79
     0
146
0.0
 60
     3
 61
     5
292
     1
282
     1
141
0.0
142
0.0
 63
   250
421
  3355443
  0
ENDTAB
  0
TABLE
  2
LTYPE
  5
5
330
0
100
AcDbSymbolTable
 70
     1
  0
LTYPE
  5
5B
330
5
100
AcDbSymbolTableRecord
100
AcDbLinetypeTableRecord
  2
ByBlock
 70
     0
  3

 72
    65
 73
     0
 40
0.0
  0
LTYPE
  5
5C
330
5
100
AcDbSymbolTableRecord
100
AcDbLinetypeTableRecord
  2
ByLayer
 70
     0
  3

 72
    65
 73
     0
 40
0.0
  0
LTYPE
  5
5D
330
5
100
AcDbSymbolTableRecord
100
AcDbLinetypeTableRecord
  2
Continuous
 70
     0
  3
Solid line
 72
    65
 73
     0
 40
0.0
  0
ENDTAB
  0
TABLE
  2
LAYER
  5
2
330
0
100
AcDbSymbolTable
 70
     4
  0
LAYER
  5
54
330
2
100
AcDbSymbolTableRecord
100
AcDbLayerTableRecord
  2
0
 70
     0
 62
     7
  6
Continuous
370
    -3
390
F
347
21
348
0
  0
LAYER
  5
78
330
2
100
AcDbSymbolTableRecord
100
AcDbLayerTableRecord
  2
_HONTAI
 70
     0
 62
     7
  6
Continuous
370
     0
390
F
347
21
348
0
  0
LAYER
  5
C8
330
2
100
AcDbSymbolTableRecord
100
AcDbLayerTableRecord
  2
FLAME
 70
     0
 62
     7
  6
Continuous
370
     0
390
F
347
21
348
0
  0
LAYER
  5
D0
330
2
100
AcDbSymbolTableRecord
100
AcDbLayerTableRecord
  2
SPEC
 70
     0
 62
     7
  6
Continuous
370
     0
390
F
347
21
348
0
  0
ENDTAB
  0
TABLE
  2
STYLE
  5
3
330
0
100
AcDbSymbolTable
 70
     2
  0
STYLE
  5
55
330
3
100
AcDbSymbolTableRecord
100
AcDbTextStyleTableRecord
  2
Standard
 70
     0
 40
0.0
 41
1.0
 50
0.0
 71
     0
 42
0.2
  3
txt
  4

  0
STYLE
  5
5A
330
3
100
AcDbSymbolTableRecord
100
AcDbTextStyleTableRecord
  2
Annotative
 70
     0
 40
0.0
 41
1.0
 50
0.0
 71
     0
 42
0.2
  3
txt
  4

1001
AcadAnnotative
1000
AnnotativeData
1002
{
1070
     1
1070
     1
1002
}
  0
ENDTAB
  0
TABLE
  2
VIEW
  5
6
330
0
100
AcDbSymbolTable
 70
     0
  0
ENDTAB
  0
TABLE
  2
UCS
  5
7
330
0
100
AcDbSymbolTable
 70
     0
  0
ENDTAB
  0
TABLE
  2
APPID
  5
9
330
0
100
AcDbSymbolTable
 70
     2
  0
APPID
  5
56
330
9
100
AcDbSymbolTableRecord
100
AcDbRegAppTableRecord
  2
ACAD
 70
     0
  0
APPID
  5
5E
330
9
100
AcDbSymbolTableRecord
100
AcDbRegAppTableRecord
  2
AcadAnnotative
 70
     0
  0
ENDTAB
  0
TABLE
  2
DIMSTYLE
  5
A
330
0
100
AcDbSymbolTable
 70
     2
100
AcDbDimStyleTable
 71
     0
  0
DIMSTYLE
105
58
330
A
100
AcDbSymbolTableRecord
100
AcDbDimStyleTableRecord
  2
Standard
 70
     0
340
55
  0
DIMSTYLE
105
59
330
A
100
AcDbSymbolTableRecord
100
AcDbDimStyleTableRecord
  2
Annotative
 70
     0
340
55
1001
AcadAnnotative
1000
AnnotativeData
1002
{
1070
     1
1070
     1
1002
}
  0
ENDTAB
  0
TABLE
  2
BLOCK_RECORD
  5
1
330
0
100
AcDbSymbolTable
 70
     3
  0
BLOCK_RECORD
  5
70
330
1
100
AcDbSymbolTableRecord
100
AcDbBlockTableRecord
  2
*Model_Space
340
73
 70
     0
280
     1
281
     0
  0
BLOCK_RECORD
  5
6C
330
1
100
AcDbSymbolTableRecord
100
AcDbBlockTableRecord
  2
*Paper_Space
340
6F
 70
     0
280
     1
281
     0
  0
BLOCK_RECORD
  5
74
330
1
100
AcDbSymbolTableRecord
100
AcDbBlockTableRecord
  2
*Paper_Space0
340
77
 70
     0
280
     1
281
     0
  0
BLOCK_RECORD
  5
D1
330
1
100
AcDbSymbolTableRecord
100
AcDbBlockTableRecord
  2
Block_0
340
0
102
{BLKREFS
331
D2
102
}
 70
     0
280
     1
281
     0
  0
BLOCK_RECORD
  5
D8
330
1
100
AcDbSymbolTableRecord
100
AcDbBlockTableRecord
  2
Block_1
340
0
102
{BLKREFS
331
D9
102
}
 70
     0
280
     1
281
     0
  0
ENDTAB
  0
ENDSEC
  0
SECTION
  2
BLOCKS
  0
BLOCK
  5
71
330
70
100
AcDbEntity
  8
0
100
AcDbBlockBegin
  2
*Model_Space
 70
     0
 10
0.0
 20
0.0
 30
0.0
  3
*Model_Space
  1

  0
ENDBLK
  5
72
330
70
100
AcDbEntity
  8
0
100
AcDbBlockEnd
  0
BLOCK
  5
6D
330
6C
100
AcDbEntity
 67
     1
  8
0
100
AcDbBlockBegin
  2
*Paper_Space
 70
     0
 10
0.0
 20
0.0
 30
0.0
  3
*Paper_Space
  1

  0
ENDBLK
  5
6E
330
6C
100
AcDbEntity
 67
     1
  8
0
100
AcDbBlockEnd
  0
BLOCK
  5
75
330
74
100
AcDbEntity
 67
     1
  8
0
100
AcDbBlockBegin
  2
*Paper_Space0
 70
     0
 10
0.0
 20
0.0
 30
0.0
  3
*Paper_Space0
  1

  0
ENDBLK
  5
76
330
74
100
AcDbEntity
 67
     1
  8
0
100
AcDbBlockEnd
  0
BLOCK
  5
D3
330
D1
100
AcDbEntity
  8
0
100
AcDbBlockBegin
  2
Block_0
 70
     0
 10
0.0
 20
0.0
 30
0.0
  3
Block_0
  1

  0
MTEXT
  5
D5
330
D1
100
AcDbEntity
  8
SPEC
100
AcDbMText
 10
187.0679742981223
 20
42.2660624504388
 30
0.0
 40
0.2
 41
0.0
 46
0.0
 71
     7
 72
     1
  1
\C9;\c12632256;\FMS PGothic|b0|i0|c128;\H9.071429;\W1.000000;ペンダント　ラメラ 
 73
     1
 44
1.0
  0
MTEXT
  5
D6
330
D1
100
AcDbEntity
  8
SPEC
100
AcDbMText
 10
286.6475118980105
 20
42.2660624504388
 30
0.0
 40
0.2
 41
0.0
 46
0.0
 71
     7
 72
     1
  1
\C9;\c12632256;\FKozuka Gothic Pr6N R|b0|i0|c128;\H9.071429;\W1.000000;4
 73
     1
 44
1.0
  0
ENDBLK
  5
D4
330
D1
100
AcDbEntity
  8
0
100
AcDbBlockEnd
  0
BLOCK
  5
DA
330
D8
100
AcDbEntity
  8
0
100
AcDbBlockBegin
  2
Block_1
 70
     0
 10
0.0
 20
0.0
 30
0.0
  3
Block_1
  1

  0
MTEXT
  5
DC
330
D8
100
AcDbEntity
  8
SPEC
100
AcDbMText
 10
186.9722221754791
 20
5.277812267679435
 30
0.0
 40
0.2
 41
0.0
 46
0.0
 71
     7
 72
     1
  1
\C9;\c12632256;\FKozuka Gothic Pr6N R|b0|i0|c128;\H7.992533;\W1.000000;E17 LED
 73
     1
 44
1.0
  0
MTEXT
  5
DD
330
D8
100
AcDbEntity
  8
SPEC
100
AcDbMText
 10
240.255769966249
 20
5.277812267679435
 30
0.0
 40
0.2
 41
0.0
 46
0.0
 71
     7
 72
     1
  1
\C9;\c12632256;\FMS PGothic|b0|i0|c128;\H7.992533;\W1.000000;電球（
 73
     1
 44
1.0
  0
MTEXT
  5
DE
330
D8
100
AcDbEntity
  8
SPEC
100
AcDbMText
 10
269.3195428810751
 20
5.277812267679435
 30
0.0
 40
0.2
 41
0.0
 46
0.0
 71
     7
 72
     1
  1
\C9;\c12632256;\FKozuka Gothic Pr6N R|b0|i0|c128;\H7.992533;\W1.000000;60W
 73
     1
 44
1.0
  0
MTEXT
  5
DF
330
D8
100
AcDbEntity
  8
SPEC
100
AcDbMText
 10
294.6292167774712
 20
5.277812267679435
 30
0.0
 40
0.2
 41
0.0
 46
0.0
 71
     7
 72
     1
  1
\C9;\c12632256;\FMS PGothic|b0|i0|c128;\H7.992533;\W1.000000;相当 電球色 全方向
 73
     1
 44
1.0
  0
MTEXT
  5
E0
330
D8
100
AcDbEntity
  8
SPEC
100
AcDbMText
 10
394.7175519168371
 20
5.277812267679435
 30
0.0
 40
0.2
 41
0.0
 46
0.0
 71
     7
 72
     1
  1
\C9;\c12632256;\FKozuka Gothic Pr6N R|b0|i0|c128;\H7.992533;\W1.000000;/
 73
     1
 44
1.0
  0
MTEXT
  5
E1
330
D8
100
AcDbEntity
  8
SPEC
100
AcDbMText
 10
402.7100873152296
 20
5.277812267679435
 30
0.0
 40
0.2
 41
0.0
 46
0.0
 71
     7
 72
     1
  1
\C9;\c12632256;\FMS PGothic|b0|i0|c128;\H7.992533;\W1.000000;広配光タイプ
 73
     1
 44
1.0
  0
MTEXT
  5
E2
330
D8
100
AcDbEntity
  8
SPEC
100
AcDbMText
 10
466.3324312527745
 20
5.277812267679435
 30
0.0
 40
0.2
 41
0.0
 46
0.0
 71
     7
 72
     1
  1
\C9;\c12632256;\FKozuka Gothic Pr6N R|b0|i0|c128;\H7.992533;\W1.000000;)
 73
     1
 44
1.0
  0
ENDBLK
  5
DB
330
D8
100
AcDbEntity
  8
0
100
AcDbBlockEnd
  0
ENDSEC
  0
SECTION
  2
ENTITIES
  0
LINE
  5
79
330
70
100
AcDbEntity
  8
_HONTAI
 62
    18
420
        0
370
    25
100
AcDbLine
 10
337.8681512902547
 20
195.6913409273026
 30
0.0
 11
337.8681512902547
 21
90.27973730779409
 31
0.0
  0
LINE
  5
7A
330
70
100
AcDbEntity
  8
_HONTAI
 62
    18
420
        0
370
    25
100
AcDbLine
 10
337.8681512902547
 20
198.0944676751999
 30
0.0
 11
328.0710084355577
 21
198.0944676751999
 31
0.0
  0
SPLINE
  5
7B
330
70
100
AcDbEntity
  8
_HONTAI
 62
    18
420
        0
370
    25
100
AcDbSpline
210
0.0
220
0.0
230
1.0
 70
     8
 71
     3
 72
    11
 73
     7
 74
     0
 42
0.0000000001
 43
0.0000000001
 40
0.0
 40
0.0
 40
0.0
 40
0.0
 40
1.0
 40
1.0
 40
1.0
 40
2.0
 40
2.0
 40
2.0
 40
2.0
 10
322.9527826557655
 20
195.6913409272956
 30
0.0
 10
321.2305409294844
 20
195.3200865281502
 30
0.0
 10
319.5255070442255
 20
194.9025337512857
 30
0.0
 10
317.8878970115257
 20
194.336192094322
 30
0.0
 10
315.4584126259827
 20
193.4959931550138
 30
0.0
 10
313.1773237665624
 20
192.3283195416023
 30
0.0
 10
310.8962349071384
 20
190.8392792406124
 30
0.0
  0
SPLINE
  5
7C
330
70
100
AcDbEntity
  8
_HONTAI
 62
    18
420
        0
370
    25
100
AcDbSpline
210
0.0
220
0.0
230
1.0
 70
     8
 71
     3
 72
     8
 73
     4
 74
     0
 42
0.0000000001
 43
0.0000000001
 40
0.0
 40
0.0
 40
0.0
 40
0.0
 40
1.0
 40
1.0
 40
1.0
 40
1.0
 10
310.8962349070921
 20
190.8392792405749
 30
0.0
 10
304.9245932677386
 20
186.3629325907254
 30
0.0
 10
300.7253147763816
 20
179.9217749165089
 30
0.0
 10
299.0389264204598
 20
172.6516801776838
 30
0.0
  0
SPLINE
  5
7D
330
70
100
AcDbEntity
  8
_HONTAI
 62
    18
420
        0
370
    25
100
AcDbSpline
210
0.0
220
0.0
230
1.0
 70
     8
 71
     3
 72
     8
 73
     4
 74
     0
 42
0.0000000001
 43
0.0000000001
 40
0.0
 40
0.0
 40
0.0
 40
0.0
 40
1.0
 40
1.0
 40
1.0
 40
1.0
 10
299.0389264203876
 20
172.6516801774059
 30
0.0
 10
296.9739063383455
 20
164.8700464996059
 30
0.0
 10
295.6347657564921
 20
156.9137222824041
 30
0.0
 10
295.0386959909243
 20
148.8848474254086
 30
0.0
  0
SPLINE
  5
7E
330
70
100
AcDbEntity
  8
_HONTAI
 62
    18
420
        0
370
    25
100
AcDbSpline
210
0.0
220
0.0
230
1.0
 70
     8
 71
     3
 72
     8
 73
     4
 74
     0
 42
0.0000000001
 43
0.0000000001
 40
0.0
 40
0.0
 40
0.0
 40
0.0
 40
1.0
 40
1.0
 40
1.0
 40
1.0
 10
306.6019122318501
 20
96.65689189818165
 30
0.0
 10
311.536342673087
 20
93.3926192356332
 30
0.0
 10
317.1097145766315
 20
91.21729889036188
 30
0.0
 10
322.9507536661649
 20
90.27584143014049
 30
0.0
  0
SPLINE
  5
7F
330
70
100
AcDbEntity
  8
_HONTAI
 62
    18
420
        0
370
    25
100
AcDbSpline
210
0.0
220
0.0
230
1.0
 70
     8
 71
     3
 72
     8
 73
     4
 74
     0
 42
0.0000000001
 43
0.0000000001
 40
0.0
 40
0.0
 40
0.0
 40
0.0
 40
1.0
 40
1.0
 40
1.0
 40
1.0
 10
297.8197772344733
 20
109.1722484879265
 30
0.0
 10
299.4448329643717
 20
104.2236567003431
 30
0.0
 10
302.5010854652938
 20
99.86821353205192
 30
0.0
 10
306.6019122318475
 20
96.65689189818742
 30
0.0
  0
SPLINE
  5
80
330
70
100
AcDbEntity
  8
_HONTAI
 62
    18
420
        0
370
    25
100
AcDbSpline
210
0.0
220
0.0
230
1.0
 70
     8
 71
     3
 72
     8
 73
     4
 74
     0
 42
0.0000000001
 43
0.0000000001
 40
0.0
 40
0.0
 40
0.0
 40
0.0
 40
1.0
 40
1.0
 40
1.0
 40
1.0
 10
295.058137601415
 20
123.9345088412756
 30
0.0
 10
295.200619387095
 20
118.899570277857
 30
0.0
 10
296.1325063979075
 20
113.9181967094521
 30
0.0
 10
297.8197772344502
 20
109.1722484879894
 30
0.0
  0
SPLINE
  5
81
330
70
100
AcDbEntity
  8
_HONTAI
 62
    18
420
        0
370
    25
100
AcDbSpline
210
0.0
220
0.0
230
1.0
 70
     8
 71
     3
 72
     8
 73
     4
 74
     0
 42
0.0000000001
 43
0.0000000001
 40
0.0
 40
0.0
 40
0.0
 40
0.0
 40
1.0
 40
1.0
 40
1.0
 40
1.0
 10
295.038695990957
 20
148.8848474278766
 30
0.0
 10
294.9881521874653
 20
140.5681212129247
 30
0.0
 10
294.9946328766113
 20
132.251146190475
 30
0.0
 10
295.0581376014009
 20
123.9345088435382
 30
0.0
  0
SPLINE
  5
82
330
70
100
AcDbEntity
  8
_HONTAI
 62
    18
420
        0
370
    25
100
AcDbSpline
210
0.0
220
0.0
230
1.0
 70
     8
 71
     3
 72
     8
 73
     4
 74
     0
 42
0.0000000001
 43
0.0000000001
 40
0.0
 40
0.0
 40
0.0
 40
0.0
 40
1.0
 40
1.0
 40
1.0
 40
1.0
 10
328.0710084355577
 20
198.0944676751957
 30
0.0
 10
328.0277826233604
 20
198.0944676751957
 30
0.0
 10
327.984831129728
 20
198.0876021727859
 30
0.0
 10
327.9437591131765
 20
198.0741277415735
 30
0.0
  0
SPLINE
  5
83
330
70
100
AcDbEntity
  8
_HONTAI
 62
    18
420
        0
370
    25
100
AcDbSpline
210
0.0
220
0.0
230
1.0
 70
     8
 71
     3
 72
     8
 73
     4
 74
     0
 42
0.0000000001
 43
0.0000000001
 40
0.0
 40
0.0
 40
0.0
 40
0.0
 40
1.0
 40
1.0
 40
1.0
 40
1.0
 10
327.9437591131765
 20
198.074127741578
 30
0.0
 10
326.1493713630103
 20
197.5894757089523
 30
0.0
 10
324.4127375072033
 20
196.9119496791867
 30
0.0
 10
322.764222722614
 20
196.0533962471476
 30
0.0
  0
LINE
  5
84
330
70
100
AcDbEntity
  8
_HONTAI
 62
    18
420
        0
370
    25
100
AcDbLine
 10
322.7642227226018
 20
196.0533962471386
 30
0.0
 11
322.9527826556638
 21
195.6913409273026
 31
0.0
  0
LINE
  5
85
330
70
100
AcDbEntity
  8
_HONTAI
 62
    18
420
        0
370
    25
100
AcDbLine
 10
322.7642227226018
 20
196.0533962471386
 30
0.0
 11
337.8681512902547
 21
196.0533962471334
 31
0.0
  0
LINE
  5
86
330
70
100
AcDbEntity
  8
_HONTAI
 62
    18
420
        0
370
    25
100
AcDbLine
 10
322.9527826556638
 20
195.6913409273026
 30
0.0
 11
337.8681512902547
 21
195.6913409273026
 31
0.0
  0
LINE
  5
87
330
70
100
AcDbEntity
  8
_HONTAI
 62
    18
420
        0
370
    25
100
AcDbLine
 10
337.8681512902547
 20
87.87661055989717
 30
0.0
 11
328.0710084355577
 21
87.87661055989717
 31
0.0
  0
SPLINE
  5
88
330
70
100
AcDbEntity
  8
_HONTAI
 62
    18
420
        0
370
    25
100
AcDbSpline
210
0.0
220
0.0
230
1.0
 70
     8
 71
     3
 72
     8
 73
     4
 74
     0
 42
0.0000000001
 43
0.0000000001
 40
0.0
 40
0.0
 40
0.0
 40
0.0
 40
1.0
 40
1.0
 40
1.0
 40
1.0
 10
327.9437591131775
 20
87.89695049351815
 30
0.0
 10
327.9848311297287
 20
87.88347606230567
 30
0.0
 10
328.0277826233608
 20
87.87661055989589
 30
0.0
 10
328.0710084355577
 20
87.87661055989589
 30
0.0
  0
SPLINE
  5
89
330
70
100
AcDbEntity
  8
_HONTAI
 62
    18
420
        0
370
    25
100
AcDbSpline
210
0.0
220
0.0
230
1.0
 70
     8
 71
     3
 72
     8
 73
     4
 74
     0
 42
0.0000000001
 43
0.0000000001
 40
0.0
 40
0.0
 40
0.0
 40
0.0
 40
1.0
 40
1.0
 40
1.0
 40
1.0
 10
322.764222722614
 20
89.91768198794916
 30
0.0
 10
324.4127375072033
 20
89.05912855591004
 30
0.0
 10
326.1493713630103
 20
88.38160252614512
 30
0.0
 10
327.9437591131765
 20
87.89695049351943
 30
0.0
  0
LINE
  5
8A
330
70
100
AcDbEntity
  8
_HONTAI
 62
    18
420
        0
370
    25
100
AcDbLine
 10
322.7642227226018
 20
89.91768198795815
 30
0.0
 11
322.9527826556638
 21
90.27973730779409
 31
0.0
  0
LINE
  5
8B
330
70
100
AcDbEntity
  8
_HONTAI
 62
    18
420
        0
370
    25
100
AcDbLine
 10
322.7642227226018
 20
89.91768198795815
 30
0.0
 11
337.8681512902547
 21
89.91768198795815
 31
0.0
  0
LINE
  5
8C
330
70
100
AcDbEntity
  8
_HONTAI
 62
    18
420
        0
370
    25
100
AcDbLine
 10
322.9527826556638
 20
90.27973730779409
 30
0.0
 11
337.8681512902547
 21
90.27973730779409
 31
0.0
  0
SPLINE
  5
8D
330
70
100
AcDbEntity
  8
_HONTAI
 62
    18
420
        0
370
    25
100
AcDbSpline
210
0.0
220
0.0
230
1.0
 70
     8
 71
     3
 72
    47
 73
    43
 74
     0
 42
0.0000000001
 43
0.0000000001
 40
0.0
 40
0.0
 40
0.0
 40
0.0
 40
1.0
 40
1.0
 40
1.0
 40
2.0
 40
2.0
 40
2.0
 40
3.0
 40
3.0
 40
3.0
 40
4.0
 40
4.0
 40
4.0
 40
5.0
 40
5.0
 40
5.0
 40
6.0
 40
6.0
 40
6.0
 40
7.0
 40
7.0
 40
7.0
 40
8.0
 40
8.0
 40
8.0
 40
9.0
 40
9.0
 40
9.0
 40
10.0
 40
10.0
 40
10.0
 40
11.0
 40
11.0
 40
11.0
 40
12.0
 40
12.0
 40
12.0
 40
13.0
 40
13.0
 40
13.0
 40
14.0
 40
14.0
 40
14.0
 40
14.0
 10
323.0942798001542
 20
195.6913409273026
 30
0.0
 10
321.0402618096309
 20
195.1436028708619
 30
0.0
 10
318.9862438191078
 20
194.5958648144215
 30
0.0
 10
317.0056461632196
 20
193.8339886721428
 30
0.0
 10
314.9958480497627
 20
193.0608799951295
 30
0.0
 10
313.0616511393744
 20
192.0672725013701
 30
0.0
 10
311.2823106371767
 20
190.8392792405951
 30
0.0
 10
308.2305918399594
 20
188.7331673906512
 30
0.0
 10
305.6343853111018
 20
185.9376065624454
 30
0.0
 10
303.6669444109904
 20
182.7931352424905
 30
0.0
 10
301.7092109991907
 20
179.6641789596498
 30
0.0
 10
300.3740537780021
 20
176.1897467874063
 30
0.0
 10
299.3452601489575
 20
172.6516801776357
 30
0.0
 10
298.219445348959
 20
168.7799534870651
 30
0.0
 10
297.4605025157297
 20
164.8320242324548
 30
0.0
 10
296.7942885655202
 20
160.8609792438113
 30
0.0
 10
296.1280746153145
 20
156.8899342551928
 30
0.0
 10
295.5545895481277
 20
152.8957735325423
 30
0.0
 10
295.3450297194517
 20
148.8848474256627
 30
0.0
 10
295.1283173203516
 20
144.7370227937818
 30
0.0
 10
295.3007966714528
 20
140.5712687947115
 30
0.0
 10
295.3119823265814
 20
136.4096448079191
 30
0.0
 10
295.32316798171
 20
132.2480208211216
 30
0.0
 10
295.1730599408663
 20
128.0905268466028
 30
0.0
 10
295.3644713299251
 20
123.9345088411697
 30
0.0
 10
295.4800411551366
 20
121.4252000856907
 30
0.0
 10
295.7201108165051
 20
118.9164293901084
 30
0.0
 10
296.1659952523779
 20
116.4450072863492
 30
0.0
 10
296.6118796882549
 20
113.9735851825676
 30
0.0
 10
297.2635788986402
 20
111.5395116706096
 30
0.0
 10
298.1261109629804
 20
109.1722484879303
 30
0.0
 10
299.0110891215918
 20
106.7433808562563
 30
0.0
 10
300.1180161280051
 20
104.3848460751154
 30
0.0
 10
301.5887643229124
 20
102.2630938854263
 30
0.0
 10
303.0446349012044
 20
100.1628046597859
 30
0.0
 10
304.857003300002
 20
98.29453182146879
 30
0.0
 10
306.9082459603742
 20
96.76516096001074
 30
0.0
 10
309.2782682997229
 20
94.9981135127099
 30
0.0
 10
311.9671800927993
 20
93.68348930077651
 30
0.0
 10
314.742688434415
 20
92.67256151407972
 30
0.0
 10
317.474654312736
 20
91.67749326755737
 30
0.0
 10
320.2905209811396
 20
90.97666734884573
 30
0.0
 10
323.1063876495432
 20
90.27584143013406
 30
0.0
  0
SPLINE
  5
8E
330
70
100
AcDbEntity
  8
_HONTAI
 62
    18
420
        0
370
    25
100
AcDbSpline
210
0.0
220
0.0
230
1.0
 70
     8
 71
     3
 72
    47
 73
    43
 74
     0
 42
0.0000000001
 43
0.0000000001
 40
0.0
 40
0.0
 40
0.0
 40
0.0
 40
1.0
 40
1.0
 40
1.0
 40
2.0
 40
2.0
 40
2.0
 40
3.0
 40
3.0
 40
3.0
 40
4.0
 40
4.0
 40
4.0
 40
5.0
 40
5.0
 40
5.0
 40
6.0
 40
6.0
 40
6.0
 40
7.0
 40
7.0
 40
7.0
 40
8.0
 40
8.0
 40
8.0
 40
9.0
 40
9.0
 40
9.0
 40
10.0
 40
10.0
 40
10.0
 40
11.0
 40
11.0
 40
11.0
 40
12.0
 40
12.0
 40
12.0
 40
13.0
 40
13.0
 40
13.0
 40
14.0
 40
14.0
 40
14.0
 40
14.0
 10
323.5034616043361
 20
195.6913409273026
 30
0.0
 10
321.5506283378999
 20
195.1336440383528
 30
0.0
 10
319.5977950714644
 20
194.5759471494028
 30
0.0
 10
317.7074100552868
 20
193.8378845498022
 30
0.0
 10
315.7007506124599
 20
193.0544249517772
 30
0.0
 10
313.7644578540309
 20
192.0677292825229
 30
0.0
 10
311.9840745292417
 20
190.8431751182548
 30
0.0
 10
308.9305672034659
 20
188.7429616084227
 30
0.0
 10
306.3356696349839
 20
185.9430840428501
 30
0.0
 10
304.3687083030579
 20
182.7970311201505
 30
0.0
 10
302.4114520932207
 20
179.6665010382999
 30
0.0
 10
301.0759508461687
 20
176.1932032775721
 30
0.0
 10
300.0470240410193
 20
172.6555760552951
 30
0.0
 10
298.9210635056419
 20
168.7843301889934
 30
0.0
 10
298.1622274306963
 20
164.8360494638354
 30
0.0
 10
297.4960524575851
 20
160.8648751214706
 30
0.0
 10
296.8298774844778
 20
156.8937007791296
 30
0.0
 10
296.2563636132037
 20
152.8996328195824
 30
0.0
 10
296.0467936115166
 20
148.8887433033195
 30
0.0
 10
295.8300706921865
 20
144.7409565109461
 30
0.0
 10
296.002559447647
 20
140.5751802789664
 30
0.0
 10
296.0137462186464
 20
136.4135406855785
 30
0.0
 10
296.024932989646
 20
132.2519010921842
 30
0.0
 10
295.8748177761839
 20
128.0943981373806
 30
0.0
 10
296.06623522199
 20
123.9384047188291
 30
0.0
 10
296.181808704127
 20
121.4291108083464
 30
0.0
 10
296.4218868451446
 20
118.9203671945658
 30
0.0
 10
296.8677591444428
 20
116.448903164006
 30
0.0
 10
297.3136314437453
 20
113.9774391334245
 30
0.0
 10
297.9652979013323
 20
111.5432546860652
 30
0.0
 10
298.8278748550456
 20
109.1761443655846
 30
0.0
 10
299.7128990712075
 20
106.7474335741203
 30
0.0
 10
300.8199538709635
 20
104.3893333393066
 30
0.0
 10
302.290528214975
 20
102.2669897630857
 30
0.0
 10
303.7462267009924
 20
100.1661151331879
 30
0.0
 10
305.5581274350834
 20
98.29625160878899
 30
0.0
 10
307.6100098524392
 20
96.76905683767012
 30
0.0
 10
309.9807713721741
 20
95.00452366272584
 30
0.0
 10
312.6719007179627
 20
93.69744224847968
 30
0.0
 10
315.4444523264774
 20
92.67645739173909
 30
0.0
 10
318.0830339887673
 20
91.70480661625914
 30
0.0
 10
320.795359358722
 20
90.99227196202695
 30
0.0
 10
323.5076847286771
 20
90.27973730779409
 30
0.0
  0
SPLINE
  5
8F
330
70
100
AcDbEntity
  8
_HONTAI
 62
    18
420
        0
370
    25
100
AcDbSpline
210
0.0
220
0.0
230
1.0
 70
     8
 71
     3
 72
    47
 73
    43
 74
     0
 42
0.0000000001
 43
0.0000000001
 40
0.0
 40
0.0
 40
0.0
 40
0.0
 40
1.0
 40
1.0
 40
1.0
 40
2.0
 40
2.0
 40
2.0
 40
3.0
 40
3.0
 40
3.0
 40
4.0
 40
4.0
 40
4.0
 40
5.0
 40
5.0
 40
5.0
 40
6.0
 40
6.0
 40
6.0
 40
7.0
 40
7.0
 40
7.0
 40
8.0
 40
8.0
 40
8.0
 40
9.0
 40
9.0
 40
9.0
 40
10.0
 40
10.0
 40
10.0
 40
11.0
 40
11.0
 40
11.0
 40
12.0
 40
12.0
 40
12.0
 40
13.0
 40
13.0
 40
13.0
 40
14.0
 40
14.0
 40
14.0
 40
14.0
 10
324.0700259547196
 20
195.6913409273026
 30
0.0
 10
322.3229357583629
 20
195.1115509721559
 30
0.0
 10
320.5758455620061
 20
194.5317610170092
 30
0.0
 10
318.8686016617475
 20
193.8378845498022
 30
0.0
 10
316.871438942916
 20
193.0261761515054
 30
0.0
 10
314.928804745217
 20
192.0583436113692
 30
0.0
 10
313.1452661357047
 20
190.8431751182548
 30
0.0
 10
310.0863472309246
 20
188.7590588248048
 30
0.0
 10
307.4954102011451
 20
185.9474004018147
 30
0.0
 10
305.5298999095157
 20
182.7970311201505
 30
0.0
 10
303.5740875804437
 20
179.6622059765473
 30
0.0
 10
302.2375454187312
 20
176.1920041735488
 30
0.0
 10
301.2082156474797
 20
172.6555760552951
 30
0.0
 10
300.0818141439735
 20
168.7856423754397
 30
0.0
 10
299.3233010475577
 20
164.8364023447239
 30
0.0
 10
298.6572440640452
 20
160.8648751214713
 30
0.0
 10
297.9911870805365
 20
156.8933478982417
 30
0.0
 10
297.4175862099298
 20
152.8995334824759
 30
0.0
 10
297.207985217977
 20
148.8887433033195
 30
0.0
 10
296.9912302506395
 20
144.741059238567
 30
0.0
 10
297.1637468557434
 20
140.5752208213108
 30
0.0
 10
297.1749378251067
 20
136.4135406855785
 30
0.0
 10
297.1861287944699
 20
132.2518605498398
 30
0.0
 10
297.035994128092
 20
128.0943386956255
 30
0.0
 10
297.227426828453
 20
123.9384047188291
 30
0.0
 10
297.3430095209421
 20
121.4291466979211
 30
0.0
 10
297.5831095248109
 20
118.9204675327413
 30
0.0
 10
298.0289507509007
 20
116.448903164006
 30
0.0
 10
298.4747919769943
 20
113.9773387952489
 30
0.0
 10
299.126374425313
 20
111.5428892229363
 30
0.0
 10
299.9890664615035
 20
109.1761443655846
 30
0.0
 10
300.8742087549906
 20
106.7478085478752
 30
0.0
 10
301.9815912207702
 20
104.3907471221503
 30
0.0
 10
303.4517198214355
 20
102.2669897630857
 30
0.0
 10
304.9069770731024
 20
100.1647156517182
 30
0.0
 10
306.7176787314539
 20
98.29104942221585
 30
0.0
 10
308.7712014588996
 20
96.76905683767012
 30
0.0
 10
311.1438582061624
 20
95.01053431111476
 30
0.0
 10
313.8406732682078
 20
93.72148478592453
 30
0.0
 10
316.6056439329404
 20
92.67645739173909
 30
0.0
 10
319.0580270487639
 20
91.74957322267216
 30
0.0
 10
321.5640265017416
 20
91.01465526523313
 30
0.0
 10
324.0700259547196
 20
90.27973730779409
 30
0.0
  0
SPLINE
  5
90
330
70
100
AcDbEntity
  8
_HONTAI
 62
    18
420
        0
370
    25
100
AcDbSpline
210
0.0
220
0.0
230
1.0
 70
     8
 71
     3
 72
    47
 73
    43
 74
     0
 42
0.0000000001
 43
0.0000000001
 40
0.0
 40
0.0
 40
0.0
 40
0.0
 40
1.0
 40
1.0
 40
1.0
 40
2.0
 40
2.0
 40
2.0
 40
3.0
 40
3.0
 40
3.0
 40
4.0
 40
4.0
 40
4.0
 40
5.0
 40
5.0
 40
5.0
 40
6.0
 40
6.0
 40
6.0
 40
7.0
 40
7.0
 40
7.0
 40
8.0
 40
8.0
 40
8.0
 40
9.0
 40
9.0
 40
9.0
 40
10.0
 40
10.0
 40
10.0
 40
11.0
 40
11.0
 40
11.0
 40
12.0
 40
12.0
 40
12.0
 40
13.0
 40
13.0
 40
13.0
 40
14.0
 40
14.0
 40
14.0
 40
14.0
 10
324.7877654537235
 20
195.6913409273026
 30
0.0
 10
323.3442322566876
 20
195.1183269681387
 30
0.0
 10
321.9006990596517
 20
194.5453130089748
 30
0.0
 10
320.4764397926841
 20
193.918755556189
 30
0.0
 10
318.4912563746173
 20
193.045437407882
 30
0.0
 10
316.5435179232777
 20
192.0680961397413
 30
0.0
 10
314.753104266639
 20
190.8431751182548
 30
0.0
 10
311.7003003234131
 20
188.7545830710091
 30
0.0
 10
309.1048880365008
 20
185.9462003914724
 30
0.0
 10
307.1377380404552
 20
182.7970311201505
 30
0.0
 10
305.1802940973801
 20
179.6634000659557
 30
0.0
 10
303.84492796179
 20
176.1923370523389
 30
0.0
 10
302.8160537784196
 20
172.6555760552951
 30
0.0
 10
301.6901508273576
 20
168.7852781042598
 30
0.0
 10
300.9312735549108
 20
164.8363064824267
 30
0.0
 10
300.2650821949822
 20
160.8648751214713
 30
0.0
 10
299.5988908350577
 20
156.8934437605389
 30
0.0
 10
299.0253853876505
 20
152.8995526604853
 30
0.0
 10
298.8158233489143
 20
148.8887433033195
 30
0.0
 10
298.5991086643212
 20
144.7410394059855
 30
0.0
 10
298.7716051616025
 20
140.5752426549589
 30
0.0
 10
298.7827759560462
 20
136.4135406855785
 30
0.0
 10
298.7939467504901
 20
132.2518387161917
 30
0.0
 10
298.6437918420958
 20
128.0942315284522
 30
0.0
 10
298.8352649593873
 20
123.9384047188291
 30
0.0
 10
298.9508720546961
 20
121.4292114030123
 30
0.0
 10
299.1910185744131
 20
118.9206671184492
 30
0.0
 10
299.6367888818428
 20
116.448903164006
 30
0.0
 10
300.0825591892763
 20
113.9771392095411
 30
0.0
 10
300.7339532844258
 20
111.5421555851973
 30
0.0
 10
301.5969045924453
 20
109.1761443655846
 30
0.0
 10
302.4823129049187
 20
106.7485612774286
 30
0.0
 10
303.5904326153532
 20
104.3935871089594
 30
0.0
 10
305.0595579523769
 20
102.2669897630857
 30
0.0
 10
306.5138220890949
 20
100.1619043933041
 30
0.0
 10
308.3218251589462
 20
98.28059884197218
 30
0.0
 10
310.3790395898368
 20
96.76905683767012
 30
0.0
 10
312.7559617610818
 20
95.02260899594553
 30
0.0
 10
315.4655730812571
 20
93.76978359283715
 30
0.0
 10
318.2134820638773
 20
92.67645739173909
 30
0.0
 10
320.3889082017221
 20
91.81090820139079
 30
0.0
 10
322.5883368277228
 20
91.04532275459211
 30
0.0
 10
324.7877654537235
 20
90.27973730779409
 30
0.0
  0
SPLINE
  5
91
330
70
100
AcDbEntity
  8
_HONTAI
 62
    18
420
        0
370
    25
100
AcDbSpline
210
0.0
220
0.0
230
1.0
 70
     8
 71
     3
 72
    47
 73
    43
 74
     0
 42
0.0000000001
 43
0.0000000001
 40
0.0
 40
0.0
 40
0.0
 40
0.0
 40
1.0
 40
1.0
 40
1.0
 40
2.0
 40
2.0
 40
2.0
 40
3.0
 40
3.0
 40
3.0
 40
4.0
 40
4.0
 40
4.0
 40
5.0
 40
5.0
 40
5.0
 40
6.0
 40
6.0
 40
6.0
 40
7.0
 40
7.0
 40
7.0
 40
8.0
 40
8.0
 40
8.0
 40
9.0
 40
9.0
 40
9.0
 40
10.0
 40
10.0
 40
10.0
 40
11.0
 40
11.0
 40
11.0
 40
12.0
 40
12.0
 40
12.0
 40
13.0
 40
13.0
 40
13.0
 40
14.0
 40
14.0
 40
14.0
 40
14.0
 10
325.6488163972015
 20
195.6913409273026
 30
0.0
 10
324.4337770175611
 20
195.0763691887653
 30
0.0
 10
323.2187376379199
 20
194.4613974502279
 30
0.0
 10
322.0058572272685
 20
193.8378845498022
 30
0.0
 10
320.2211167954229
 20
192.9203920473306
 30
0.0
 10
318.4410511369906
 20
191.9844055337288
 30
0.0
 10
316.7899325746255
 20
190.8431751182548
 30
0.0
 10
313.7486139134786
 20
188.7410575366575
 30
0.0
 10
311.144796100983
 20
185.942573894961
 30
0.0
 10
309.1745663484414
 20
182.7970311201505
 30
0.0
 10
307.2140578446004
 20
179.6670086690847
 30
0.0
 10
305.8809004915679
 20
176.1933434628613
 30
0.0
 10
304.8528820864054
 20
172.6555760552951
 30
0.0
 10
303.7279156183712
 20
168.7841767834225
 30
0.0
 10
302.9683545993308
 20
164.8360147979506
 30
0.0
 10
302.3019105029683
 20
160.8648751214706
 30
0.0
 10
301.63546640661
 20
156.893735445015
 30
0.0
 10
301.0621392329282
 20
152.8996180775525
 30
0.0
 10
300.8526516569001
 20
148.8887433033195
 30
0.0
 10
300.6360139765316
 20
144.7409717561425
 30
0.0
 10
300.808476459654
 20
140.5752793730922
 30
0.0
 10
300.8196042640324
 20
136.4135406855785
 30
0.0
 10
300.8307320684109
 20
132.2518019980584
 30
0.0
 10
300.6805251940445
 20
128.0940170060749
 30
0.0
 10
300.8720932673738
 20
123.9384047188291
 30
0.0
 10
300.9877576949695
 20
121.4293409267241
 30
0.0
 10
301.2280151069308
 20
118.9210691873113
 30
0.0
 10
301.6736171898289
 20
116.448903164006
 30
0.0
 10
302.119219272731
 20
113.9767371406789
 30
0.0
 10
302.7701660265734
 20
111.5406768334593
 30
0.0
 10
303.6337329004314
 20
109.1761443655846
 30
0.0
 10
304.5197727979147
 20
106.7500785114466
 30
0.0
 10
305.6296430414355
 20
104.3993117448577
 30
0.0
 10
307.0963862603634
 20
102.2669897630857
 30
0.0
 10
308.5482923757275
 20
100.1562376659846
 30
0.0
 10
310.3498879593069
 20
98.25953327185096
 30
0.0
 10
312.4158678978252
 20
96.76905683767012
 30
0.0
 10
314.8029178073889
 20
95.04694832582872
 30
0.0
 10
317.5429123245669
 20
93.86714107065783
 30
0.0
 10
320.2503103718632
 20
92.67645739173909
 30
0.0
 10
322.0595163880506
 20
91.88078862133908
 30
0.0
 10
323.854166392626
 20
91.08026296456658
 30
0.0
 10
325.6488163972015
 20
90.27973730779409
 30
0.0
  0
SPLINE
  5
92
330
70
100
AcDbEntity
  8
_HONTAI
 62
    18
420
        0
370
    25
100
AcDbSpline
210
0.0
220
0.0
230
1.0
 70
     8
 71
     3
 72
    47
 73
    43
 74
     0
 42
0.0000000001
 43
0.0000000001
 40
0.0
 40
0.0
 40
0.0
 40
0.0
 40
1.0
 40
1.0
 40
1.0
 40
2.0
 40
2.0
 40
2.0
 40
3.0
 40
3.0
 40
3.0
 40
4.0
 40
4.0
 40
4.0
 40
5.0
 40
5.0
 40
5.0
 40
6.0
 40
6.0
 40
6.0
 40
7.0
 40
7.0
 40
7.0
 40
8.0
 40
8.0
 40
8.0
 40
9.0
 40
9.0
 40
9.0
 40
10.0
 40
10.0
 40
10.0
 40
11.0
 40
11.0
 40
11.0
 40
12.0
 40
12.0
 40
12.0
 40
13.0
 40
13.0
 40
13.0
 40
14.0
 40
14.0
 40
14.0
 40
14.0
 10
326.6437449308272
 20
195.6913409273026
 30
0.0
 10
325.6744039763675
 20
195.0722073843346
 30
0.0
 10
324.7050630219078
 20
194.4530738413658
 30
0.0
 10
323.7335975311633
 20
193.8378845498022
 30
0.0
 10
322.2116031103868
 20
192.8740678435962
 30
0.0
 10
320.6843939152923
 20
191.919932488126
 30
0.0
 10
319.2334555223305
 20
190.8431751182548
 30
0.0
 10
316.2597704101389
 20
188.636370628305
 30
0.0
 10
313.6064541799692
 20
185.9145030137193
 30
0.0
 10
311.6180892961442
 20
182.7970311201505
 30
0.0
 10
309.6395351410009
 20
179.6949410466737
 30
0.0
 10
308.3193866893854
 20
176.2011409404927
 30
0.0
 10
307.2964050341084
 20
172.6555760552951
 30
0.0
 10
306.1769503105142
 20
168.7756439586922
 30
0.0
 10
305.4133543437266
 20
164.8337232747564
 30
0.0
 10
304.7454334506714
 20
160.8648751214706
 30
0.0
 10
304.07751255762
 20
156.8960269682092
 30
0.0
 10
303.5052667383
 20
152.9002513455983
 30
0.0
 10
303.2961746046054
 20
148.8887433033195
 30
0.0
 10
303.0799458635717
 20
144.740316873771
 30
0.0
 10
303.2520837526699
 20
140.5750657580023
 30
0.0
 10
303.2631272117352
 20
136.4135406855785
 30
0.0
 10
303.2741706708005
 20
132.2520156131483
 30
0.0
 10
303.1241196998323
 20
128.0942165840625
 30
0.0
 10
303.3156162150788
 20
123.9384047188291
 30
0.0
 10
303.4312374375382
 20
121.4292204260939
 30
0.0
 10
303.6713687239945
 20
118.9207605477028
 30
0.0
 10
304.1171401375291
 20
116.448903164006
 30
0.0
 10
304.5629115510676
 20
113.9770457802875
 30
0.0
 10
305.2143230916876
 20
111.5417908912634
 30
0.0
 10
306.0772558481313
 20
109.1761443655846
 30
0.0
 10
306.9626451262522
 20
106.7489354619713
 30
0.0
 10
308.0707079073728
 20
104.3950049670687
 30
0.0
 10
309.5399092080632
 20
102.2669897630857
 30
0.0
 10
310.9942485400247
 20
100.1605008777914
 30
0.0
 10
312.8024570230935
 20
98.27537982751744
 30
0.0
 10
314.859390845528
 20
96.76905683767012
 30
0.0
 10
317.0964486714136
 20
95.13082638222391
 30
0.0
 10
319.6277004992205
 20
93.94064081677951
 30
0.0
 10
322.1032426559648
 20
92.67645739173909
 30
0.0
 10
323.6308864580733
 20
91.89633657306108
 30
0.0
 10
325.1373156944503
 20
91.08803694042759
 30
0.0
 10
326.6437449308272
 20
90.27973730779409
 30
0.0
  0
SPLINE
  5
93
330
70
100
AcDbEntity
  8
_HONTAI
 62
    18
420
        0
370
    25
100
AcDbSpline
210
0.0
220
0.0
230
1.0
 70
     8
 71
     3
 72
    47
 73
    43
 74
     0
 42
0.0000000001
 43
0.0000000001
 40
0.0
 40
0.0
 40
0.0
 40
0.0
 40
1.0
 40
1.0
 40
1.0
 40
2.0
 40
2.0
 40
2.0
 40
3.0
 40
3.0
 40
3.0
 40
4.0
 40
4.0
 40
4.0
 40
5.0
 40
5.0
 40
5.0
 40
6.0
 40
6.0
 40
6.0
 40
7.0
 40
7.0
 40
7.0
 40
8.0
 40
8.0
 40
8.0
 40
9.0
 40
9.0
 40
9.0
 40
10.0
 40
10.0
 40
10.0
 40
11.0
 40
11.0
 40
11.0
 40
12.0
 40
12.0
 40
12.0
 40
13.0
 40
13.0
 40
13.0
 40
14.0
 40
14.0
 40
14.0
 40
14.0
 10
327.7616504093822
 20
195.6913409273026
 30
0.0
 10
326.9755411883077
 20
195.079176808553
 30
0.0
 10
326.1894319672328
 20
194.4670126898033
 30
0.0
 10
325.4190421781225
 20
193.8378845498022
 30
0.0
 10
324.2362766213279
 20
192.8719954566159
 30
0.0
 10
323.0905631920887
 20
191.866120625988
 30
0.0
 10
321.9456714073591
 20
190.8431751182548
 30
0.0
 10
319.1989673924445
 20
188.3890317916921
 30
0.0
 10
316.4569924808674
 20
185.8366355161575
 30
0.0
 10
314.4412780860143
 20
182.7970311201505
 30
0.0
 10
312.4216568690305
 20
179.7515354164497
 30
0.0
 10
311.1311141476835
 20
176.2169411656618
 30
0.0
 10
310.1195938239811
 20
172.6555760552951
 30
0.0
 10
309.0126813016116
 20
168.7583536811898
 30
0.0
 10
308.2398995259146
 20
164.82907306597
 30
0.0
 10
307.5686222405438
 20
160.8648751214706
 30
0.0
 10
306.8973449551771
 20
156.9006771769957
 30
0.0
 10
306.3275721601353
 20
152.9015619032412
 30
0.0
 10
306.1193633944758
 20
148.8887433033195
 30
0.0
 10
305.904048172065
 20
144.7389615849604
 30
0.0
 10
306.075399557281
 20
140.5745251492841
 30
0.0
 10
306.0863160016079
 20
136.4135406855785
 30
0.0
 10
306.0972324459346
 20
132.2525562218665
 30
0.0
 10
305.9477139493712
 20
128.0950237301238
 30
0.0
 10
306.1388050049515
 20
123.9384047188291
 30
0.0
 10
306.2541814201248
 20
121.4287330897355
 30
0.0
 10
306.4937259783735
 20
118.9193944670717
 30
0.0
 10
306.9403289274018
 20
116.448903164006
 30
0.0
 10
307.3869318764343
 20
113.9784118609186
 30
0.0
 10
308.0405932162499
 20
111.54676787743
 30
0.0
 10
308.9004446380069
 20
109.1761443655846
 30
0.0
 10
309.7826723943595
 20
106.7438289572566
 30
0.0
 10
310.8819614400527
 20
104.3757512762063
 30
0.0
 10
312.3630979979366
 20
102.2669897630857
 30
0.0
 10
313.8292518538608
 20
100.1795598044986
 30
0.0
 10
315.6695670015581
 20
98.34622623065351
 30
0.0
 10
317.6825796353984
 20
96.76905683767012
 30
0.0
 10
319.627407451331
 20
95.24530936865405
 30
0.0
 10
321.7334316639228
 20
93.96066638129672
 30
0.0
 10
323.8370303388925
 20
92.67645739173909
 30
0.0
 10
325.1458630072888
 20
91.87743869174646
 30
0.0
 10
326.4537567083359
 20
91.07858799977028
 30
0.0
 10
327.7616504093822
 20
90.27973730779409
 30
0.0
  0
SPLINE
  5
94
330
70
100
AcDbEntity
  8
_HONTAI
 62
    18
420
        0
370
    25
100
AcDbSpline
210
0.0
220
0.0
230
1.0
 70
     8
 71
     3
 72
    47
 73
    43
 74
     0
 42
0.0000000001
 43
0.0000000001
 40
0.0
 40
0.0
 40
0.0
 40
0.0
 40
1.0
 40
1.0
 40
1.0
 40
2.0
 40
2.0
 40
2.0
 40
3.0
 40
3.0
 40
3.0
 40
4.0
 40
4.0
 40
4.0
 40
5.0
 40
5.0
 40
5.0
 40
6.0
 40
6.0
 40
6.0
 40
7.0
 40
7.0
 40
7.0
 40
8.0
 40
8.0
 40
8.0
 40
9.0
 40
9.0
 40
9.0
 40
10.0
 40
10.0
 40
10.0
 40
11.0
 40
11.0
 40
11.0
 40
12.0
 40
12.0
 40
12.0
 40
13.0
 40
13.0
 40
13.0
 40
14.0
 40
14.0
 40
14.0
 40
14.0
 10
328.9902848265096
 20
195.6913409273026
 30
0.0
 10
328.3964177225953
 20
195.073461527882
 30
0.0
 10
327.8025506186814
 20
194.455582128462
 30
0.0
 10
327.2095343241519
 20
193.8378845498022
 30
0.0
 10
326.2527266430071
 20
192.8412546201718
 30
0.0
 10
325.2981338322888
 20
191.8450980156278
 30
0.0
 10
324.3407780408953
 20
190.8431751182548
 30
0.0
 10
321.9195895195507
 20
188.309274722812
 30
0.0
 10
319.4807288916162
 20
185.7384929469075
 30
0.0
 10
317.6133128279784
 20
182.7970311201499
 30
0.0
 10
315.6504904359821
 20
179.7052899430322
 30
0.0
 10
314.3189944184676
 20
176.204025065421
 30
0.0
 10
313.2916285659404
 20
172.6555760552951
 30
0.0
 10
312.1673761900172
 20
168.7724878441543
 30
0.0
 10
311.4073212404318
 20
164.8328963932688
 30
0.0
 10
310.7406569825057
 20
160.8648751214706
 30
0.0
 10
310.0739927245836
 20
156.8968538496968
 30
0.0
 10
309.50071915832
 20
152.9004027570105
 30
0.0
 10
309.2913981364371
 20
148.8887433033195
 30
0.0
 10
309.0749326949402
 20
144.7401602944755
 30
0.0
 10
309.2476882052994
 20
140.5753130422893
 30
0.0
 10
309.2583507435672
 20
136.4135406855785
 30
0.0
 10
309.2690132818349
 20
132.2517683288612
 30
0.0
 10
309.1175828480106
 20
128.0930708676186
 30
0.0
 10
309.3108397469108
 20
123.9384047188291
 30
0.0
 10
309.4275238488161
 20
121.4299121835165
 30
0.0
 10
309.6698626359082
 20
118.9228892505045
 30
0.0
 10
310.1123636693633
 20
116.448903164006
 30
0.0
 10
310.5548647028227
 20
113.9749170774857
 30
0.0
 10
311.1975279826483
 20
111.5339678374795
 30
0.0
 10
312.0724793799639
 20
109.1761443655846
 30
0.0
 10
312.9702000659333
 20
106.7569620989137
 30
0.0
 10
314.1124560748732
 20
104.4252883400901
 30
0.0
 10
315.5351327398981
 20
102.2669897630857
 30
0.0
 10
316.8684595010292
 20
100.2442411498721
 30
0.0
 10
318.4480898717373
 20
98.37377423262651
 30
0.0
 10
320.2502763535692
 20
96.76905683767012
 30
0.0
 10
321.9424181283214
 20
95.26232633666365
 30
0.0
 10
323.8307664809017
 20
93.98988194024672
 30
0.0
 10
325.6816197871662
 20
92.67645739173909
 30
0.0
 10
326.7935296132576
 20
91.88741070912451
 30
0.0
 10
327.8919072198832
 20
91.08357400845898
 30
0.0
 10
328.9902848265096
 20
90.27973730779409
 30
0.0
  0
SPLINE
  5
95
330
70
100
AcDbEntity
  8
_HONTAI
 62
    18
420
        0
370
    25
100
AcDbSpline
210
0.0
220
0.0
230
1.0
 70
     8
 71
     3
 72
    47
 73
    43
 74
     0
 42
0.0000000001
 43
0.0000000001
 40
0.0
 40
0.0
 40
0.0
 40
0.0
 40
1.0
 40
1.0
 40
1.0
 40
2.0
 40
2.0
 40
2.0
 40
3.0
 40
3.0
 40
3.0
 40
4.0
 40
4.0
 40
4.0
 40
5.0
 40
5.0
 40
5.0
 40
6.0
 40
6.0
 40
6.0
 40
7.0
 40
7.0
 40
7.0
 40
8.0
 40
8.0
 40
8.0
 40
9.0
 40
9.0
 40
9.0
 40
10.0
 40
10.0
 40
10.0
 40
11.0
 40
11.0
 40
11.0
 40
12.0
 40
12.0
 40
12.0
 40
13.0
 40
13.0
 40
13.0
 40
14.0
 40
14.0
 40
14.0
 40
14.0
 10
330.3161870064292
 20
195.6913409273026
 30
0.0
 10
329.7637182514888
 20
195.0821681561695
 30
0.0
 10
329.2112494965485
 20
194.4729953850364
 30
0.0
 10
328.6913324536744
 20
193.8378845498022
 30
0.0
 10
327.9042283191023
 20
192.8763881511431
 30
0.0
 10
327.1917295590849
 20
191.8554442191682
 30
0.0
 10
326.4651101927864
 20
190.8431751182548
 30
0.0
 10
324.5663019822135
 20
188.1979044727526
 30
0.0
 10
322.5710661159784
 20
185.6118730416203
 30
0.0
 10
320.9562975711385
 20
182.7970311201505
 30
0.0
 10
319.1399865998425
 20
179.630863262367
 30
0.0
 10
317.8050436234185
 20
176.1752039272726
 30
0.0
 10
316.778293803738
 20
172.6555760552951
 30
0.0
 10
315.6490271172405
 20
168.7845274039987
 30
0.0
 10
314.8925697447239
 20
164.836098493505
 30
0.0
 10
314.2273222203061
 20
160.8648751214706
 30
0.0
 10
313.5620746958924
 20
156.8936517494599
 30
0.0
 10
312.9880370195765
 20
152.8996339159085
 30
0.0
 10
312.7780633742379
 20
148.8887433033195
 30
0.0
 10
312.560923034333
 20
144.7409553772012
 30
0.0
 10
312.7331228731441
 20
140.5751232329048
 30
0.0
 10
312.7450159813676
 20
136.4135406855785
 30
0.0
 10
312.7569090895911
 20
132.2519581382458
 30
0.0
 10
312.6084954672271
 20
128.0946251878831
 30
0.0
 10
312.7975049847112
 20
123.9384047188291
 30
0.0
 10
312.9116246147204
 20
121.428973720439
 30
0.0
 10
313.1487507912051
 20
118.9199482736178
 30
0.0
 10
313.5990289071618
 20
116.448903164006
 30
0.0
 10
314.0493070231218
 20
113.9778580543725
 30
0.0
 10
314.7127370785576
 20
111.5447932819496
 30
0.0
 10
315.559144617764
 20
109.1761443655846
 30
0.0
 10
316.4145502150422
 20
106.7823146237729
 30
0.0
 10
317.4568443992249
 20
104.4542776126562
 30
0.0
 10
318.7546659280575
 20
102.2669897630857
 30
0.0
 10
319.9285581976879
 20
100.2885665045526
 30
0.0
 10
321.311507084687
 20
98.42529547620678
 30
0.0
 10
322.8997842928668
 20
96.76905683767012
 30
0.0
 10
324.3123517881329
 20
95.29604642541258
 30
0.0
 10
325.8873299936178
 20
93.98679460852859
 30
0.0
 10
327.4550496852078
 20
92.67645739173909
 30
0.0
 10
328.4105597134712
 20
91.87781949890299
 30
0.0
 10
329.3633733599502
 20
91.07877840334884
 30
0.0
 10
330.3161870064292
 20
90.27973730779409
 30
0.0
  0
SPLINE
  5
96
330
70
100
AcDbEntity
  8
_HONTAI
 62
    18
420
        0
370
    25
100
AcDbSpline
210
0.0
220
0.0
230
1.0
 70
     8
 71
     3
 72
    47
 73
    43
 74
     0
 42
0.0000000001
 43
0.0000000001
 40
0.0
 40
0.0
 40
0.0
 40
0.0
 40
1.0
 40
1.0
 40
1.0
 40
2.0
 40
2.0
 40
2.0
 40
3.0
 40
3.0
 40
3.0
 40
4.0
 40
4.0
 40
4.0
 40
5.0
 40
5.0
 40
5.0
 40
6.0
 40
6.0
 40
6.0
 40
7.0
 40
7.0
 40
7.0
 40
8.0
 40
8.0
 40
8.0
 40
9.0
 40
9.0
 40
9.0
 40
10.0
 40
10.0
 40
10.0
 40
11.0
 40
11.0
 40
11.0
 40
12.0
 40
12.0
 40
12.0
 40
13.0
 40
13.0
 40
13.0
 40
14.0
 40
14.0
 40
14.0
 40
14.0
 10
331.7248300873899
 20
195.6913409273026
 30
0.0
 10
331.3453862729936
 20
195.0730690223171
 30
0.0
 10
330.9659424585976
 20
194.4547971173323
 30
0.0
 10
330.5842906495603
 20
193.8378845498022
 30
0.0
 10
329.9674604795106
 20
192.8408231579133
 30
0.0
 10
329.3448627168132
 20
191.8473125467025
 30
0.0
 10
328.7395263620977
 20
190.8431751182545
 30
0.0
 10
327.1674379046598
 20
188.2353805447969
 30
0.0
 10
325.7117718776176
 20
185.5559116391252
 30
0.0
 10
324.4150846965435
 20
182.7970311201499
 30
0.0
 10
322.8740605228091
 20
179.5182900064576
 30
0.0
 10
321.5575732933749
 20
176.1273903166688
 30
0.0
 10
320.5420015175692
 20
172.6555760552951
 30
0.0
 10
319.4134550407122
 20
168.7975486402788
 30
0.0
 10
318.6564969611654
 20
164.8396030734632
 30
0.0
 10
317.9910299341321
 20
160.8648751214706
 30
0.0
 10
317.3255629071027
 20
156.8901471695024
 30
0.0
 10
316.751586932586
 20
152.8986368323565
 30
0.0
 10
316.5417710880636
 20
148.8887433033195
 30
0.0
 10
316.3247939349373
 20
144.7419864926112
 30
0.0
 10
316.4972597314826
 20
140.5755701862995
 30
0.0
 10
316.5087236951959
 20
136.4135406855785
 30
0.0
 10
316.5201876589089
 20
132.2515111848511
 30
0.0
 10
316.370649789789
 20
128.0938684897137
 30
0.0
 10
316.5612126985373
 20
123.9384047188291
 30
0.0
 10
316.6762702307151
 20
121.4294305975117
 30
0.0
 10
316.9153104339033
 20
118.9212507961902
 30
0.0
 10
317.3627366209899
 20
116.448903164006
 30
0.0
 10
317.8101628080804
 20
113.9765555318
 30
0.0
 10
318.4659749790728
 20
111.5400400687307
 30
0.0
 10
319.3228523315946
 20
109.1761443655846
 30
0.0
 10
320.1888390455307
 20
106.7871183678375
 30
0.0
 10
321.2601886646585
 20
104.4722643612758
 30
0.0
 10
322.5183736418854
 20
102.2669897630857
 30
0.0
 10
323.6076927112113
 20
100.3576936608524
 30
0.0
 10
324.8370608703505
 20
98.530536702734
 30
0.0
 10
326.1528679691893
 20
96.76905683767012
 30
0.0
 10
327.2072762959908
 20
95.35751327717827
 30
0.0
 10
328.3171909682977
 20
93.98814394315825
 30
0.0
 10
329.4910366229787
 20
92.67645739173909
 30
0.0
 10
330.2192325281784
 20
91.86275179778821
 30
0.0
 10
330.972031307784
 20
91.07124455279116
 30
0.0
 10
331.7248300873899
 20
90.27973730779409
 30
0.0
  0
SPLINE
  5
97
330
70
100
AcDbEntity
  8
_HONTAI
 62
    18
420
        0
370
    25
100
AcDbSpline
210
0.0
220
0.0
230
1.0
 70
     8
 71
     3
 72
    47
 73
    43
 74
     0
 42
0.0000000001
 43
0.0000000001
 40
0.0
 40
0.0
 40
0.0
 40
0.0
 40
1.0
 40
1.0
 40
1.0
 40
2.0
 40
2.0
 40
2.0
 40
3.0
 40
3.0
 40
3.0
 40
4.0
 40
4.0
 40
4.0
 40
5.0
 40
5.0
 40
5.0
 40
6.0
 40
6.0
 40
6.0
 40
7.0
 40
7.0
 40
7.0
 40
8.0
 40
8.0
 40
8.0
 40
9.0
 40
9.0
 40
9.0
 40
10.0
 40
10.0
 40
10.0
 40
11.0
 40
11.0
 40
11.0
 40
12.0
 40
12.0
 40
12.0
 40
13.0
 40
13.0
 40
13.0
 40
14.0
 40
14.0
 40
14.0
 40
14.0
 10
333.2007806810244
 20
195.6913409273026
 30
0.0
 10
332.9307467435853
 20
195.0703069414625
 30
0.0
 10
332.6607128061461
 20
194.4492729556223
 30
0.0
 10
332.3707563518984
 20
193.8378845498022
 30
0.0
 10
331.8498672196431
 20
192.7395624689738
 30
0.0
 10
331.2646842667632
 20
191.6723685431655
 30
0.0
 10
330.7150806481589
 20
190.5869674039502
 30
0.0
 10
329.4418288728035
 20
188.0724480654699
 30
0.0
 10
328.3595304253697
 20
185.460211103459
 30
0.0
 10
327.4363881728648
 20
182.7970311201499
 30
0.0
 10
326.2843843333677
 20
179.4736066341417
 30
0.0
 10
325.3802334723491
 20
176.0708488895881
 30
0.0
 10
324.5393274179112
 20
172.6555760552951
 30
0.0
 10
323.5775239215643
 20
168.7492879085203
 30
0.0
 10
322.6984579669138
 20
164.8266273856535
 30
0.0
 10
321.9883558344768
 20
160.8648751214713
 30
0.0
 10
321.2782537020443
 20
156.9031228573122
 30
0.0
 10
320.7371153918222
 20
152.9022788518391
 30
0.0
 10
320.5390969884057
 20
148.8887433033195
 30
0.0
 10
320.334319939572
 20
144.7382201659031
 30
0.0
 10
320.4964848417956
 20
140.5741243401215
 30
0.0
 10
320.5060495955351
 20
136.4135406855785
 30
0.0
 10
320.515614349275
 20
132.2529570310291
 30
0.0
 10
320.3725789545305
 20
128.0958855477196
 30
0.0
 10
320.5585385988819
 20
123.9384047188291
 30
0.0
 10
320.6708167851477
 20
121.4282127439537
 30
0.0
 10
320.9030290802148
 20
118.9178715434317
 30
0.0
 10
321.3600625213341
 20
116.448903164006
 30
0.0
 10
321.8170959624577
 20
113.9799347845586
 30
0.0
 10
322.4989505496371
 20
111.5523392262087
 30
0.0
 10
323.3201782319347
 20
109.1761443655846
 30
0.0
 10
324.1352876851395
 20
106.8176523964243
 30
0.0
 10
325.087701281985
 20
104.5097980971658
 30
0.0
 10
326.1761267237587
 20
102.2669897630857
 30
0.0
 10
327.0891998208651
 20
100.3855122881777
 30
0.0
 10
328.0979902215567
 20
98.54981041758648
 30
0.0
 10
329.1938922776527
 20
96.76905683767012
 30
0.0
 10
330.0399594046528
 20
95.39426512441917
 30
0.0
 10
330.937947457248
 20
94.05222409301982
 30
0.0
 10
331.7813374469125
 20
92.67645739173909
 30
0.0
 10
332.2665316766765
 20
91.88499190940813
 30
0.0
 10
332.7336561788504
 20
91.08236460860046
 30
0.0
 10
333.2007806810244
 20
90.27973730779409
 30
0.0
  0
SPLINE
  5
98
330
70
100
AcDbEntity
  8
_HONTAI
 62
    18
420
        0
370
    25
100
AcDbSpline
210
0.0
220
0.0
230
1.0
 70
     8
 71
     3
 72
    47
 73
    43
 74
     0
 42
0.0000000001
 43
0.0000000001
 40
0.0
 40
0.0
 40
0.0
 40
0.0
 40
1.0
 40
1.0
 40
1.0
 40
2.0
 40
2.0
 40
2.0
 40
3.0
 40
3.0
 40
3.0
 40
4.0
 40
4.0
 40
4.0
 40
5.0
 40
5.0
 40
5.0
 40
6.0
 40
6.0
 40
6.0
 40
7.0
 40
7.0
 40
7.0
 40
8.0
 40
8.0
 40
8.0
 40
9.0
 40
9.0
 40
9.0
 40
10.0
 40
10.0
 40
10.0
 40
11.0
 40
11.0
 40
11.0
 40
12.0
 40
12.0
 40
12.0
 40
13.0
 40
13.0
 40
13.0
 40
14.0
 40
14.0
 40
14.0
 40
14.0
 10
334.7450707643974
 20
195.6913409273026
 30
0.0
 10
334.594882063919
 20
195.0712618744333
 30
0.0
 10
334.4446933634403
 20
194.451182821564
 30
0.0
 10
334.271356048844
 20
193.8378845498022
 30
0.0
 10
333.9612544201776
 20
192.740689791854
 30
0.0
 10
333.5770646054805
 20
191.665197230399
 30
0.0
 10
333.2014996197159
 20
190.5869674039502
 30
0.0
 10
332.3039729547454
 20
188.0102095673963
 30
0.0
 10
331.4557040906009
 20
185.4178187652599
 30
0.0
 10
330.7091001194038
 20
182.7970311201505
 30
0.0
 10
329.7551852711397
 20
179.4485246223766
 30
0.0
 10
328.9672327952317
 20
176.0536618329607
 30
0.0
 10
328.1884692322781
 20
172.6555760552951
 30
0.0
 10
327.2919599628194
 20
168.743714300309
 30
0.0
 10
326.4076283145227
 20
164.8275812751392
 30
0.0
 10
325.8009166802034
 20
160.8648751214706
 30
0.0
 10
325.1944766592739
 20
156.9039429968332
 30
0.0
 10
324.8654081374418
 20
152.8964794341905
 30
0.0
 10
324.722142558291
 20
148.8887433033195
 30
0.0
 10
324.5735029826587
 20
144.7306740638765
 30
0.0
 10
324.6248669927377
 20
140.572311424219
 30
0.0
 10
324.6138871399589
 20
136.4135406855785
 30
0.0
 10
324.6029071840315
 20
132.2547308780077
 30
0.0
 10
324.5295821938815
 20
128.0955129637855
 30
0.0
 10
324.7415841687673
 20
123.9384047188291
 30
0.0
 10
324.8695805470096
 20
121.4285469705574
 30
0.0
 10
325.1015829185395
 20
118.9194582286343
 30
0.0
 10
325.5431080912154
 20
116.448903164006
 30
0.0
 10
325.9822973708887
 20
113.9914185937583
 30
0.0
 10
326.6287983515156
 20
111.5720610537923
 30
0.0
 10
327.3440319420386
 20
109.1761443655846
 30
0.0
 10
328.0395202943465
 20
106.8463710274371
 30
0.0
 10
328.7999986788201
 20
104.5387621569576
 30
0.0
 10
329.6555757275291
 20
102.2669897630857
 30
0.0
 10
330.3506132463052
 20
100.4214902253839
 30
0.0
 10
331.1084092806677
 20
98.59964027407535
 30
0.0
 10
331.846835292794
 20
96.76905683767012
 30
0.0
 10
332.4006385758397
 20
95.39615948529952
 30
0.0
 10
332.9435468598183
 20
94.01834983542022
 30
0.0
 10
333.5653296889478
 20
92.67645739173909
 30
0.0
 10
333.9395317360033
 20
91.86887816016563
 30
0.0
 10
334.3423012502001
 20
91.07430773397984
 30
0.0
 10
334.7450707643974
 20
90.27973730779409
 30
0.0
  0
SPLINE
  5
99
330
70
100
AcDbEntity
  8
_HONTAI
 62
    18
420
        0
370
    25
100
AcDbSpline
210
0.0
220
0.0
230
1.0
 70
     8
 71
     3
 72
    47
 73
    43
 74
     0
 42
0.0000000001
 43
0.0000000001
 40
0.0
 40
0.0
 40
0.0
 40
0.0
 40
1.0
 40
1.0
 40
1.0
 40
2.0
 40
2.0
 40
2.0
 40
3.0
 40
3.0
 40
3.0
 40
4.0
 40
4.0
 40
4.0
 40
5.0
 40
5.0
 40
5.0
 40
6.0
 40
6.0
 40
6.0
 40
7.0
 40
7.0
 40
7.0
 40
8.0
 40
8.0
 40
8.0
 40
9.0
 40
9.0
 40
9.0
 40
10.0
 40
10.0
 40
10.0
 40
11.0
 40
11.0
 40
11.0
 40
12.0
 40
12.0
 40
12.0
 40
13.0
 40
13.0
 40
13.0
 40
14.0
 40
14.0
 40
14.0
 40
14.0
 10
336.2893608477726
 20
195.6913409273026
 30
0.0
 10
336.2047015872533
 20
195.0728654267808
 30
0.0
 10
336.1200423267344
 20
194.4543899262593
 30
0.0
 10
336.0231264566714
 20
193.8378845498022
 30
0.0
 10
335.8521143169862
 20
192.7500348149083
 30
0.0
 10
335.6429398866536
 20
191.6683192761716
 30
0.0
 10
335.432859067382
 20
190.5869674039502
 30
0.0
 10
334.9279505110865
 20
187.9880446915237
 30
0.0
 10
334.4178063452182
 20
185.3912226400894
 30
0.0
 10
333.8912762196229
 20
182.7970311201499
 30
0.0
 10
333.2057945844614
 20
179.4196922774788
 30
0.0
 10
332.4925403145809
 20
176.0468119341298
 30
0.0
 10
331.8835772342886
 20
172.6555760552951
 30
0.0
 10
331.1814611822884
 20
168.7455834404625
 30
0.0
 10
330.6179835178659
 20
164.8111900890682
 30
0.0
 10
330.1345427528414
 20
160.8648751214713
 30
0.0
 10
329.6468474889252
 20
156.8838307849999
 30
0.0
 10
329.2406040454333
 20
152.8906540777166
 30
0.0
 10
329.0557686309268
 20
148.8887433033195
 30
0.0
 10
328.8639999050618
 20
144.7367179337254
 30
0.0
 10
328.9105610950916
 20
140.5752909652352
 30
0.0
 10
328.9475132125943
 20
136.4135406855785
 30
0.0
 10
328.9844785528516
 20
132.2503011867192
 30
0.0
 10
329.0118279424301
 20
128.0867381452673
 30
0.0
 10
329.3007704458851
 20
123.9384047188291
 30
0.0
 10
329.4750926388257
 20
121.4356694988477
 30
0.0
 10
329.7446305847404
 20
118.9384776176769
 30
0.0
 10
330.0749069548527
 20
116.448903164006
 30
0.0
 10
330.3982440902057
 20
114.0116356361353
 30
0.0
 10
330.7797941861634
 20
111.5816688081548
 30
0.0
 10
331.2756099482025
 20
109.1761443655846
 30
0.0
 10
331.7524513077813
 20
106.8626770789115
 30
0.0
 10
332.3349799989452
 20
104.5718171998708
 30
0.0
 10
332.8628052551743
 20
102.2669897630857
 30
0.0
 10
333.2837717296271
 20
100.4287770803183
 30
0.0
 10
333.6699422071828
 20
98.58167985316033
 30
0.0
 10
334.1817201101155
 20
96.76905683767012
 30
0.0
 10
334.5705864256466
 20
95.39176401310454
 30
0.0
 10
335.0319719243032
 20
94.03437480221054
 30
0.0
 10
335.4880876820293
 20
92.67645739173909
 30
0.0
 10
335.7563943939191
 20
91.87767254545747
 30
0.0
 10
336.0228776208462
 20
91.07870492662577
 30
0.0
 10
336.2893608477726
 20
90.27973730779409
 30
0.0
  0
SPLINE
  5
9A
330
70
100
AcDbEntity
  8
_HONTAI
 62
    18
420
        0
370
    25
100
AcDbSpline
210
0.0
220
0.0
230
1.0
 70
     8
 71
     3
 72
    47
 73
    43
 74
     0
 42
0.0000000001
 43
0.0000000001
 40
0.0
 40
0.0
 40
0.0
 40
0.0
 40
1.0
 40
1.0
 40
1.0
 40
2.0
 40
2.0
 40
2.0
 40
3.0
 40
3.0
 40
3.0
 40
4.0
 40
4.0
 40
4.0
 40
5.0
 40
5.0
 40
5.0
 40
6.0
 40
6.0
 40
6.0
 40
7.0
 40
7.0
 40
7.0
 40
8.0
 40
8.0
 40
8.0
 40
9.0
 40
9.0
 40
9.0
 40
10.0
 40
10.0
 40
10.0
 40
11.0
 40
11.0
 40
11.0
 40
12.0
 40
12.0
 40
12.0
 40
13.0
 40
13.0
 40
13.0
 40
14.0
 40
14.0
 40
14.0
 40
14.0
 10
337.8681512902547
 20
195.6913409273026
 30
0.0
 10
337.8023138148127
 20
195.073924382908
 30
0.0
 10
337.736476339371
 20
194.4565078385131
 30
0.0
 10
337.6868499054699
 20
193.8378845498099
 30
0.0
 10
337.6000915752198
 20
192.7563898833047
 30
0.0
 10
337.5628790799487
 20
191.6712070420316
 30
0.0
 10
337.5098920761141
 20
190.5869674039502
 30
0.0
 10
337.3827158031155
 20
187.9846395456108
 30
0.0
 10
337.164667694825
 20
185.3877451754065
 30
0.0
 10
336.8944478434995
 20
182.7970311201499
 30
0.0
 10
336.5410753625395
 20
179.4090970040115
 30
0.0
 10
336.098482043914
 20
176.0317320742691
 30
0.0
 10
335.6394264277554
 20
172.6555760553021
 30
0.0
 10
335.1056918506803
 20
168.7301884955057
 30
0.0
 10
334.5497031490632
 20
164.8064351699892
 30
0.0
 10
334.1757087273848
 20
160.8648751214706
 30
0.0
 10
333.798103531093
 20
156.8852608022562
 30
0.0
 10
333.606023750544
 20
152.8874942659001
 30
0.0
 10
333.4870322206861
 20
148.8887433033195
 30
0.0
 10
333.3632818298837
 20
144.7300691948903
 30
0.0
 10
333.3185826686338
 20
140.5703303448274
 30
0.0
 10
333.3787768023539
 20
136.4135406855785
 30
0.0
 10
333.4389924756318
 20
132.2552635822103
 30
0.0
 10
333.6041765262595
 20
128.0999377806798
 30
0.0
 10
333.7320340356447
 20
123.9384047188291
 30
0.0
 10
333.8088616171612
 20
121.4378044640526
 30
0.0
 10
333.8722120011777
 20
118.9349630031397
 30
0.0
 10
334.1117124416058
 20
116.448903164006
 30
0.0
 10
334.3461859228905
 20
114.0150241109105
 30
0.0
 10
334.7494925127906
 20
111.5972296020392
 30
0.0
 10
335.1156030729036
 20
109.1761443655891
 30
0.0
 10
335.4633035882545
 20
106.8768045591574
 30
0.0
 10
335.7774548591702
 20
104.5744966557388
 30
0.0
 10
336.0535998989816
 20
102.2669897630908
 30
0.0
 10
336.2729305144259
 20
100.4342322120132
 30
0.0
 10
336.4682850141581
 20
98.59819489433554
 30
0.0
 10
336.7185441916133
 20
96.76905683767012
 30
0.0
 10
336.9059051604069
 20
95.39964021191899
 30
0.0
 10
337.1240403855964
 20
94.03409064515354
 30
0.0
 10
337.3825782919945
 20
92.6764573917468
 30
0.0
 10
337.5350659520047
 20
91.87571478170438
 30
0.0
 10
337.7016086211292
 20
91.07772604474956
 30
0.0
 10
337.8681512902547
 20
90.27973730779409
 30
0.0
  0
LINE
  5
9B
330
70
100
AcDbEntity
  8
_HONTAI
 62
    18
420
        0
370
    25
100
AcDbLine
 10
337.8681512902547
 20
198.0944676751999
 30
0.0
 11
347.6652941449488
 21
198.0944676751999
 31
0.0
  0
SPLINE
  5
9C
330
70
100
AcDbEntity
  8
_HONTAI
 62
    18
420
        0
370
    25
100
AcDbSpline
210
0.0
220
0.0
230
1.0
 70
     8
 71
     3
 72
    11
 73
     7
 74
     0
 42
0.0000000001
 43
0.0000000001
 40
0.0
 40
0.0
 40
0.0
 40
0.0
 40
1.0
 40
1.0
 40
1.0
 40
2.0
 40
2.0
 40
2.0
 40
2.0
 10
352.783519924742
 20
195.6913409272956
 30
0.0
 10
354.5057616510228
 20
195.3200865281502
 30
0.0
 10
356.210795536281
 20
194.9025337512857
 30
0.0
 10
357.8484055689811
 20
194.336192094322
 30
0.0
 10
360.2778899545242
 20
193.4959931550138
 30
0.0
 10
362.558978813945
 20
192.3283195416023
 30
0.0
 10
364.8400676733685
 20
190.8392792406124
 30
0.0
  0
SPLINE
  5
9D
330
70
100
AcDbEntity
  8
_HONTAI
 62
    18
420
        0
370
    25
100
AcDbSpline
210
0.0
220
0.0
230
1.0
 70
     8
 71
     3
 72
     8
 73
     4
 74
     0
 42
0.0000000001
 43
0.0000000001
 40
0.0
 40
0.0
 40
0.0
 40
0.0
 40
1.0
 40
1.0
 40
1.0
 40
1.0
 10
376.6973761600468
 20
172.6516801776838
 30
0.0
 10
375.0109878041249
 20
179.9217749165089
 30
0.0
 10
370.8117093127683
 20
186.3629325907254
 30
0.0
 10
364.8400676734147
 20
190.8392792405749
 30
0.0
  0
SPLINE
  5
9E
330
70
100
AcDbEntity
  8
_HONTAI
 62
    18
420
        0
370
    25
100
AcDbSpline
210
0.0
220
0.0
230
1.0
 70
     8
 71
     3
 72
     8
 73
     4
 74
     0
 42
0.0000000001
 43
0.0000000001
 40
0.0
 40
0.0
 40
0.0
 40
0.0
 40
1.0
 40
1.0
 40
1.0
 40
1.0
 10
380.6976065895825
 20
148.8848474254093
 30
0.0
 10
380.1015368240144
 20
156.9137222824041
 30
0.0
 10
378.7623962421609
 20
164.8700464996059
 30
0.0
 10
376.6973761601193
 20
172.6516801774059
 30
0.0
  0
SPLINE
  5
9F
330
70
100
AcDbEntity
  8
_HONTAI
 62
    18
420
        0
370
    25
100
AcDbSpline
210
0.0
220
0.0
230
1.0
 70
     8
 71
     3
 72
     8
 73
     4
 74
     0
 42
0.0000000001
 43
0.0000000001
 40
0.0
 40
0.0
 40
0.0
 40
0.0
 40
1.0
 40
1.0
 40
1.0
 40
1.0
 10
352.7855489144273
 20
90.27584143015459
 30
0.0
 10
358.62658800393
 20
91.21729889038306
 30
0.0
 10
364.1999599074442
 20
93.39261923564924
 30
0.0
 10
369.1343903486568
 20
96.65689189818165
 30
0.0
  0
SPLINE
  5
A0
330
70
100
AcDbEntity
  8
_HONTAI
 62
    18
420
        0
370
    25
100
AcDbSpline
210
0.0
220
0.0
230
1.0
 70
     8
 71
     3
 72
     8
 73
     4
 74
     0
 42
0.0000000001
 43
0.0000000001
 40
0.0
 40
0.0
 40
0.0
 40
0.0
 40
1.0
 40
1.0
 40
1.0
 40
1.0
 10
369.1343903486613
 20
96.65689189818742
 30
0.0
 10
373.2352171152153
 20
99.86821353205192
 30
0.0
 10
376.2914696161376
 20
104.2236567003431
 30
0.0
 10
377.9165253460355
 20
109.1722484879265
 30
0.0
  0
SPLINE
  5
A1
330
70
100
AcDbEntity
  8
_HONTAI
 62
    18
420
        0
370
    25
100
AcDbSpline
210
0.0
220
0.0
230
1.0
 70
     8
 71
     3
 72
     8
 73
     4
 74
     0
 42
0.0000000001
 43
0.0000000001
 40
0.0
 40
0.0
 40
0.0
 40
0.0
 40
1.0
 40
1.0
 40
1.0
 40
1.0
 10
377.9165253460566
 20
109.1722484879894
 30
0.0
 10
379.603796182599
 20
113.9181967094515
 30
0.0
 10
380.5356831934116
 20
118.899570277857
 30
0.0
 10
380.6781649790918
 20
123.9345088412756
 30
0.0
  0
SPLINE
  5
A2
330
70
100
AcDbEntity
  8
_HONTAI
 62
    18
420
        0
370
    25
100
AcDbSpline
210
0.0
220
0.0
230
1.0
 70
     8
 71
     3
 72
     8
 73
     4
 74
     0
 42
0.0000000001
 43
0.0000000001
 40
0.0
 40
0.0
 40
0.0
 40
0.0
 40
1.0
 40
1.0
 40
1.0
 40
1.0
 10
380.6781649791053
 20
123.9345088435324
 30
0.0
 10
380.7416697038952
 20
132.2511461904718
 30
0.0
 10
380.7481503930412
 20
140.5681212129202
 30
0.0
 10
380.6976065895491
 20
148.8848474278747
 30
0.0
  0
SPLINE
  5
A3
330
70
100
AcDbEntity
  8
_HONTAI
 62
    18
420
        0
370
    25
100
AcDbSpline
210
0.0
220
0.0
230
1.0
 70
     8
 71
     3
 72
     8
 73
     4
 74
     0
 42
0.0000000001
 43
0.0000000001
 40
0.0
 40
0.0
 40
0.0
 40
0.0
 40
1.0
 40
1.0
 40
1.0
 40
1.0
 10
347.7925434673303
 20
198.0741277415735
 30
0.0
 10
347.7514714507788
 20
198.0876021727859
 30
0.0
 10
347.708519957146
 20
198.0944676751957
 30
0.0
 10
347.6652941449488
 20
198.0944676751957
 30
0.0
  0
SPLINE
  5
A4
330
70
100
AcDbEntity
  8
_HONTAI
 62
    18
420
        0
370
    25
100
AcDbSpline
210
0.0
220
0.0
230
1.0
 70
     8
 71
     3
 72
     8
 73
     4
 74
     0
 42
0.0000000001
 43
0.0000000001
 40
0.0
 40
0.0
 40
0.0
 40
0.0
 40
1.0
 40
1.0
 40
1.0
 40
1.0
 10
352.9720798578935
 20
196.0533962471476
 30
0.0
 10
351.3235650733039
 20
196.9119496791867
 30
0.0
 10
349.5869312174968
 20
197.5894757089523
 30
0.0
 10
347.792543467331
 20
198.074127741578
 30
0.0
  0
LINE
  5
A5
330
70
100
AcDbEntity
  8
_HONTAI
 62
    18
420
        0
370
    25
100
AcDbLine
 10
352.9720798579051
 20
196.0533962471386
 30
0.0
 11
352.7835199248427
 21
195.6913409273026
 31
0.0
  0
LINE
  5
A6
330
70
100
AcDbEntity
  8
_HONTAI
 62
    18
420
        0
370
    25
100
AcDbLine
 10
352.9720798579051
 20
196.0533962471386
 30
0.0
 11
337.8681512902547
 21
196.0533962471334
 31
0.0
  0
LINE
  5
A7
330
70
100
AcDbEntity
  8
_HONTAI
 62
    18
420
        0
370
    25
100
AcDbLine
 10
352.7835199248427
 20
195.6913409273026
 30
0.0
 11
337.8681512902547
 21
195.6913409273026
 31
0.0
  0
LINE
  5
A8
330
70
100
AcDbEntity
  8
_HONTAI
 62
    18
420
        0
370
    25
100
AcDbLine
 10
337.8681512902547
 20
87.87661055989717
 30
0.0
 11
347.6652941449488
 21
87.87661055989717
 31
0.0
  0
SPLINE
  5
A9
330
70
100
AcDbEntity
  8
_HONTAI
 62
    18
420
        0
370
    25
100
AcDbSpline
210
0.0
220
0.0
230
1.0
 70
     8
 71
     3
 72
     8
 73
     4
 74
     0
 42
0.0000000001
 43
0.0000000001
 40
0.0
 40
0.0
 40
0.0
 40
0.0
 40
1.0
 40
1.0
 40
1.0
 40
1.0
 10
347.6652941449488
 20
87.87661055989589
 30
0.0
 10
347.7085199571454
 20
87.87661055989589
 30
0.0
 10
347.7514714507775
 20
87.88347606230567
 30
0.0
 10
347.7925434673284
 20
87.89695049351815
 30
0.0
  0
SPLINE
  5
AA
330
70
100
AcDbEntity
  8
_HONTAI
 62
    18
420
        0
370
    25
100
AcDbSpline
210
0.0
220
0.0
230
1.0
 70
     8
 71
     3
 72
     8
 73
     4
 74
     0
 42
0.0000000001
 43
0.0000000001
 40
0.0
 40
0.0
 40
0.0
 40
0.0
 40
1.0
 40
1.0
 40
1.0
 40
1.0
 10
347.792543467331
 20
87.89695049351943
 30
0.0
 10
349.5869312174968
 20
88.38160252614512
 30
0.0
 10
351.3235650733039
 20
89.05912855591004
 30
0.0
 10
352.9720798578935
 20
89.91768198794916
 30
0.0
  0
LINE
  5
AB
330
70
100
AcDbEntity
  8
_HONTAI
 62
    18
420
        0
370
    25
100
AcDbLine
 10
352.9720798579051
 20
89.91768198795815
 30
0.0
 11
352.7835199248427
 21
90.27973730779409
 31
0.0
  0
LINE
  5
AC
330
70
100
AcDbEntity
  8
_HONTAI
 62
    18
420
        0
370
    25
100
AcDbLine
 10
352.9720798579051
 20
89.91768198795815
 30
0.0
 11
337.8681512902547
 21
89.91768198795815
 31
0.0
  0
LINE
  5
AD
330
70
100
AcDbEntity
  8
_HONTAI
 62
    18
420
        0
370
    25
100
AcDbLine
 10
352.7835199248427
 20
90.27973730779409
 30
0.0
 11
337.8681512902547
 21
90.27973730779409
 31
0.0
  0
SPLINE
  5
AE
330
70
100
AcDbEntity
  8
_HONTAI
 62
    18
420
        0
370
    25
100
AcDbSpline
210
0.0
220
0.0
230
1.0
 70
     8
 71
     3
 72
    47
 73
    43
 74
     0
 42
0.0000000001
 43
0.0000000001
 40
0.0
 40
0.0
 40
0.0
 40
0.0
 40
1.0
 40
1.0
 40
1.0
 40
2.0
 40
2.0
 40
2.0
 40
3.0
 40
3.0
 40
3.0
 40
4.0
 40
4.0
 40
4.0
 40
5.0
 40
5.0
 40
5.0
 40
6.0
 40
6.0
 40
6.0
 40
7.0
 40
7.0
 40
7.0
 40
8.0
 40
8.0
 40
8.0
 40
9.0
 40
9.0
 40
9.0
 40
10.0
 40
10.0
 40
10.0
 40
11.0
 40
11.0
 40
11.0
 40
12.0
 40
12.0
 40
12.0
 40
13.0
 40
13.0
 40
13.0
 40
14.0
 40
14.0
 40
14.0
 40
14.0
 10
352.642022780353
 20
195.6913409273026
 30
0.0
 10
354.6960407708763
 20
195.1436028708622
 30
0.0
 10
356.750058761399
 20
194.5958648144215
 30
0.0
 10
358.7306564172869
 20
193.8339886721428
 30
0.0
 10
360.7404545307441
 20
193.0608799951295
 30
0.0
 10
362.6746514411325
 20
192.0672725013701
 30
0.0
 10
364.4539919433297
 20
190.8392792405951
 30
0.0
 10
367.5057107405471
 20
188.7331673906512
 30
0.0
 10
370.1019172694051
 20
185.9376065624454
 30
0.0
 10
372.0693581695168
 20
182.7931352424905
 30
0.0
 10
374.0270915813162
 20
179.6641789596498
 30
0.0
 10
375.3622488025051
 20
176.1897467874063
 30
0.0
 10
376.3910424315503
 20
172.6516801776351
 30
0.0
 10
377.5168572315485
 20
168.7799534870651
 30
0.0
 10
378.2758000647771
 20
164.8320242324548
 30
0.0
 10
378.9420140149873
 20
160.8609792438113
 30
0.0
 10
379.608227965193
 20
156.8899342551928
 30
0.0
 10
380.1817130323814
 20
152.8957735325423
 30
0.0
 10
380.3912728610578
 20
148.8848474256627
 30
0.0
 10
380.6079852601575
 20
144.7370227937818
 30
0.0
 10
380.4355059090544
 20
140.5712687947115
 30
0.0
 10
380.4243202539251
 20
136.4096448079191
 30
0.0
 10
380.4131345987958
 20
132.2480208211216
 30
0.0
 10
380.5632426396409
 20
128.0905268466028
 30
0.0
 10
380.3718312505818
 20
123.9345088411697
 30
0.0
 10
380.2562614253702
 20
121.4252000856907
 30
0.0
 10
380.0161917640021
 20
118.9164293901084
 30
0.0
 10
379.5703073281289
 20
116.4450072863492
 30
0.0
 10
379.1244228922519
 20
113.9735851825676
 30
0.0
 10
378.4727236818659
 20
111.5395116706096
 30
0.0
 10
377.6101916175261
 20
109.1722484879303
 30
0.0
 10
376.7252134589147
 20
106.7433808562563
 30
0.0
 10
375.618286452502
 20
104.3848460751154
 30
0.0
 10
374.1475382575948
 20
102.2630938854263
 30
0.0
 10
372.6916676793028
 20
100.1628046597859
 30
0.0
 10
370.8792992805052
 20
98.29453182146879
 30
0.0
 10
368.8280566201326
 20
96.76516096001074
 30
0.0
 10
366.458034280784
 20
94.9981135127099
 30
0.0
 10
363.7691224877079
 20
93.68348930077651
 30
0.0
 10
360.9936141460925
 20
92.67256151407972
 30
0.0
 10
358.2616482677709
 20
91.67749326755737
 30
0.0
 10
355.4457815993672
 20
90.97666734884573
 30
0.0
 10
352.6299149309636
 20
90.27584143013406
 30
0.0
  0
SPLINE
  5
AF
330
70
100
AcDbEntity
  8
_HONTAI
 62
    18
420
        0
370
    25
100
AcDbSpline
210
0.0
220
0.0
230
1.0
 70
     8
 71
     3
 72
    47
 73
    43
 74
     0
 42
0.0000000001
 43
0.0000000001
 40
0.0
 40
0.0
 40
0.0
 40
0.0
 40
1.0
 40
1.0
 40
1.0
 40
2.0
 40
2.0
 40
2.0
 40
3.0
 40
3.0
 40
3.0
 40
4.0
 40
4.0
 40
4.0
 40
5.0
 40
5.0
 40
5.0
 40
6.0
 40
6.0
 40
6.0
 40
7.0
 40
7.0
 40
7.0
 40
8.0
 40
8.0
 40
8.0
 40
9.0
 40
9.0
 40
9.0
 40
10.0
 40
10.0
 40
10.0
 40
11.0
 40
11.0
 40
11.0
 40
12.0
 40
12.0
 40
12.0
 40
13.0
 40
13.0
 40
13.0
 40
14.0
 40
14.0
 40
14.0
 40
14.0
 10
352.2328409761708
 20
195.6913409273026
 30
0.0
 10
354.1856742426069
 20
195.1336440383528
 30
0.0
 10
356.1385075090424
 20
194.5759471494028
 30
0.0
 10
358.0288925252194
 20
193.8378845498022
 30
0.0
 10
360.035551968047
 20
193.0544249517772
 30
0.0
 10
361.9718447264753
 20
192.0677292825229
 30
0.0
 10
363.7522280512649
 20
190.8431751182548
 30
0.0
 10
366.805735377042
 20
188.7429616084227
 30
0.0
 10
369.4006329455255
 20
185.9430840428501
 30
0.0
 10
371.3675942774518
 20
182.7970311201499
 30
0.0
 10
373.3248504872888
 20
179.6665010382999
 30
0.0
 10
374.6603517343384
 20
176.1932032775721
 30
0.0
 10
375.6892785394872
 20
172.6555760552951
 30
0.0
 10
376.8152390748643
 20
168.7843301889934
 30
0.0
 10
377.5740751498109
 20
164.8360494638354
 30
0.0
 10
378.2402501229224
 20
160.8648751214713
 30
0.0
 10
378.9064250960294
 20
156.8937007791302
 30
0.0
 10
379.4799389673031
 20
152.8996328195824
 30
0.0
 10
379.6895089689903
 20
148.8887433033195
 30
0.0
 10
379.9062318883204
 20
144.7409565109461
 30
0.0
 10
379.7337431328605
 20
140.5751802789664
 30
0.0
 10
379.7225563618602
 20
136.4135406855785
 30
0.0
 10
379.7113695908612
 20
132.2519010921842
 30
0.0
 10
379.8614848043223
 20
128.0943981373812
 30
0.0
 10
379.6700673585162
 20
123.9384047188291
 30
0.0
 10
379.5544938763792
 20
121.4291108083464
 30
0.0
 10
379.3144157353619
 20
118.9203671945651
 30
0.0
 10
378.868543436064
 20
116.448903164006
 30
0.0
 10
378.4226711367616
 20
113.9774391334245
 30
0.0
 10
377.7710046791753
 20
111.5432546860652
 30
0.0
 10
376.9084277254618
 20
109.1761443655846
 30
0.0
 10
376.0234035092997
 20
106.7474335741203
 30
0.0
 10
374.9163487095437
 20
104.3893333393066
 30
0.0
 10
373.4457743655318
 20
102.2669897630857
 30
0.0
 10
371.9900758795147
 20
100.1661151331879
 30
0.0
 10
370.1781751454238
 20
98.29625160878963
 30
0.0
 10
368.1262927280677
 20
96.76905683767012
 30
0.0
 10
365.7555312083328
 20
95.00452366272584
 30
0.0
 10
363.0644018625441
 20
93.69744224847968
 30
0.0
 10
360.2918502540294
 20
92.67645739173909
 30
0.0
 10
357.6532685917399
 20
91.70480661625914
 30
0.0
 10
354.9409432217848
 20
90.99227196202695
 30
0.0
 10
352.2286178518298
 20
90.27973730779409
 30
0.0
  0
SPLINE
  5
B0
330
70
100
AcDbEntity
  8
_HONTAI
 62
    18
420
        0
370
    25
100
AcDbSpline
210
0.0
220
0.0
230
1.0
 70
     8
 71
     3
 72
    47
 73
    43
 74
     0
 42
0.0000000001
 43
0.0000000001
 40
0.0
 40
0.0
 40
0.0
 40
0.0
 40
1.0
 40
1.0
 40
1.0
 40
2.0
 40
2.0
 40
2.0
 40
3.0
 40
3.0
 40
3.0
 40
4.0
 40
4.0
 40
4.0
 40
5.0
 40
5.0
 40
5.0
 40
6.0
 40
6.0
 40
6.0
 40
7.0
 40
7.0
 40
7.0
 40
8.0
 40
8.0
 40
8.0
 40
9.0
 40
9.0
 40
9.0
 40
10.0
 40
10.0
 40
10.0
 40
11.0
 40
11.0
 40
11.0
 40
12.0
 40
12.0
 40
12.0
 40
13.0
 40
13.0
 40
13.0
 40
14.0
 40
14.0
 40
14.0
 40
14.0
 10
351.6662766257898
 20
195.6913409273026
 30
0.0
 10
353.4133668221463
 20
195.1115509721559
 30
0.0
 10
355.1604570185034
 20
194.5317610170092
 30
0.0
 10
356.8677009187616
 20
193.8378845498022
 30
0.0
 10
358.8648636375932
 20
193.0261761515057
 30
0.0
 10
360.8074978352927
 20
192.0583436113695
 30
0.0
 10
362.5910364448044
 20
190.8431751182548
 30
0.0
 10
365.6499553495839
 20
188.7590588248048
 30
0.0
 10
368.2408923793624
 20
185.9474004018147
 30
0.0
 10
370.2064026709914
 20
182.7970311201505
 30
0.0
 10
372.1622150000629
 20
179.6622059765473
 30
0.0
 10
373.4987571617757
 20
176.1920041735488
 30
0.0
 10
374.5280869330268
 20
172.6555760552951
 30
0.0
 10
375.654488436533
 20
168.7856423754397
 30
0.0
 10
376.4130015329488
 20
164.8364023447239
 30
0.0
 10
377.0790585164619
 20
160.8648751214713
 30
0.0
 10
377.7451154999706
 20
156.8933478982417
 30
0.0
 10
378.3187163705774
 20
152.8995334824759
 30
0.0
 10
378.5283173625299
 20
148.8887433033195
 30
0.0
 10
378.7450723298667
 20
144.741059238567
 30
0.0
 10
378.5725557247622
 20
140.5752208213108
 30
0.0
 10
378.5613647553998
 20
136.4135406855785
 30
0.0
 10
378.5501737860379
 20
132.2518605498398
 30
0.0
 10
378.7003084524181
 20
128.0943386956255
 30
0.0
 10
378.5088757520565
 20
123.9384047188291
 30
0.0
 10
378.3932930595669
 20
121.4291466979211
 30
0.0
 10
378.1531930556959
 20
118.9204675327413
 30
0.0
 10
377.7073518296062
 20
116.448903164006
 30
0.0
 10
377.2615106035119
 20
113.9773387952489
 30
0.0
 10
376.6099281551944
 20
111.5428892229363
 30
0.0
 10
375.7472361190033
 20
109.1761443655846
 30
0.0
 10
374.8620938255169
 20
106.7478085478745
 30
0.0
 10
373.7547113597366
 20
104.3907471221503
 30
0.0
 10
372.2845827590714
 20
102.2669897630857
 30
0.0
 10
370.8293255074038
 20
100.1647156517182
 30
0.0
 10
369.0186238490526
 20
98.29104942221585
 30
0.0
 10
366.9651011216067
 20
96.76905683767012
 30
0.0
 10
364.5924443743448
 20
95.01053431111476
 30
0.0
 10
361.8956293123
 20
93.72148478592453
 30
0.0
 10
359.130658647569
 20
92.67645739173909
 30
0.0
 10
356.6782755317452
 20
91.74957322267216
 30
0.0
 10
354.1722760787672
 20
91.01465526523313
 30
0.0
 10
351.6662766257898
 20
90.27973730779409
 30
0.0
  0
SPLINE
  5
B1
330
70
100
AcDbEntity
  8
_HONTAI
 62
    18
420
        0
370
    25
100
AcDbSpline
210
0.0
220
0.0
230
1.0
 70
     8
 71
     3
 72
    47
 73
    43
 74
     0
 42
0.0000000001
 43
0.0000000001
 40
0.0
 40
0.0
 40
0.0
 40
0.0
 40
1.0
 40
1.0
 40
1.0
 40
2.0
 40
2.0
 40
2.0
 40
3.0
 40
3.0
 40
3.0
 40
4.0
 40
4.0
 40
4.0
 40
5.0
 40
5.0
 40
5.0
 40
6.0
 40
6.0
 40
6.0
 40
7.0
 40
7.0
 40
7.0
 40
8.0
 40
8.0
 40
8.0
 40
9.0
 40
9.0
 40
9.0
 40
10.0
 40
10.0
 40
10.0
 40
11.0
 40
11.0
 40
11.0
 40
12.0
 40
12.0
 40
12.0
 40
13.0
 40
13.0
 40
13.0
 40
14.0
 40
14.0
 40
14.0
 40
14.0
 10
350.9485371267833
 20
195.6913409273026
 30
0.0
 10
352.3920703238193
 20
195.1183269681387
 30
0.0
 10
353.8356035208551
 20
194.5453130089748
 30
0.0
 10
355.2598627878224
 20
193.918755556189
 30
0.0
 10
357.2450462058896
 20
193.045437407882
 30
0.0
 10
359.1927846572288
 20
192.0680961397413
 30
0.0
 10
360.9831983138672
 20
190.8431751182548
 30
0.0
 10
364.0360022570941
 20
188.7545830710091
 30
0.0
 10
366.6314145440079
 20
185.9462003914724
 30
0.0
 10
368.5985645400541
 20
182.7970311201499
 30
0.0
 10
370.556008483129
 20
179.6634000659557
 30
0.0
 10
371.8913746187172
 20
176.1923370523389
 30
0.0
 10
372.9202488020876
 20
172.6555760552951
 30
0.0
 10
374.0461517531486
 20
168.7852781042598
 30
0.0
 10
374.8050290255964
 20
164.8363064824267
 30
0.0
 10
375.4712203855247
 20
160.8648751214713
 30
0.0
 10
376.1374117454491
 20
156.8934437605389
 30
0.0
 10
376.710917192856
 20
152.8995526604853
 30
0.0
 10
376.9204792315926
 20
148.8887433033195
 30
0.0
 10
377.1371939161856
 20
144.7410394059855
 30
0.0
 10
376.9646974189047
 20
140.5752426549583
 30
0.0
 10
376.9535266244606
 20
136.4135406855785
 30
0.0
 10
376.9423558300164
 20
132.2518387161917
 30
0.0
 10
377.0925107384091
 20
128.0942315284522
 30
0.0
 10
376.9010376211192
 20
123.9384047188291
 30
0.0
 10
376.7854305258111
 20
121.4292114030123
 30
0.0
 10
376.5452840060957
 20
118.9206671184492
 30
0.0
 10
376.0995136986669
 20
116.448903164006
 30
0.0
 10
375.6537433912338
 20
113.9771392095411
 30
0.0
 10
375.0023492960836
 20
111.5421555851973
 30
0.0
 10
374.1393979880641
 20
109.1761443655846
 30
0.0
 10
373.2539896755907
 20
106.7485612774286
 30
0.0
 10
372.1458699651562
 20
104.3935871089594
 30
0.0
 10
370.6767446281322
 20
102.2669897630857
 30
0.0
 10
369.2224804914142
 20
100.1619043933041
 30
0.0
 10
367.4144774215613
 20
98.28059884197218
 30
0.0
 10
365.3572629906701
 20
96.76905683767012
 30
0.0
 10
362.9803408194247
 20
95.02260899594617
 30
0.0
 10
360.2707294992501
 20
93.76978359283715
 30
0.0
 10
357.5228205166299
 20
92.67645739173909
 30
0.0
 10
355.3473943787854
 20
91.81090820139079
 30
0.0
 10
353.1479657527841
 20
91.04532275459211
 30
0.0
 10
350.9485371267833
 20
90.27973730779409
 30
0.0
  0
SPLINE
  5
B2
330
70
100
AcDbEntity
  8
_HONTAI
 62
    18
420
        0
370
    25
100
AcDbSpline
210
0.0
220
0.0
230
1.0
 70
     8
 71
     3
 72
    47
 73
    43
 74
     0
 42
0.0000000001
 43
0.0000000001
 40
0.0
 40
0.0
 40
0.0
 40
0.0
 40
1.0
 40
1.0
 40
1.0
 40
2.0
 40
2.0
 40
2.0
 40
3.0
 40
3.0
 40
3.0
 40
4.0
 40
4.0
 40
4.0
 40
5.0
 40
5.0
 40
5.0
 40
6.0
 40
6.0
 40
6.0
 40
7.0
 40
7.0
 40
7.0
 40
8.0
 40
8.0
 40
8.0
 40
9.0
 40
9.0
 40
9.0
 40
10.0
 40
10.0
 40
10.0
 40
11.0
 40
11.0
 40
11.0
 40
12.0
 40
12.0
 40
12.0
 40
13.0
 40
13.0
 40
13.0
 40
14.0
 40
14.0
 40
14.0
 40
14.0
 10
350.0874861833079
 20
195.6913409273026
 30
0.0
 10
351.3025255629484
 20
195.0763691887653
 30
0.0
 10
352.5175649425894
 20
194.4613974502282
 30
0.0
 10
353.7304453532406
 20
193.8378845498022
 30
0.0
 10
355.5151857850859
 20
192.9203920473309
 30
0.0
 10
357.2952514435173
 20
191.9844055337288
 30
0.0
 10
358.9463700058813
 20
190.8431751182548
 30
0.0
 10
361.9876886670283
 20
188.7410575366569
 30
0.0
 10
364.5915064795239
 20
185.942573894961
 30
0.0
 10
366.5617362320658
 20
182.7970311201505
 30
0.0
 10
368.5222447359064
 20
179.6670086690847
 30
0.0
 10
369.8554020889393
 20
176.1933434628613
 30
0.0
 10
370.8834204941011
 20
172.6555760552951
 30
0.0
 10
372.0083869621356
 20
168.7841767834225
 30
0.0
 10
372.7679479811763
 20
164.8360147979506
 30
0.0
 10
373.4343920775382
 20
160.8648751214706
 30
0.0
 10
374.1008361738969
 20
156.893735445015
 30
0.0
 10
374.6741633475779
 20
152.8996180775519
 30
0.0
 10
374.8836509236067
 20
148.8887433033195
 30
0.0
 10
375.100288603975
 20
144.7409717561425
 30
0.0
 10
374.9278261208526
 20
140.5752793730922
 30
0.0
 10
374.9166983164748
 20
136.4135406855785
 30
0.0
 10
374.9055705120962
 20
132.2518019980584
 30
0.0
 10
375.055777386463
 20
128.0940170060749
 30
0.0
 10
374.8642093131334
 20
123.9384047188291
 30
0.0
 10
374.7485448855377
 20
121.4293409267241
 30
0.0
 10
374.5082874735758
 20
118.9210691873113
 30
0.0
 10
374.0626853906779
 20
116.448903164006
 30
0.0
 10
373.6170833077756
 20
113.9767371406789
 30
0.0
 10
372.9661365539335
 20
111.5406768334593
 30
0.0
 10
372.1025696800757
 20
109.1761443655846
 30
0.0
 10
371.2165297825919
 20
106.7500785114466
 30
0.0
 10
370.1066595390707
 20
104.3993117448583
 30
0.0
 10
368.6399163201431
 20
102.2669897630857
 30
0.0
 10
367.18801020478
 20
100.1562376659846
 30
0.0
 10
365.3864146212016
 20
98.25953327185033
 30
0.0
 10
363.3204346826842
 20
96.76905683767012
 30
0.0
 10
360.9333847731205
 20
95.04694832582808
 30
0.0
 10
358.1933902559409
 20
93.86714107065783
 30
0.0
 10
355.485992208644
 20
92.67645739173909
 30
0.0
 10
353.6767861924569
 20
91.88078862133972
 30
0.0
 10
351.8821361878821
 20
91.08026296456658
 30
0.0
 10
350.0874861833079
 20
90.27973730779409
 30
0.0
  0
SPLINE
  5
B3
330
70
100
AcDbEntity
  8
_HONTAI
 62
    18
420
        0
370
    25
100
AcDbSpline
210
0.0
220
0.0
230
1.0
 70
     8
 71
     3
 72
    47
 73
    43
 74
     0
 42
0.0000000001
 43
0.0000000001
 40
0.0
 40
0.0
 40
0.0
 40
0.0
 40
1.0
 40
1.0
 40
1.0
 40
2.0
 40
2.0
 40
2.0
 40
3.0
 40
3.0
 40
3.0
 40
4.0
 40
4.0
 40
4.0
 40
5.0
 40
5.0
 40
5.0
 40
6.0
 40
6.0
 40
6.0
 40
7.0
 40
7.0
 40
7.0
 40
8.0
 40
8.0
 40
8.0
 40
9.0
 40
9.0
 40
9.0
 40
10.0
 40
10.0
 40
10.0
 40
11.0
 40
11.0
 40
11.0
 40
12.0
 40
12.0
 40
12.0
 40
13.0
 40
13.0
 40
13.0
 40
14.0
 40
14.0
 40
14.0
 40
14.0
 10
349.0925576496823
 20
195.6913409273026
 30
0.0
 10
350.0618986041406
 20
195.0722073843342
 30
0.0
 10
351.0312395585997
 20
194.4530738413658
 30
0.0
 10
352.0027050493433
 20
193.8378845498022
 30
0.0
 10
353.5246994701204
 20
192.8740678435959
 30
0.0
 10
355.0519086652162
 20
191.9199324881263
 30
0.0
 10
356.5028470581786
 20
190.8431751182548
 30
0.0
 10
359.4765321703705
 20
188.6363706283057
 30
0.0
 10
362.1298484005389
 20
185.91450301372
 30
0.0
 10
364.1182132843637
 20
182.7970311201505
 30
0.0
 10
366.0967674395063
 20
179.6949410466731
 30
0.0
 10
367.4169158911218
 20
176.2011409404927
 30
0.0
 10
368.4398975463984
 20
172.6555760552951
 30
0.0
 10
369.5593522699927
 20
168.7756439586928
 30
0.0
 10
370.3229482367796
 20
164.8337232747564
 30
0.0
 10
370.9908691298354
 20
160.8648751214713
 30
0.0
 10
371.6587900228875
 20
156.8960269682092
 30
0.0
 10
372.2310358422098
 20
152.9002513455983
 30
0.0
 10
372.440127975904
 20
148.8887433033195
 30
0.0
 10
372.6563567169374
 20
144.740316873771
 30
0.0
 10
372.4842188278373
 20
140.5750657580023
 30
0.0
 10
372.473175368772
 20
136.4135406855785
 30
0.0
 10
372.4621319097067
 20
132.2520156131483
 30
0.0
 10
372.6121828806775
 20
128.0942165840625
 30
0.0
 10
372.4206863654306
 20
123.9384047188291
 30
0.0
 10
372.3050651429712
 20
121.4292204260933
 30
0.0
 10
372.0649338565134
 20
118.9207605477028
 30
0.0
 10
371.6191624429777
 20
116.448903164006
 30
0.0
 10
371.173391029439
 20
113.9770457802875
 30
0.0
 10
370.5219794888193
 20
111.5417908912634
 30
0.0
 10
369.6590467323755
 20
109.1761443655846
 30
0.0
 10
368.7736574542549
 20
106.7489354619713
 30
0.0
 10
367.6655946731338
 20
104.3950049670693
 30
0.0
 10
366.196393372443
 20
102.2669897630857
 30
0.0
 10
364.7420540404819
 20
100.1605008777914
 30
0.0
 10
362.9338455574134
 20
98.27537982751744
 30
0.0
 10
360.8769117349789
 20
96.76905683767012
 30
0.0
 10
358.6398539090936
 20
95.13082638222391
 30
0.0
 10
356.1086020812863
 20
93.94064081678015
 30
0.0
 10
353.6330599245421
 20
92.67645739173909
 30
0.0
 10
352.1054161224349
 20
91.89633657306108
 30
0.0
 10
350.5989868860585
 20
91.08803694042759
 30
0.0
 10
349.0925576496823
 20
90.27973730779409
 30
0.0
  0
SPLINE
  5
B4
330
70
100
AcDbEntity
  8
_HONTAI
 62
    18
420
        0
370
    25
100
AcDbSpline
210
0.0
220
0.0
230
1.0
 70
     8
 71
     3
 72
    47
 73
    43
 74
     0
 42
0.0000000001
 43
0.0000000001
 40
0.0
 40
0.0
 40
0.0
 40
0.0
 40
1.0
 40
1.0
 40
1.0
 40
2.0
 40
2.0
 40
2.0
 40
3.0
 40
3.0
 40
3.0
 40
4.0
 40
4.0
 40
4.0
 40
5.0
 40
5.0
 40
5.0
 40
6.0
 40
6.0
 40
6.0
 40
7.0
 40
7.0
 40
7.0
 40
8.0
 40
8.0
 40
8.0
 40
9.0
 40
9.0
 40
9.0
 40
10.0
 40
10.0
 40
10.0
 40
11.0
 40
11.0
 40
11.0
 40
12.0
 40
12.0
 40
12.0
 40
13.0
 40
13.0
 40
13.0
 40
14.0
 40
14.0
 40
14.0
 40
14.0
 10
347.9746521711252
 20
195.6913409273026
 30
0.0
 10
348.7607613921998
 20
195.079176808553
 30
0.0
 10
349.5468706132744
 20
194.4670126898033
 30
0.0
 10
350.3172604023847
 20
193.8378845498022
 30
0.0
 10
351.5000259591793
 20
192.8719954566159
 30
0.0
 10
352.6457393884197
 20
191.866120625988
 30
0.0
 10
353.7906311731502
 20
190.8431751182548
 30
0.0
 10
356.5373351880656
 20
188.3890317916934
 30
0.0
 10
359.2793100996398
 20
185.8366355161575
 30
0.0
 10
361.2950244944926
 20
182.7970311201505
 30
0.0
 10
363.3146457114757
 20
179.751535416449
 30
0.0
 10
364.6051884328234
 20
176.2169411656618
 30
0.0
 10
365.616708756526
 20
172.6555760552951
 30
0.0
 10
366.7236212788955
 20
168.7583536811905
 30
0.0
 10
367.4964030545916
 20
164.82907306597
 30
0.0
 10
368.1676803399631
 20
160.8648751214713
 30
0.0
 10
368.8389576253294
 20
156.9006771769957
 30
0.0
 10
369.4087304203718
 20
152.9015619032418
 30
0.0
 10
369.616939186031
 20
148.8887433033195
 30
0.0
 10
369.8322544084418
 20
144.7389615849604
 30
0.0
 10
369.6609030232251
 20
140.5745251492841
 30
0.0
 10
369.649986578899
 20
136.4135406855785
 30
0.0
 10
369.6390701345728
 20
132.2525562218658
 30
0.0
 10
369.7885886311385
 20
128.0950237301238
 30
0.0
 10
369.5974975755576
 20
123.9384047188291
 30
0.0
 10
369.4821211603847
 20
121.4287330897355
 30
0.0
 10
369.2425766021343
 20
118.9193944670717
 30
0.0
 10
368.7959736531054
 20
116.448903164006
 30
0.0
 10
368.3493707040719
 20
113.9784118609186
 30
0.0
 10
367.6957093642567
 20
111.54676787743
 30
0.0
 10
366.8358579424999
 20
109.1761443655846
 30
0.0
 10
365.9536301861473
 20
106.7438289572566
 30
0.0
 10
364.8543411404545
 20
104.3757512762063
 30
0.0
 10
363.3732045825706
 20
102.2669897630857
 30
0.0
 10
361.9070507266464
 20
100.1795598044986
 30
0.0
 10
360.0667355789491
 20
98.34622623065351
 30
0.0
 10
358.0537229451085
 20
96.76905683767012
 30
0.0
 10
356.1088951291753
 20
95.24530936865405
 30
0.0
 10
354.0028709165838
 20
93.96066638129672
 30
0.0
 10
351.899272241614
 20
92.67645739173909
 30
0.0
 10
350.590439573218
 20
91.87743869174646
 30
0.0
 10
349.2825458721716
 20
91.07858799977028
 30
0.0
 10
347.9746521711252
 20
90.27973730779409
 30
0.0
  0
SPLINE
  5
B5
330
70
100
AcDbEntity
  8
_HONTAI
 62
    18
420
        0
370
    25
100
AcDbSpline
210
0.0
220
0.0
230
1.0
 70
     8
 71
     3
 72
    47
 73
    43
 74
     0
 42
0.0000000001
 43
0.0000000001
 40
0.0
 40
0.0
 40
0.0
 40
0.0
 40
1.0
 40
1.0
 40
1.0
 40
2.0
 40
2.0
 40
2.0
 40
3.0
 40
3.0
 40
3.0
 40
4.0
 40
4.0
 40
4.0
 40
5.0
 40
5.0
 40
5.0
 40
6.0
 40
6.0
 40
6.0
 40
7.0
 40
7.0
 40
7.0
 40
8.0
 40
8.0
 40
8.0
 40
9.0
 40
9.0
 40
9.0
 40
10.0
 40
10.0
 40
10.0
 40
11.0
 40
11.0
 40
11.0
 40
12.0
 40
12.0
 40
12.0
 40
13.0
 40
13.0
 40
13.0
 40
14.0
 40
14.0
 40
14.0
 40
14.0
 10
346.7460177539973
 20
195.6913409273026
 30
0.0
 10
347.3398848579109
 20
195.073461527882
 30
0.0
 10
347.9337519618251
 20
194.455582128462
 30
0.0
 10
348.5267682563546
 20
193.8378845498022
 30
0.0
 10
349.4835759374995
 20
192.8412546201718
 30
0.0
 10
350.4381687482177
 20
191.8450980156278
 30
0.0
 10
351.3955245396112
 20
190.8431751182548
 30
0.0
 10
353.8167130609561
 20
188.309274722812
 30
0.0
 10
356.2555736888907
 20
185.7384929469075
 30
0.0
 10
358.1229897525284
 20
182.7970311201499
 30
0.0
 10
360.0858121445248
 20
179.7052899430322
 30
0.0
 10
361.4173081620389
 20
176.204025065421
 30
0.0
 10
362.4446740145665
 20
172.6555760552951
 30
0.0
 10
363.5689263904897
 20
168.7724878441549
 30
0.0
 10
364.3289813400747
 20
164.8328963932688
 30
0.0
 10
364.9956455980009
 20
160.8648751214713
 30
0.0
 10
365.6623098559238
 20
156.8968538496968
 30
0.0
 10
366.2355834221884
 20
152.9004027570105
 30
0.0
 10
366.444904444072
 20
148.8887433033195
 30
0.0
 10
366.6613698855686
 20
144.7401602944755
 30
0.0
 10
366.4886143752084
 20
140.5753130422893
 30
0.0
 10
366.47795183694
 20
136.4135406855785
 30
0.0
 10
366.4672892986716
 20
132.2517683288612
 30
0.0
 10
366.6187197324963
 20
128.0930708676186
 30
0.0
 10
366.4254628335961
 20
123.9384047188291
 30
0.0
 10
366.3087787316904
 20
121.4299121835165
 30
0.0
 10
366.066439944598
 20
118.9228892505045
 30
0.0
 10
365.6239389111432
 20
116.448903164006
 30
0.0
 10
365.1814378776838
 20
113.9749170774857
 30
0.0
 10
364.5387745978581
 20
111.5339678374795
 30
0.0
 10
363.663823200543
 20
109.1761443655846
 30
0.0
 10
362.7661025145739
 20
106.7569620989137
 30
0.0
 10
361.6238465056337
 20
104.4252883400901
 30
0.0
 10
360.2011698406091
 20
102.2669897630857
 30
0.0
 10
358.8678430794776
 20
100.2442411498721
 30
0.0
 10
357.2882127087702
 20
98.37377423262651
 30
0.0
 10
355.4860262269383
 20
96.76905683767012
 30
0.0
 10
353.7938844521858
 20
95.26232633666365
 30
0.0
 10
351.9055360996055
 20
93.98988194024672
 30
0.0
 10
350.0546827933407
 20
92.67645739173909
 30
0.0
 10
348.9427729672493
 20
91.88741070912451
 30
0.0
 10
347.8443953606236
 20
91.08357400845898
 30
0.0
 10
346.7460177539973
 20
90.27973730779409
 30
0.0
  0
SPLINE
  5
B6
330
70
100
AcDbEntity
  8
_HONTAI
 62
    18
420
        0
370
    25
100
AcDbSpline
210
0.0
220
0.0
230
1.0
 70
     8
 71
     3
 72
    47
 73
    43
 74
     0
 42
0.0000000001
 43
0.0000000001
 40
0.0
 40
0.0
 40
0.0
 40
0.0
 40
1.0
 40
1.0
 40
1.0
 40
2.0
 40
2.0
 40
2.0
 40
3.0
 40
3.0
 40
3.0
 40
4.0
 40
4.0
 40
4.0
 40
5.0
 40
5.0
 40
5.0
 40
6.0
 40
6.0
 40
6.0
 40
7.0
 40
7.0
 40
7.0
 40
8.0
 40
8.0
 40
8.0
 40
9.0
 40
9.0
 40
9.0
 40
10.0
 40
10.0
 40
10.0
 40
11.0
 40
11.0
 40
11.0
 40
12.0
 40
12.0
 40
12.0
 40
13.0
 40
13.0
 40
13.0
 40
14.0
 40
14.0
 40
14.0
 40
14.0
 10
345.4201155740776
 20
195.6913409273026
 30
0.0
 10
345.9725843290181
 20
195.0821681561695
 30
0.0
 10
346.5250530839586
 20
194.4729953850364
 30
0.0
 10
347.0449701268327
 20
193.8378845498022
 30
0.0
 10
347.8320742614052
 20
192.8763881511431
 30
0.0
 10
348.544573021422
 20
191.8554442191682
 30
0.0
 10
349.2711923877205
 20
190.8431751182548
 30
0.0
 10
351.1700005982933
 20
188.1979044727526
 30
0.0
 10
353.1652364645292
 20
185.6118730416203
 30
0.0
 10
354.7800050093686
 20
182.7970311201505
 30
0.0
 10
356.596315980665
 20
179.6308632623676
 30
0.0
 10
357.9312589570884
 20
176.1752039272726
 30
0.0
 10
358.9580087767689
 20
172.6555760552951
 30
0.0
 10
360.0872754632661
 20
168.7845274039987
 30
0.0
 10
360.8437328357827
 20
164.836098493505
 30
0.0
 10
361.5089803602008
 20
160.8648751214706
 30
0.0
 10
362.1742278846151
 20
156.8936517494599
 30
0.0
 10
362.7482655609329
 20
152.8996339159085
 30
0.0
 10
362.9582392062713
 20
148.8887433033195
 30
0.0
 10
363.1753795461767
 20
144.7409553772012
 30
0.0
 10
363.0031797073635
 20
140.5751232329048
 30
0.0
 10
362.9912865991392
 20
136.4135406855785
 30
0.0
 10
362.9793934909151
 20
132.2519581382458
 30
0.0
 10
363.12780711328
 20
128.0946251878831
 30
0.0
 10
362.938797595796
 20
123.9384047188291
 30
0.0
 10
362.8246779657865
 20
121.4289737204384
 30
0.0
 10
362.5875517893017
 20
118.9199482736178
 30
0.0
 10
362.137273673345
 20
116.448903164006
 30
0.0
 10
361.6869955573844
 20
113.9778580543725
 30
0.0
 10
361.0235655019493
 20
111.5447932819496
 30
0.0
 10
360.1771579627428
 20
109.1761443655846
 30
0.0
 10
359.321752365465
 20
106.7823146237729
 30
0.0
 10
358.279458181282
 20
104.4542776126562
 30
0.0
 10
356.9816366524494
 20
102.2669897630857
 30
0.0
 10
355.8077443828193
 20
100.2885665045526
 30
0.0
 10
354.4247954958195
 20
98.42529547620678
 30
0.0
 10
352.8365182876401
 20
96.76905683767012
 30
0.0
 10
351.4239507923737
 20
95.29604642541194
 30
0.0
 10
349.848972586889
 20
93.98679460852859
 30
0.0
 10
348.2812528952991
 20
92.67645739173909
 30
0.0
 10
347.3257428670356
 20
91.87781949890299
 30
0.0
 10
346.3729292205566
 20
91.0787784033482
 30
0.0
 10
345.4201155740776
 20
90.27973730779409
 30
0.0
  0
SPLINE
  5
B7
330
70
100
AcDbEntity
  8
_HONTAI
 62
    18
420
        0
370
    25
100
AcDbSpline
210
0.0
220
0.0
230
1.0
 70
     8
 71
     3
 72
    47
 73
    43
 74
     0
 42
0.0000000001
 43
0.0000000001
 40
0.0
 40
0.0
 40
0.0
 40
0.0
 40
1.0
 40
1.0
 40
1.0
 40
2.0
 40
2.0
 40
2.0
 40
3.0
 40
3.0
 40
3.0
 40
4.0
 40
4.0
 40
4.0
 40
5.0
 40
5.0
 40
5.0
 40
6.0
 40
6.0
 40
6.0
 40
7.0
 40
7.0
 40
7.0
 40
8.0
 40
8.0
 40
8.0
 40
9.0
 40
9.0
 40
9.0
 40
10.0
 40
10.0
 40
10.0
 40
11.0
 40
11.0
 40
11.0
 40
12.0
 40
12.0
 40
12.0
 40
13.0
 40
13.0
 40
13.0
 40
14.0
 40
14.0
 40
14.0
 40
14.0
 10
344.0114724931169
 20
195.6913409273026
 30
0.0
 10
344.3909163075133
 20
195.0730690223171
 30
0.0
 10
344.7703601219096
 20
194.4547971173323
 30
0.0
 10
345.1520119309466
 20
193.8378845498022
 30
0.0
 10
345.7688421009966
 20
192.8408231579133
 30
0.0
 10
346.3914398636936
 20
191.8473125467025
 30
0.0
 10
346.9967762184089
 20
190.8431751182548
 30
0.0
 10
348.568864675847
 20
188.2353805447969
 30
0.0
 10
350.0245307028889
 20
185.5559116391252
 30
0.0
 10
351.3212178839636
 20
182.7970311201505
 30
0.0
 10
352.8622420576978
 20
179.5182900064576
 30
0.0
 10
354.1787292871326
 20
176.1273903166688
 30
0.0
 10
355.1943010629377
 20
172.6555760552951
 30
0.0
 10
356.3228475397943
 20
168.7975486402788
 30
0.0
 10
357.0798056193402
 20
164.8396030734632
 30
0.0
 10
357.7452726463741
 20
160.8648751214706
 30
0.0
 10
358.4107396734041
 20
156.8901471695018
 30
0.0
 10
358.9847156479228
 20
152.8986368323565
 30
0.0
 10
359.1945314924458
 20
148.8887433033195
 30
0.0
 10
359.4115086455725
 20
144.7419864926112
 30
0.0
 10
359.2390428490249
 20
140.5755701862995
 30
0.0
 10
359.2275788853113
 20
136.4135406855785
 30
0.0
 10
359.2161149215976
 20
132.2515111848511
 30
0.0
 10
359.3656527907179
 20
128.0938684897137
 30
0.0
 10
359.1750898819699
 20
123.9384047188291
 30
0.0
 10
359.0600323497921
 20
121.4294305975117
 30
0.0
 10
358.8209921466039
 20
118.9212507961902
 30
0.0
 10
358.373565959517
 20
116.448903164006
 30
0.0
 10
357.9261397724264
 20
113.9765555318
 30
0.0
 10
357.270327601434
 20
111.5400400687307
 30
0.0
 10
356.4134502489123
 20
109.1761443655846
 30
0.0
 10
355.5474635349764
 20
106.7871183678375
 30
0.0
 10
354.4761139158486
 20
104.4722643612758
 30
0.0
 10
353.2179289386214
 20
102.2669897630857
 30
0.0
 10
352.1286098692949
 20
100.3576936608524
 30
0.0
 10
350.8992417101556
 20
98.53053670273466
 30
0.0
 10
349.5834346113172
 20
96.76905683767012
 30
0.0
 10
348.5290262845164
 20
95.35751327717827
 30
0.0
 10
347.4191116122114
 20
93.98814394315762
 30
0.0
 10
346.2452659575311
 20
92.67645739173909
 30
0.0
 10
345.5170700523307
 20
91.86275179778757
 30
0.0
 10
344.7642712727241
 20
91.0712445527905
 30
0.0
 10
344.0114724931169
 20
90.27973730779409
 30
0.0
  0
SPLINE
  5
B8
330
70
100
AcDbEntity
  8
_HONTAI
 62
    18
420
        0
370
    25
100
AcDbSpline
210
0.0
220
0.0
230
1.0
 70
     8
 71
     3
 72
    47
 73
    43
 74
     0
 42
0.0000000001
 43
0.0000000001
 40
0.0
 40
0.0
 40
0.0
 40
0.0
 40
1.0
 40
1.0
 40
1.0
 40
2.0
 40
2.0
 40
2.0
 40
3.0
 40
3.0
 40
3.0
 40
4.0
 40
4.0
 40
4.0
 40
5.0
 40
5.0
 40
5.0
 40
6.0
 40
6.0
 40
6.0
 40
7.0
 40
7.0
 40
7.0
 40
8.0
 40
8.0
 40
8.0
 40
9.0
 40
9.0
 40
9.0
 40
10.0
 40
10.0
 40
10.0
 40
11.0
 40
11.0
 40
11.0
 40
12.0
 40
12.0
 40
12.0
 40
13.0
 40
13.0
 40
13.0
 40
14.0
 40
14.0
 40
14.0
 40
14.0
 10
342.5355218994825
 20
195.6913409273026
 30
0.0
 10
342.8055558369216
 20
195.0703069414625
 30
0.0
 10
343.0755897743608
 20
194.4492729556223
 30
0.0
 10
343.3655462286084
 20
193.8378845498022
 30
0.0
 10
343.8864353608634
 20
192.7395624689738
 30
0.0
 10
344.4716183137437
 20
191.6723685431655
 30
0.0
 10
345.0212219323479
 20
190.5869674039502
 30
0.0
 10
346.2944737077033
 20
188.0724480654706
 30
0.0
 10
347.3767721551372
 20
185.460211103459
 30
0.0
 10
348.299914407642
 20
182.7970311201499
 30
0.0
 10
349.4519182471392
 20
179.4736066341417
 30
0.0
 10
350.356069108157
 20
176.0708488895881
 30
0.0
 10
351.1969751625956
 20
172.6555760552951
 30
0.0
 10
352.1587786589432
 20
168.7492879085203
 30
0.0
 10
353.0378446135956
 20
164.8266273856535
 30
0.0
 10
353.7479467460327
 20
160.8648751214713
 30
0.0
 10
354.4580488784652
 20
156.9031228573122
 30
0.0
 10
354.9991871886856
 20
152.9022788518391
 30
0.0
 10
355.1972055921012
 20
148.8887433033195
 30
0.0
 10
355.4019826409345
 20
144.7382201659031
 30
0.0
 10
355.2398177387113
 20
140.5741243401215
 30
0.0
 10
355.2302529849717
 20
136.4135406855785
 30
0.0
 10
355.2206882312316
 20
132.2529570310291
 30
0.0
 10
355.3637236259758
 20
128.0958855477196
 30
0.0
 10
355.1777639816252
 20
123.9384047188291
 30
0.0
 10
355.0654857953604
 20
121.4282127439537
 30
0.0
 10
354.8332735002946
 20
118.9178715434317
 30
0.0
 10
354.3762400591749
 20
116.448903164006
 30
0.0
 10
353.9192066180514
 20
113.9799347845586
 30
0.0
 10
353.2373520308701
 20
111.5523392262087
 30
0.0
 10
352.4161243485721
 20
109.1761443655846
 30
0.0
 10
351.6010148953664
 20
106.8176523964243
 30
0.0
 10
350.6486012985216
 20
104.5097980971658
 30
0.0
 10
349.5601758567484
 20
102.2669897630857
 30
0.0
 10
348.6471027596421
 20
100.3855122881771
 30
0.0
 10
347.6383123589501
 20
98.54981041758648
 30
0.0
 10
346.5424103028541
 20
96.76905683767012
 30
0.0
 10
345.6963431758541
 20
95.39426512441917
 30
0.0
 10
344.7983551232588
 20
94.05222409301982
 30
0.0
 10
343.9549651335944
 20
92.67645739173909
 30
0.0
 10
343.4697709038304
 20
91.88499190940813
 30
0.0
 10
343.0026464016564
 20
91.0823646086011
 30
0.0
 10
342.5355218994825
 20
90.27973730779409
 30
0.0
  0
SPLINE
  5
B9
330
70
100
AcDbEntity
  8
_HONTAI
 62
    18
420
        0
370
    25
100
AcDbSpline
210
0.0
220
0.0
230
1.0
 70
     8
 71
     3
 72
    47
 73
    43
 74
     0
 42
0.0000000001
 43
0.0000000001
 40
0.0
 40
0.0
 40
0.0
 40
0.0
 40
1.0
 40
1.0
 40
1.0
 40
2.0
 40
2.0
 40
2.0
 40
3.0
 40
3.0
 40
3.0
 40
4.0
 40
4.0
 40
4.0
 40
5.0
 40
5.0
 40
5.0
 40
6.0
 40
6.0
 40
6.0
 40
7.0
 40
7.0
 40
7.0
 40
8.0
 40
8.0
 40
8.0
 40
9.0
 40
9.0
 40
9.0
 40
10.0
 40
10.0
 40
10.0
 40
11.0
 40
11.0
 40
11.0
 40
12.0
 40
12.0
 40
12.0
 40
13.0
 40
13.0
 40
13.0
 40
14.0
 40
14.0
 40
14.0
 40
14.0
 10
340.9912318161095
 20
195.6913409273026
 30
0.0
 10
341.1414205165879
 20
195.0712618744333
 30
0.0
 10
341.2916092170662
 20
194.451182821564
 30
0.0
 10
341.4649465316629
 20
193.8378845498022
 30
0.0
 10
341.7750481603296
 20
192.740689791854
 30
0.0
 10
342.1592379750269
 20
191.665197230399
 30
0.0
 10
342.5348029607917
 20
190.5869674039502
 30
0.0
 10
343.4323296257624
 20
188.010209567397
 30
0.0
 10
344.2805984899056
 20
185.4178187652599
 30
0.0
 10
345.0272024611024
 20
182.7970311201499
 30
0.0
 10
345.9811173093669
 20
179.448524622376
 30
0.0
 10
346.7690697852777
 20
176.0536618329614
 30
0.0
 10
347.547833348231
 20
172.6555760552951
 30
0.0
 10
348.4443426176907
 20
168.7437143003097
 30
0.0
 10
349.3286742659848
 20
164.8275812751392
 30
0.0
 10
349.9353859003037
 20
160.8648751214706
 30
0.0
 10
350.5418259212323
 20
156.9039429968332
 30
0.0
 10
350.8708944430647
 20
152.8964794341905
 30
0.0
 10
351.0141600222155
 20
148.8887433033195
 30
0.0
 10
351.1627995978481
 20
144.7306740638765
 30
0.0
 10
351.1114355877686
 20
140.5723114242197
 30
0.0
 10
351.1224154405482
 20
136.4135406855785
 30
0.0
 10
351.133395396476
 20
132.2547308780077
 30
0.0
 10
351.2067203866288
 20
128.0955129637855
 30
0.0
 10
350.9947184117421
 20
123.9384047188291
 30
0.0
 10
350.8667220334995
 20
121.4285469705574
 30
0.0
 10
350.6347196619683
 20
118.9194582286343
 30
0.0
 10
350.1931944892918
 20
116.448903164006
 30
0.0
 10
349.7540052096178
 20
113.9914185937583
 30
0.0
 10
349.1075042289906
 20
111.5720610537923
 30
0.0
 10
348.3922706384682
 20
109.1761443655846
 30
0.0
 10
347.6967822861606
 20
106.8463710274371
 30
0.0
 10
346.9363039016868
 20
104.5387621569576
 30
0.0
 10
346.0807268529777
 20
102.2669897630857
 30
0.0
 10
345.3856893342014
 20
100.4214902253839
 30
0.0
 10
344.6278932998385
 20
98.59964027407535
 30
0.0
 10
343.8894672877128
 20
96.76905683767012
 30
0.0
 10
343.3356640046671
 20
95.39615948529952
 30
0.0
 10
342.7927557206885
 20
94.01834983542022
 30
0.0
 10
342.1709728915597
 20
92.67645739173909
 30
0.0
 10
341.7967708445039
 20
91.86887816016563
 30
0.0
 10
341.3940013303064
 20
91.07430773397984
 30
0.0
 10
340.9912318161095
 20
90.27973730779409
 30
0.0
  0
SPLINE
  5
BA
330
70
100
AcDbEntity
  8
_HONTAI
 62
    18
420
        0
370
    25
100
AcDbSpline
210
0.0
220
0.0
230
1.0
 70
     8
 71
     3
 72
    47
 73
    43
 74
     0
 42
0.0000000001
 43
0.0000000001
 40
0.0
 40
0.0
 40
0.0
 40
0.0
 40
1.0
 40
1.0
 40
1.0
 40
2.0
 40
2.0
 40
2.0
 40
3.0
 40
3.0
 40
3.0
 40
4.0
 40
4.0
 40
4.0
 40
5.0
 40
5.0
 40
5.0
 40
6.0
 40
6.0
 40
6.0
 40
7.0
 40
7.0
 40
7.0
 40
8.0
 40
8.0
 40
8.0
 40
9.0
 40
9.0
 40
9.0
 40
10.0
 40
10.0
 40
10.0
 40
11.0
 40
11.0
 40
11.0
 40
12.0
 40
12.0
 40
12.0
 40
13.0
 40
13.0
 40
13.0
 40
14.0
 40
14.0
 40
14.0
 40
14.0
 10
339.4469417327339
 20
195.6913409273026
 30
0.0
 10
339.5316009932529
 20
195.0728654267808
 30
0.0
 10
339.6162602537718
 20
194.4543899262593
 30
0.0
 10
339.7131761238351
 20
193.8378845498022
 30
0.0
 10
339.8841882635196
 20
192.7500348149087
 30
0.0
 10
340.0933626938529
 20
191.6683192761716
 30
0.0
 10
340.3034435131249
 20
190.5869674039502
 30
0.0
 10
340.8083520694213
 20
187.9880446915237
 30
0.0
 10
341.3184962352894
 20
185.3912226400894
 30
0.0
 10
341.8450263608843
 20
182.7970311201505
 30
0.0
 10
342.5305079960448
 20
179.4196922774794
 30
0.0
 10
343.243762265925
 20
176.0468119341298
 30
0.0
 10
343.8527253462183
 20
172.6555760552951
 30
0.0
 10
344.554841398219
 20
168.7455834404625
 30
0.0
 10
345.1183190626442
 20
164.8111900890682
 30
0.0
 10
345.601759827668
 20
160.8648751214713
 30
0.0
 10
346.0894550915848
 20
156.8838307849999
 30
0.0
 10
346.4956985350745
 20
152.8906540777166
 30
0.0
 10
346.6805339495804
 20
148.8887433033195
 30
0.0
 10
346.8723026754444
 20
144.7367179337254
 30
0.0
 10
346.8257414854156
 20
140.5752909652352
 30
0.0
 10
346.7887893679125
 20
136.4135406855785
 30
0.0
 10
346.7518240276553
 20
132.2503011867192
 30
0.0
 10
346.7244746380758
 20
128.0867381452673
 30
0.0
 10
346.4355321346217
 20
123.9384047188291
 30
0.0
 10
346.2612099416818
 20
121.435669498847
 30
0.0
 10
345.9916719957684
 20
118.9384776176769
 30
0.0
 10
345.6613956256563
 20
116.448903164006
 30
0.0
 10
345.3380584903031
 20
114.0116356361353
 30
0.0
 10
344.956508394344
 20
111.5816688081548
 30
0.0
 10
344.4606926323049
 20
109.1761443655846
 30
0.0
 10
343.9838512727259
 20
106.8626770789115
 30
0.0
 10
343.401322581562
 20
104.5718171998708
 30
0.0
 10
342.8734973253332
 20
102.2669897630857
 30
0.0
 10
342.4525308508804
 20
100.4287770803177
 30
0.0
 10
342.0663603733246
 20
98.58167985316033
 30
0.0
 10
341.5545824703913
 20
96.76905683767012
 30
0.0
 10
341.1657161548602
 20
95.39176401310454
 30
0.0
 10
340.7043306562036
 20
94.03437480221054
 30
0.0
 10
340.2482148984776
 20
92.67645739173909
 30
0.0
 10
339.9799081865873
 20
91.87767254545747
 30
0.0
 10
339.7134249596606
 20
91.07870492662577
 30
0.0
 10
339.4469417327339
 20
90.27973730779409
 30
0.0
  0
SPLINE
  5
BB
330
70
100
AcDbEntity
  8
_HONTAI
 62
    18
420
        0
370
    25
100
AcDbSpline
210
0.0
220
0.0
230
1.0
 70
     8
 71
     3
 72
    47
 73
    43
 74
     0
 42
0.0000000001
 43
0.0000000001
 40
0.0
 40
0.0
 40
0.0
 40
0.0
 40
1.0
 40
1.0
 40
1.0
 40
2.0
 40
2.0
 40
2.0
 40
3.0
 40
3.0
 40
3.0
 40
4.0
 40
4.0
 40
4.0
 40
5.0
 40
5.0
 40
5.0
 40
6.0
 40
6.0
 40
6.0
 40
7.0
 40
7.0
 40
7.0
 40
8.0
 40
8.0
 40
8.0
 40
9.0
 40
9.0
 40
9.0
 40
10.0
 40
10.0
 40
10.0
 40
11.0
 40
11.0
 40
11.0
 40
12.0
 40
12.0
 40
12.0
 40
13.0
 40
13.0
 40
13.0
 40
14.0
 40
14.0
 40
14.0
 40
14.0
 10
337.8681512902547
 20
195.6913409273026
 30
0.0
 10
337.9339887656954
 20
195.0739243829074
 30
0.0
 10
337.9998262411368
 20
194.4565078385131
 30
0.0
 10
338.0494526750372
 20
193.8378845498099
 30
0.0
 10
338.136211005287
 20
192.7563898833047
 30
0.0
 10
338.1734235005578
 20
191.6712070420316
 30
0.0
 10
338.2264105043928
 20
190.5869674039502
 30
0.0
 10
338.3535867773913
 20
187.9846395456102
 30
0.0
 10
338.5716348856822
 20
185.3877451754058
 30
0.0
 10
338.8418547370073
 20
182.7970311201499
 30
0.0
 10
339.1952272179677
 20
179.4090970040115
 30
0.0
 10
339.6378205365929
 20
176.0317320742691
 30
0.0
 10
340.0968761527518
 20
172.6555760553021
 30
0.0
 10
340.6306107298268
 20
168.7301884955057
 30
0.0
 10
341.1865994314437
 20
164.8064351699892
 30
0.0
 10
341.560593853122
 20
160.8648751214713
 30
0.0
 10
341.9381990494139
 20
156.8852608022562
 30
0.0
 10
342.1302788299632
 20
152.8874942659001
 30
0.0
 10
342.2492703598208
 20
148.8887433033195
 30
0.0
 10
342.3730207506234
 20
144.7300691948903
 30
0.0
 10
342.417719911873
 20
140.5703303448274
 30
0.0
 10
342.3575257781529
 20
136.4135406855785
 30
0.0
 10
342.2973101048754
 20
132.2552635822103
 30
0.0
 10
342.132126054249
 20
128.0999377806798
 30
0.0
 10
342.0042685448647
 20
123.9384047188291
 30
0.0
 10
341.9274409633483
 20
121.4378044640526
 30
0.0
 10
341.8640905793324
 20
118.9349630031397
 30
0.0
 10
341.6245901389036
 20
116.448903164006
 30
0.0
 10
341.3901166576177
 20
114.0150241109105
 30
0.0
 10
340.9868100677159
 20
111.5972296020392
 30
0.0
 10
340.6206995076035
 20
109.1761443655891
 30
0.0
 10
340.2729989922527
 20
106.8768045591574
 30
0.0
 10
339.9588477213399
 20
104.5744966557388
 30
0.0
 10
339.6827026815282
 20
102.2669897630908
 30
0.0
 10
339.4633720660829
 20
100.4342322120132
 30
0.0
 10
339.2680175663487
 20
98.59819489433554
 30
0.0
 10
339.0177583888936
 20
96.76905683767012
 30
0.0
 10
338.8303974201002
 20
95.39964021191899
 30
0.0
 10
338.6122621949124
 20
94.03409064515354
 30
0.0
 10
338.353724288515
 20
92.6764573917468
 30
0.0
 10
338.2012366285051
 20
91.87571478170438
 30
0.0
 10
338.0346939593799
 20
91.07772604474956
 30
0.0
 10
337.8681512902547
 20
90.27973730779409
 30
0.0
  0
LINE
  5
BC
330
70
100
AcDbEntity
  8
_HONTAI
 62
    18
420
        0
370
    25
100
AcDbLine
 10
336.8463455762233
 20
307.9040425081461
 30
0.0
 11
336.8463455762233
 21
264.7677859997965
 31
0.0
  0
LINE
  5
BD
330
70
100
AcDbEntity
  8
_HONTAI
 62
    18
420
        0
370
    25
100
AcDbLine
 10
336.8463455762233
 20
262.2047208246911
 30
0.0
 11
336.8463455762233
 21
198.0944676751999
 31
0.0
  0
LINE
  5
BE
330
70
100
AcDbEntity
  8
_HONTAI
 62
    18
420
        0
370
    25
100
AcDbLine
 10
333.2179818257634
 20
264.0993339336286
 30
0.0
 11
342.5183207547434
 21
259.2430005381197
 31
0.0
  0
LINE
  5
BF
330
70
100
AcDbEntity
  8
_HONTAI
 62
    18
420
        0
370
    25
100
AcDbLine
 10
333.2179818257634
 20
266.6623991087341
 30
0.0
 11
342.5183207547434
 21
261.8060657132296
 31
0.0
  0
SPLINE
  5
C0
330
70
100
AcDbEntity
  8
_HONTAI
 62
    18
420
        0
370
    25
100
AcDbSpline
210
0.0
220
0.0
230
1.0
 70
     8
 71
     3
 72
     8
 73
     4
 74
     0
 42
0.0000000001
 43
0.0000000001
 40
0.0
 40
0.0
 40
0.0
 40
0.0
 40
1.0
 40
1.0
 40
1.0
 40
1.0
 10
321.1476941515777
 20
340.4160424999927
 30
0.0
 10
321.4806874208221
 20
327.9310601639599
 30
0.0
 10
327.0011788852542
 20
316.149523502062
 30
0.0
 10
336.3818884334585
 20
307.9040425081708
 30
0.0
  0
LINE
  5
C1
330
70
100
AcDbEntity
  8
_HONTAI
 62
    18
420
        0
370
    25
100
AcDbLine
 10
337.8681512902547
 20
307.9040425081461
 30
0.0
 11
336.3818884334829
 21
307.9040425081461
 31
0.0
  0
LINE
  5
C2
330
70
100
AcDbEntity
  8
_HONTAI
 62
    18
420
        0
370
    25
100
AcDbLine
 10
321.1476941515777
 20
340.4160425000177
 30
0.0
 11
337.8681512902547
 21
340.4160425000177
 31
0.0
  0
LINE
  5
C3
330
70
100
AcDbEntity
  8
_HONTAI
 62
    18
420
        0
370
    25
100
AcDbLine
 10
338.8899570042862
 20
307.9040425081461
 30
0.0
 11
338.8899570042862
 21
263.7006788221624
 31
0.0
  0
LINE
  5
C4
330
70
100
AcDbEntity
  8
_HONTAI
 62
    18
420
        0
370
    25
100
AcDbLine
 10
338.8899570042862
 20
261.1376136470573
 30
0.0
 11
338.8899570042862
 21
198.0944676751999
 31
0.0
  0
SPLINE
  5
C5
330
70
100
AcDbEntity
  8
_HONTAI
 62
    18
420
        0
370
    25
100
AcDbSpline
210
0.0
220
0.0
230
1.0
 70
     8
 71
     3
 72
     8
 73
     4
 74
     0
 42
0.0000000001
 43
0.0000000001
 40
0.0
 40
0.0
 40
0.0
 40
0.0
 40
1.0
 40
1.0
 40
1.0
 40
1.0
 10
339.3544141470503
 20
307.9040425081698
 30
0.0
 10
348.735123695255
 20
316.1495235020614
 30
0.0
 10
354.2556151596877
 20
327.9310601639599
 30
0.0
 10
354.5886084289317
 20
340.4160424999927
 30
0.0
  0
LINE
  5
C6
330
70
100
AcDbEntity
  8
_HONTAI
 62
    18
420
        0
370
    25
100
AcDbLine
 10
337.8681512902547
 20
307.9040425081461
 30
0.0
 11
339.3544141470266
 21
307.9040425081461
 31
0.0
  0
LINE
  5
C7
330
70
100
AcDbEntity
  8
_HONTAI
 62
    18
420
        0
370
    25
100
AcDbLine
 10
354.5886084289311
 20
340.4160425000177
 30
0.0
 11
337.8681512902547
 21
340.4160425000177
 31
0.0
  0
LINE
  5
C9
330
70
100
AcDbEntity
  8
FLAME
 62
     2
420
 16776960
370
    25
100
AcDbLine
 10
501.9523808268929
 20
380.9999999047501
 30
0.0
 11
501.9523808268929
 21
0.0
 31
0.0
  0
LINE
  5
CA
330
70
100
AcDbEntity
  8
FLAME
 62
     2
420
 16776960
370
    25
100
AcDbLine
 10
175.380952337107
 20
0.0
 30
0.0
 11
175.380952337107
 21
380.9999999047501
 31
0.0
  0
LINE
  5
CB
330
70
100
AcDbEntity
  8
FLAME
 62
     2
420
 16776960
370
    25
100
AcDbLine
 10
501.9523808268929
 20
0.0
 30
0.0
 11
175.380952337107
 21
0.0
 31
0.0
  0
LINE
  5
CC
330
70
100
AcDbEntity
  8
FLAME
 62
     2
420
 16776960
370
    25
100
AcDbLine
 10
501.9523808268929
 20
18.1428571383218
 30
0.0
 11
175.380952337107
 21
18.1428571383218
 31
0.0
  0
LINE
  5
CD
330
70
100
AcDbEntity
  8
FLAME
 62
     2
420
 16776960
370
    25
100
AcDbLine
 10
501.9523808268929
 20
36.28571427664295
 30
0.0
 11
175.380952337107
 21
36.28571427664295
 31
0.0
  0
LINE
  5
CE
330
70
100
AcDbEntity
  8
FLAME
 62
     2
420
 16776960
370
    25
100
AcDbLine
 10
501.9523808268929
 20
54.42857141496411
 30
0.0
 11
175.380952337107
 21
54.42857141496411
 31
0.0
  0
LINE
  5
CF
330
70
100
AcDbEntity
  8
FLAME
 62
     2
420
 16776960
370
    25
100
AcDbLine
 10
501.9523808268929
 20
380.9999999047501
 30
0.0
 11
175.380952337107
 21
380.9999999047501
 31
0.0
  0
INSERT
  5
D2
330
70
100
AcDbEntity
  8
SPEC
100
AcDbBlockReference
  2
Block_0
 10
0.0
 20
0.0
 30
0.0
  0
MTEXT
  5
D7
330
70
100
AcDbEntity
  8
SPEC
100
AcDbMText
 10
187.6349293557605
 20
23.34517279147274
 30
0.0
 40
0.2
 41
0.0
 46
0.0
 71
     7
 72
     1
  1
\C9;\c12632256;\FKozuka Gothic Pr6N R|b0|i0|c128;\H9.071429;\W1.000000;KP1345/KP1345GO/KP1345BK
 73
     1
 44
1.0
  0
INSERT
  5
D9
330
70
100
AcDbEntity
  8
SPEC
100
AcDbBlockReference
  2
Block_1
 10
0.0
 20
0.0
 30
0.0
  0
ENDSEC
  0
SECTION
  2
OBJECTS
  0
DICTIONARY
  5
C
330
0
100
AcDbDictionary
281
     1
  3
ACAD_COLOR
350
63
  3
ACAD_DETAILVIEWSTYLE
350
6A
  3
ACAD_GROUP
350
D
  3
ACAD_LAYOUT
350
62
  3
ACAD_MATERIAL
350
10
  3
ACAD_MLEADERSTYLE
350
66
  3
ACAD_MLINESTYLE
350
5F
  3
ACAD_PLOTSETTINGS
350
61
  3
ACAD_PLOTSTYLENAME
350
E
  3
ACAD_SCALELIST
350
42
  3
ACAD_SECTIONVIEWSTYLE
350
68
  3
ACAD_TABLESTYLE
350
64
  3
ACAD_VISUALSTYLE
350
29
  3
ACDB_RECOMPOSE_DATA
350
EB
  3
AcDbVariableDictionary
350
E3
  0
DICTIONARY
  5
63
102
{ACAD_REACTORS
330
C
102
}
330
C
100
AcDbDictionary
281
     1
  0
DICTIONARY
  5
6A
102
{ACAD_REACTORS
330
C
102
}
330
C
100
AcDbDictionary
281
     1
  3
Imperial24
350
6B
  0
DICTIONARY
  5
D
102
{ACAD_REACTORS
330
C
102
}
330
C
100
AcDbDictionary
281
     1
  0
DICTIONARY
  5
62
102
{ACAD_REACTORS
330
C
102
}
330
C
100
AcDbDictionary
281
     1
  3
Layout1
350
6F
  3
Layout2
350
77
  3
Model
350
73
  0
DICTIONARY
  5
10
102
{ACAD_REACTORS
330
C
102
}
330
C
100
AcDbDictionary
281
     1
  3
ByBlock
350
19
  3
ByLayer
350
11
  3
Global
350
21
  0
DICTIONARY
  5
66
102
{ACAD_REACTORS
330
C
102
}
330
C
100
AcDbDictionary
281
     1
  3
Standard
350
67
  0
DICTIONARY
  5
5F
102
{ACAD_REACTORS
330
C
102
}
330
C
100
AcDbDictionary
281
     1
  3
Standard
350
60
  0
DICTIONARY
  5
61
102
{ACAD_REACTORS
330
C
102
}
330
C
100
AcDbDictionary
281
     1
  0
ACDBDICTIONARYWDFLT
  5
E
102
{ACAD_REACTORS
330
C
102
}
330
C
100
AcDbDictionary
281
     1
  3
Normal
350
F
100
AcDbDictionaryWithDefault
340
F
  0
DICTIONARY
  5
42
102
{ACAD_REACTORS
330
C
102
}
330
C
100
AcDbDictionary
281
     1
  3
A0
350
43
  3
A1
350
44
  3
A2
350
45
  3
A3
350
46
  3
A4
350
47
  3
A5
350
48
  3
A6
350
49
  3
A7
350
4A
  3
A8
350
4B
  3
A9
350
4C
  3
B0
350
4D
  3
B1
350
4E
  3
B2
350
4F
  3
B3
350
50
  3
B4
350
51
  3
B5
350
52
  3
B6
350
53
  0
DICTIONARY
  5
68
102
{ACAD_REACTORS
330
C
102
}
330
C
100
AcDbDictionary
281
     1
  3
Imperial24
350
69
  0
DICTIONARY
  5
64
102
{ACAD_REACTORS
330
C
102
}
330
C
100
AcDbDictionary
281
     1
  3
Standard
350
65
  0
DICTIONARY
  5
29
102
{ACAD_REACTORS
330
C
102
}
330
C
100
AcDbDictionary
281
     1
  3
2dWireframe
350
2F
  3
Basic
350
2E
  3
Brighten
350
35
  3
ColorChange
350
39
  3
Conceptual
350
32
  3
Dim
350
34
  3
EdgeColorOff
350
41
  3
Facepattern
350
38
  3
Flat
350
2A
  3
FlatWithEdges
350
2B
  3
Gouraud
350
2C
  3
GouraudWithEdges
350
2D
  3
Hidden
350
31
  3
JitterOff
350
3F
  3
Linepattern
350
37
  3
OverhangOff
350
40
  3
Realistic
350
33
  3
Shaded
350
3E
  3
Shaded with edges
350
3D
  3
Shades of Gray
350
3A
  3
Sketchy
350
3B
  3
Thicken
350
36
  3
Wireframe
350
30
  3
X-Ray
350
3C
  0
XRECORD
  5
EB
102
{ACAD_REACTORS
330
C
102
}
330
C
100
AcDbXrecord
280
     1
 90
        1
330
65
  0
DICTIONARY
  5
E3
102
{ACAD_REACTORS
330
C
102
}
330
C
100
AcDbDictionary
281
     1
  3
CANNOSCALE
350
E8
  3
CMLEADERSTYLE
350
E5
  3
CTABLESTYLE
350
E4
  3
CVIEWDETAILSTYLE
350
E6
  3
CVIEWSECTIONSTYLE
350
E7
  0
ACDBDETAILVIEWSTYLE
  5
6B
102
{ACAD_REACTORS
330
6A
102
}
330
6A
100
AcDbModelDocViewStyle
 70
     0
  3
Imperial24
290
     1
300
Imperial24
 90
        0
100
AcDbDetailViewStyle
 70
     0
 71
     0
 90
        3
 71
     1
340
55
 62
   256
 40
0.24
340
0
 62
   256
 40
0.24
300

 40
0.36
280
     3
 71
     2
340
5D
 90
       25
 62
   256
 71
     3
340
55
 62
   256
 40
0.24
 90
        1
 40
0.75
 90
        1
300
%<\AcVar ViewType \f "%tc1">% %<\AcVar ViewDetailId>%\PSCALE %<\AcVar ViewScale \f "%sn">%
 71
     4
340
5D
 90
       25
 62
   256
340
5D
 90
       25
 62
   256
280
     0
  0
LAYOUT
  5
6F
102
{ACAD_REACTORS
330
62
102
}
330
62
100
AcDbPlotSettings
  1

  2

  4

  6

 40
0.0
 41
0.0
 42
0.0
 43
0.0
 44
0.0
 45
0.0
 46
0.0
 47
0.0
 48
0.0
 49
0.0
140
0.0
141
0.0
142
1.0
143
1.0
 70
   688
 72
     0
 73
     0
 74
     5
  7

 75
    16
147
1.0
 76
     0
 77
     2
 78
   300
148
0.0
149
0.0
100
AcDbLayout
  1
Layout1
 70
     1
 71
     1
 10
0.0
 20
0.0
 11
12.0
 21
9.0
 12
0.0
 22
0.0
 32
0.0
 14
0.0
 24
0.0
 34
0.0
 15
0.0
 25
0.0
 35
0.0
146
0.0
 13
0.0
 23
0.0
 33
0.0
 16
1.0
 26
0.0
 36
0.0
 17
0.0
 27
1.0
 37
0.0
 76
     0
330
6C
  0
LAYOUT
  5
77
102
{ACAD_REACTORS
330
62
102
}
330
62
100
AcDbPlotSettings
  1

  2

  4

  6

 40
0.0
 41
0.0
 42
0.0
 43
0.0
 44
0.0
 45
0.0
 46
0.0
 47
0.0
 48
0.0
 49
0.0
140
0.0
141
0.0
142
1.0
143
1.0
 70
   688
 72
     0
 73
     0
 74
     5
  7

 75
    16
147
1.0
 76
     0
 77
     2
 78
   300
148
0.0
149
0.0
100
AcDbLayout
  1
Layout2
 70
     1
 71
     2
 10
0.0
 20
0.0
 11
12.0
 21
9.0
 12
0.0
 22
0.0
 32
0.0
 14
0.0
 24
0.0
 34
0.0
 15
0.0
 25
0.0
 35
0.0
146
0.0
 13
0.0
 23
0.0
 33
0.0
 16
1.0
 26
0.0
 36
0.0
 17
0.0
 27
1.0
 37
0.0
 76
     0
330
74
  0
LAYOUT
  5
73
102
{ACAD_REACTORS
330
62
102
}
330
62
100
AcDbPlotSettings
  1

  2

  4

  6

 40
0.0
 41
0.0
 42
0.0
 43
0.0
 44
0.0
 45
0.0
 46
0.0
 47
0.0
 48
0.0
 49
0.0
140
0.0
141
0.0
142
1.0
143
1.0
 70
  1712
 72
     0
 73
     0
 74
     0
  7

 75
     0
147
1.0
 76
     0
 77
     2
 78
   300
148
0.0
149
0.0
100
AcDbLayout
  1
Model
 70
     1
 71
     0
 10
0.0
 20
0.0
 11
12.0
 21
9.0
 12
0.0
 22
0.0
 32
0.0
 14
0.0
 24
0.0
 34
0.0
 15
0.0
 25
0.0
 35
0.0
146
0.0
 13
0.0
 23
0.0
 33
0.0
 16
1.0
 26
0.0
 36
0.0
 17
0.0
 27
1.0
 37
0.0
 76
     0
330
70
  0
MATERIAL
  5
19
102
{ACAD_XDICTIONARY
360
1A
102
}
102
{ACAD_REACTORS
330
10
102
}
330
10
100
AcDbMaterial
  1
ByBlock
 72
     0
 43
0.0208333333333333
 43
0.0
 43
0.0
 43
0.0
 43
0.0
 43
0.0208333333333333
 43
0.0
 43
0.0
 43
0.0
 43
0.0
 43
1.0
 43
0.0
 43
0.0
 43
0.0
 43
0.0
 43
1.0
 77
     0
 47
0.0208333333333333
 47
0.0
 47
0.0
 47
0.0
 47
0.0
 47
0.0208333333333333
 47
0.0
 47
0.0
 47
0.0
 47
0.0
 47
1.0
 47
0.0
 47
0.0
 47
0.0
 47
0.0
 47
1.0
171
     0
 49
0.0208333333333333
 49
0.0
 49
0.0
 49
0.0
 49
0.0
 49
0.0208333333333333
 49
0.0
 49
0.0
 49
0.0
 49
0.0
 49
1.0
 49
0.0
 49
0.0
 49
0.0
 49
0.0
 49
1.0
175
     0
142
0.0208333333333333
142
0.0
142
0.0
142
0.0
142
0.0
142
0.0208333333333333
142
0.0
142
0.0
142
0.0
142
0.0
142
1.0
142
0.0
142
0.0
142
0.0
142
0.0
142
1.0
179
     0
144
0.0208333333333333
144
0.0
144
0.0
144
0.0
144
0.0
144
0.0208333333333333
144
0.0
144
0.0
144
0.0
144
0.0
144
1.0
144
0.0
144
0.0
144
0.0
144
0.0
144
1.0
147
0.0208333333333333
147
0.0
147
0.0
147
0.0
147
0.0
147
0.0208333333333333
147
0.0
147
0.0
147
0.0
147
0.0
147
1.0
147
0.0
147
0.0
147
0.0
147
0.0
147
1.0
  0
MATERIAL
  5
11
102
{ACAD_XDICTIONARY
360
12
102
}
102
{ACAD_REACTORS
330
10
102
}
330
10
100
AcDbMaterial
  1
ByLayer
 72
     0
 43
0.0208333333333333
 43
0.0
 43
0.0
 43
0.0
 43
0.0
 43
0.0208333333333333
 43
0.0
 43
0.0
 43
0.0
 43
0.0
 43
1.0
 43
0.0
 43
0.0
 43
0.0
 43
0.0
 43
1.0
 77
     0
 47
0.0208333333333333
 47
0.0
 47
0.0
 47
0.0
 47
0.0
 47
0.0208333333333333
 47
0.0
 47
0.0
 47
0.0
 47
0.0
 47
1.0
 47
0.0
 47
0.0
 47
0.0
 47
0.0
 47
1.0
171
     0
 49
0.0208333333333333
 49
0.0
 49
0.0
 49
0.0
 49
0.0
 49
0.0208333333333333
 49
0.0
 49
0.0
 49
0.0
 49
0.0
 49
1.0
 49
0.0
 49
0.0
 49
0.0
 49
0.0
 49
1.0
175
     0
142
0.0208333333333333
142
0.0
142
0.0
142
0.0
142
0.0
142
0.0208333333333333
142
0.0
142
0.0
142
0.0
142
0.0
142
1.0
142
0.0
142
0.0
142
0.0
142
0.0
142
1.0
179
     0
144
0.0208333333333333
144
0.0
144
0.0
144
0.0
144
0.0
144
0.0208333333333333
144
0.0
144
0.0
144
0.0
144
0.0
144
1.0
144
0.0
144
0.0
144
0.0
144
0.0
144
1.0
147
0.0208333333333333
147
0.0
147
0.0
147
0.0
147
0.0
147
0.0208333333333333
147
0.0
147
0.0
147
0.0
147
0.0
147
1.0
147
0.0
147
0.0
147
0.0
147
0.0
147
1.0
  0
MATERIAL
  5
21
102
{ACAD_XDICTIONARY
360
22
102
}
102
{ACAD_REACTORS
330
10
102
}
330
10
100
AcDbMaterial
  1
Global
 72
     0
 43
0.0208333333333333
 43
0.0
 43
0.0
 43
0.0
 43
0.0
 43
0.0208333333333333
 43
0.0
 43
0.0
 43
0.0
 43
0.0
 43
1.0
 43
0.0
 43
0.0
 43
0.0
 43
0.0
 43
1.0
 77
     0
 47
0.0208333333333333
 47
0.0
 47
0.0
 47
0.0
 47
0.0
 47
0.0208333333333333
 47
0.0
 47
0.0
 47
0.0
 47
0.0
 47
1.0
 47
0.0
 47
0.0
 47
0.0
 47
0.0
 47
1.0
171
     0
 49
0.0208333333333333
 49
0.0
 49
0.0
 49
0.0
 49
0.0
 49
0.0208333333333333
 49
0.0
 49
0.0
 49
0.0
 49
0.0
 49
1.0
 49
0.0
 49
0.0
 49
0.0
 49
0.0
 49
1.0
175
     0
142
0.0208333333333333
142
0.0
142
0.0
142
0.0
142
0.0
142
0.0208333333333333
142
0.0
142
0.0
142
0.0
142
0.0
142
1.0
142
0.0
142
0.0
142
0.0
142
0.0
142
1.0
179
     0
144
0.0208333333333333
144
0.0
144
0.0
144
0.0
144
0.0
144
0.0208333333333333
144
0.0
144
0.0
144
0.0
144
0.0
144
1.0
144
0.0
144
0.0
144
0.0
144
0.0
144
1.0
147
0.0208333333333333
147
0.0
147
0.0
147
0.0
147
0.0
147
0.0208333333333333
147
0.0
147
0.0
147
0.0
147
0.0
147
1.0
147
0.0
147
0.0
147
0.0
147
0.0
147
1.0
  0
MLEADERSTYLE
  5
67
102
{ACAD_REACTORS
330
66
102
}
330
66
100
AcDbMLeaderStyle
179
     2
170
     2
171
     1
172
     0
 90
        2
 40
0.0
 41
0.0
173
     1
 91
-1056964608
340
5B
 92
       -2
290
     1
 42
0.09
291
     1
 43
0.36
  3
Standard
 44
0.18
300

342
55
174
     1
178
     6
175
     1
176
     0
 93
-1056964608
 45
0.18
292
     0
297
     0
 46
0.18
 94
-1056964608
 47
1.0
 49
1.0
140
1.0
293
     1
141
0.0
294
     1
177
     0
142
1.0
295
     1
296
     0
143
0.125
271
     0
272
     9
273
     9
298
     1
  0
MLINESTYLE
  5
60
102
{ACAD_REACTORS
330
5F
102
}
330
5F
100
AcDbMlineStyle
  2
STANDARD
 70
     0
  3

 62
   256
 51
90.0
 52
90.0
 71
     2
 49
0.5
 62
   256
  6
BYLAYER
 49
-0.5
 62
   256
  6
BYLAYER
  0
ACDBPLACEHOLDER
  5
F
102
{ACAD_REACTORS
330
E
102
}
330
E
  0
SCALE
  5
43
102
{ACAD_REACTORS
330
42
102
}
330
42
100
AcDbScale
 70
     0
300
1:1
140
1.0
141
1.0
290
     1
  0
SCALE
  5
44
102
{ACAD_REACTORS
330
42
102
}
330
42
100
AcDbScale
 70
     0
300
1/128" = 1'-0"
140
0.0078125
141
12.0
290
     0
  0
SCALE
  5
45
102
{ACAD_REACTORS
330
42
102
}
330
42
100
AcDbScale
 70
     0
300
1/64" = 1'-0"
140
0.015625
141
12.0
290
     0
  0
SCALE
  5
46
102
{ACAD_REACTORS
330
42
102
}
330
42
100
AcDbScale
 70
     0
300
1/32" = 1'-0"
140
0.03125
141
12.0
290
     0
  0
SCALE
  5
47
102
{ACAD_REACTORS
330
42
102
}
330
42
100
AcDbScale
 70
     0
300
1/16" = 1'-0"
140
0.0625
141
12.0
290
     0
  0
SCALE
  5
48
102
{ACAD_REACTORS
330
42
102
}
330
42
100
AcDbScale
 70
     0
300
3/32" = 1'-0"
140
0.09375
141
12.0
290
     0
  0
SCALE
  5
49
102
{ACAD_REACTORS
330
42
102
}
330
42
100
AcDbScale
 70
     0
300
1/8" = 1'-0"
140
0.125
141
12.0
290
     0
  0
SCALE
  5
4A
102
{ACAD_REACTORS
330
42
102
}
330
42
100
AcDbScale
 70
     0
300
3/16" = 1'-0"
140
0.1875
141
12.0
290
     0
  0
SCALE
  5
4B
102
{ACAD_REACTORS
330
42
102
}
330
42
100
AcDbScale
 70
     0
300
1/4" = 1'-0"
140
0.25
141
12.0
290
     0
  0
SCALE
  5
4C
102
{ACAD_REACTORS
330
42
102
}
330
42
100
AcDbScale
 70
     0
300
3/8" = 1'-0"
140
0.375
141
12.0
290
     0
  0
SCALE
  5
4D
102
{ACAD_REACTORS
330
42
102
}
330
42
100
AcDbScale
 70
     0
300
1/2" = 1'-0"
140
0.5
141
12.0
290
     0
  0
SCALE
  5
4E
102
{ACAD_REACTORS
330
42
102
}
330
42
100
AcDbScale
 70
     0
300
3/4" = 1'-0"
140
0.75
141
12.0
290
     0
  0
SCALE
  5
4F
102
{ACAD_REACTORS
330
42
102
}
330
42
100
AcDbScale
 70
     0
300
1" = 1'-0"
140
1.0
141
12.0
290
     0
  0
SCALE
  5
50
102
{ACAD_REACTORS
330
42
102
}
330
42
100
AcDbScale
 70
     0
300
1-1/2" = 1'-0"
140
1.5
141
12.0
290
     0
  0
SCALE
  5
51
102
{ACAD_REACTORS
330
42
102
}
330
42
100
AcDbScale
 70
     0
300
3" = 1'-0"
140
3.0
141
12.0
290
     0
  0
SCALE
  5
52
102
{ACAD_REACTORS
330
42
102
}
330
42
100
AcDbScale
 70
     0
300
6" = 1'-0"
140
6.0
141
12.0
290
     0
  0
SCALE
  5
53
102
{ACAD_REACTORS
330
42
102
}
330
42
100
AcDbScale
 70
     0
300
1'-0" = 1'-0"
140
12.0
141
12.0
290
     0
  0
ACDBSECTIONVIEWSTYLE
  5
69
102
{ACAD_REACTORS
330
68
102
}
330
68
100
AcDbModelDocViewStyle
 70
     0
  3
Imperial24
290
     1
300
Imperial24
 90
        0
100
AcDbSectionViewStyle
 70
     0
 71
     0
 90
       78
 71
     1
340
55
 62
   256
 40
0.24
340
0
340
0
 62
   256
 40
0.24
300
I, O, Q, S, X, Z
 40
0.48
 90
        3
 40
0.18
 90
        1
 71
     2
340
5D
 90
       25
 62
   256
340
5D
 90
       50
 62
   256
 40
0.24
 40
0.0
 40
0.24
 71
     3
340
55
 62
   256
 40
0.24
 90
        1
 40
0.75
 90
        1
300
%<\AcVar ViewType \f "%tc1">% %<\AcVar ViewSectionStartId>%-%<\AcVar ViewSectionEndId>%\PSCALE %<\AcVar ViewScale \f "%sn">%
 71
     4
 62
   256
 62
   257
300
ANSI31
 40
1.0
 90
        0
290
     0
290
     0
 90
        6
 40
0.0
 40
1.570796326794896
 40
0.2617993877991494
 40
1.308996938995747
 40
-0.2617993877991494
 40
1.832595714594046
  0
TABLESTYLE
  5
65
102
{ACAD_XDICTIONARY
360
E9
102
}
102
{ACAD_REACTORS
330
64
102
}
330
64
100
AcDbTableStyle
280
     0
  3
Standard
 70
     0
 71
     0
 40
0.06
 41
0.06
280
     0
281
     0
  7
Standard
140
0.18
170
     2
 62
     0
 63
     7
283
     0
 90
      512
 91
        0
  1

274
    -2
284
     1
 64
     0
275
    -2
285
     1
 65
     0
276
    -2
286
     1
 66
     0
277
    -2
287
     1
 67
     0
278
    -2
288
     1
 68
     0
279
    -2
289
     1
 69
     0
  7
Standard
140
0.25
170
     5
 62
     0
 63
     7
283
     0
 90
      512
 91
        0
  1

274
    -2
284
     1
 64
     0
275
    -2
285
     1
 65
     0
276
    -2
286
     1
 66
     0
277
    -2
287
     1
 67
     0
278
    -2
288
     1
 68
     0
279
    -2
289
     1
 69
     0
  7
Standard
140
0.18
170
     5
 62
     0
 63
     7
283
     0
 90
      512
 91
        0
  1

274
    -2
284
     1
 64
     0
275
    -2
285
     1
 65
     0
276
    -2
286
     1
 66
     0
277
    -2
287
     1
 67
     0
278
    -2
288
     1
 68
     0
279
    -2
289
     1
 69
     0
  0
VISUALSTYLE
  5
2F
102
{ACAD_REACTORS
330
29
102
}
330
29
100
AcDbVisualStyle
  2
2dWireframe
 70
     4
177
     3
291
     0
 70
    58
 90
        0
176
     1
 90
        2
176
     1
 90
        0
176
     1
 90
        0
176
     1
 40
0.6
176
     1
 40
30.0
176
     1
 62
     7
420
 16777215
176
     1
 90
        1
176
     1
 90
        4
176
     1
 62
     7
176
     1
 62
   257
176
     1
 90
        1
176
     1
 90
        1
176
     1
 40
1.0
176
     1
 90
        0
176
     1
 62
   257
176
     1
 40
1.0
176
     1
 90
        1
176
     1
 90
        6
176
     1
 90
        2
176
     1
 62
     7
176
     1
 90
        5
176
     1
 90
        0
176
     1
 90
        0
176
     1
290
     0
176
     1
 90
        1
176
     1
 40
0.0
176
     1
 90
        0
176
     1
290
     1
176
     1
290
     1
176
     1
290
     0
176
     1
290
     0
176
     1
290
     0
176
     1
290
     0
176
     1
290
     0
176
     1
290
     0
176
     1
290
     0
176
     1
 90
       50
176
     1
 40
0.0
176
     1
 40
1.0
176
     1
 90
        0
176
     1
 62
    18
420
        0
176
     1
 90
       50
176
     1
 90
        3
176
     1
 62
     5
420
      255
176
     1
290
     0
176
     1
 90
       50
176
     1
 90
       50
176
     1
 90
       50
176
     1
290
     0
176
     1
 90
       50
176
     1
 62
   256
176
     0
 40
1.0
176
     0
 90
        2
176
     1
  1
strokes_ogs.tif
176
     1
290
     0
176
     1
 40
1.0
176
     1
 40
1.0
176
     1
  0
VISUALSTYLE
  5
2E
102
{ACAD_REACTORS
330
29
102
}
330
29
100
AcDbVisualStyle
  2
Basic
 70
     7
177
     3
291
     1
 70
    58
 90
        1
176
     1
 90
        0
176
     1
 90
        1
176
     1
 90
        0
176
     1
 40
0.6
176
     1
 40
30.0
176
     1
 62
     7
420
 16777215
176
     1
 90
        0
176
     1
 90
        4
176
     1
 62
     7
176
     1
 62
   257
176
     1
 90
        1
176
     1
 90
        1
176
     1
 40
1.0
176
     1
 90
        8
176
     1
 62
     7
176
     1
 40
1.0
176
     1
 90
        1
176
     1
 90
        6
176
     1
 90
        2
176
     1
 62
     7
176
     1
 90
        5
176
     1
 90
        0
176
     1
 90
        0
176
     1
290
     0
176
     1
 90
        1
176
     1
 40
0.0
176
     1
 90
        0
176
     1
290
     0
176
     1
290
     1
176
     1
290
     1
176
     1
290
     0
176
     1
290
     0
176
     1
290
     0
176
     1
290
     0
176
     1
290
     0
176
     1
290
     0
176
     1
 90
       50
176
     1
 40
0.0
176
     1
 40
1.0
176
     1
 90
        0
176
     1
 62
    18
420
        0
176
     1
 90
       50
176
     1
 90
        3
176
     1
 62
     5
420
      255
176
     1
290
     0
176
     1
 90
       50
176
     1
 90
       50
176
     1
 90
       50
176
     1
290
     0
176
     1
 90
       50
176
     1
 62
   256
176
     0
 40
1.0
176
     0
 90
        2
176
     1
  1
strokes_ogs.tif
176
     1
290
     0
176
     1
 40
1.0
176
     1
 40
1.0
176
     1
  0
VISUALSTYLE
  5
35
102
{ACAD_REACTORS
330
29
102
}
330
29
100
AcDbVisualStyle
  2
Brighten
 70
    12
177
     3
291
     1
 70
    58
 90
        2
176
     1
 90
        2
176
     1
 90
        0
176
     1
 90
        0
176
     1
 40
0.6
176
     1
 40
30.0
176
     1
 62
     7
420
 16777215
176
     1
 90
        1
176
     1
 90
        4
176
     1
 62
     7
176
     1
 62
   257
176
     1
 90
        1
176
     1
 90
        1
176
     1
 40
1.0
176
     1
 90
        8
176
     1
 62
     7
176
     1
 40
1.0
176
     1
 90
        1
176
     1
 90
        6
176
     1
 90
        2
176
     1
 62
     7
176
     1
 90
        5
176
     1
 90
        0
176
     1
 90
        0
176
     1
290
     0
176
     1
 90
        1
176
     1
 40
50.0
176
     1
 90
        0
176
     1
290
     0
176
     1
290
     1
176
     1
290
     1
176
     1
290
     0
176
     1
290
     0
176
     1
290
     0
176
     1
290
     0
176
     1
290
     0
176
     1
290
     0
176
     1
 90
       50
176
     1
 40
0.0
176
     1
 40
1.0
176
     1
 90
        0
176
     1
 62
    18
420
        0
176
     1
 90
       50
176
     1
 90
        3
176
     1
 62
     5
420
      255
176
     1
290
     0
176
     1
 90
       50
176
     1
 90
       50
176
     1
 90
       50
176
     1
290
     0
176
     1
 90
       50
176
     1
 62
   256
176
     0
 40
1.0
176
     0
 90
        2
176
     1
  1
strokes_ogs.tif
176
     1
290
     0
176
     1
 40
1.0
176
     1
 40
1.0
176
     1
  0
VISUALSTYLE
  5
39
102
{ACAD_REACTORS
330
29
102
}
330
29
100
AcDbVisualStyle
  2
ColorChange
 70
    16
177
     3
291
     1
 70
    58
 90
        2
176
     1
 90
        2
176
     1
 90
        3
176
     1
 90
        0
176
     1
 40
0.6
176
     1
 40
30.0
176
     1
 62
     8
420
  8421504
176
     1
 90
        1
176
     1
 90
        4
176
     1
 62
     7
176
     1
 62
   257
176
     1
 90
        1
176
     1
 90
        1
176
     1
 40
1.0
176
     1
 90
        8
176
     1
 62
     8
420
  8421504
176
     1
 40
1.0
176
     1
 90
        1
176
     1
 90
        6
176
     1
 90
        2
176
     1
 62
     7
176
     1
 90
        5
176
     1
 90
        0
176
     1
 90
        0
176
     1
290
     0
176
     1
 90
        1
176
     1
 40
0.0
176
     1
 90
        0
176
     1
290
     0
176
     1
290
     1
176
     1
290
     1
176
     1
290
     0
176
     1
290
     0
176
     1
290
     0
176
     1
290
     0
176
     1
290
     0
176
     1
290
     0
176
     1
 90
       50
176
     1
 40
0.0
176
     1
 40
1.0
176
     1
 90
        0
176
     1
 62
    18
420
        0
176
     1
 90
       50
176
     1
 90
        3
176
     1
 62
     5
420
      255
176
     1
290
     0
176
     1
 90
       50
176
     1
 90
       50
176
     1
 90
       50
176
     1
290
     0
176
     1
 90
       50
176
     1
 62
   256
176
     0
 40
1.0
176
     0
 90
        2
176
     1
  1
strokes_ogs.tif
176
     1
290
     0
176
     1
 40
1.0
176
     1
 40
1.0
176
     1
  0
VISUALSTYLE
  5
32
102
{ACAD_REACTORS
330
29
102
}
330
29
100
AcDbVisualStyle
  2
Conceptual
 70
     9
177
     3
291
     0
 70
    58
 90
        3
176
     1
 90
        2
176
     1
 90
        0
176
     1
 90
        0
176
     1
 40
0.6
176
     1
 40
30.0
176
     1
 62
     7
420
 16777215
176
     1
 90
        2
176
     1
 90
        2
176
     1
 62
     7
176
     1
 62
   257
176
     1
 90
        1
176
     1
 90
        1
176
     1
 40
179.0
176
     1
 90
        8
176
     1
 62
     7
176
     1
 40
1.0
176
     1
 90
        1
176
     1
 90
        6
176
     1
 90
        2
176
     1
 62
     7
176
     1
 90
        3
176
     1
 90
        0
176
     1
 90
        0
176
     1
290
     0
176
     1
 90
        1
176
     1
 40
0.0
176
     1
 90
        0
176
     1
290
     0
176
     1
290
     1
176
     1
290
     1
176
     1
290
     0
176
     1
290
     0
176
     1
290
     0
176
     1
290
     0
176
     1
290
     0
176
     1
290
     0
176
     1
 90
       50
176
     1
 40
0.0
176
     1
 40
1.0
176
     1
 90
        0
176
     1
 62
    18
420
        0
176
     1
 90
       50
176
     1
 90
        3
176
     1
 62
     5
420
      255
176
     1
290
     0
176
     1
 90
       50
176
     1
 90
       50
176
     1
 90
       50
176
     1
290
     0
176
     1
 90
       50
176
     1
 62
   256
176
     0
 40
1.0
176
     0
 90
        2
176
     1
  1
strokes_ogs.tif
176
     1
290
     0
176
     1
 40
1.0
176
     1
 40
1.0
176
     1
  0
VISUALSTYLE
  5
34
102
{ACAD_REACTORS
330
29
102
}
330
29
100
AcDbVisualStyle
  2
Dim
 70
    11
177
     3
291
     1
 70
    58
 90
        2
176
     1
 90
        2
176
     1
 90
        0
176
     1
 90
        0
176
     1
 40
0.6
176
     1
 40
30.0
176
     1
 62
     7
420
 16777215
176
     1
 90
        1
176
     1
 90
        4
176
     1
 62
     7
176
     1
 62
   257
176
     1
 90
        1
176
     1
 90
        1
176
     1
 40
1.0
176
     1
 90
        8
176
     1
 62
     7
176
     1
 40
1.0
176
     1
 90
        1
176
     1
 90
        6
176
     1
 90
        2
176
     1
 62
     7
176
     1
 90
        5
176
     1
 90
        0
176
     1
 90
        0
176
     1
290
     0
176
     1
 90
        1
176
     1
 40
-50.0
176
     1
 90
        0
176
     1
290
     0
176
     1
290
     1
176
     1
290
     1
176
     1
290
     0
176
     1
290
     0
176
     1
290
     0
176
     1
290
     0
176
     1
290
     0
176
     1
290
     0
176
     1
 90
       50
176
     1
 40
0.0
176
     1
 40
1.0
176
     1
 90
        0
176
     1
 62
    18
420
        0
176
     1
 90
       50
176
     1
 90
        3
176
     1
 62
     5
420
      255
176
     1
290
     0
176
     1
 90
       50
176
     1
 90
       50
176
     1
 90
       50
176
     1
290
     0
176
     1
 90
       50
176
     1
 62
   256
176
     0
 40
1.0
176
     0
 90
        2
176
     1
  1
strokes_ogs.tif
176
     1
290
     0
176
     1
 40
1.0
176
     1
 40
1.0
176
     1
  0
VISUALSTYLE
  5
41
102
{ACAD_REACTORS
330
29
102
}
330
29
100
AcDbVisualStyle
  2
EdgeColorOff
 70
    22
177
     3
291
     1
 70
    58
 90
        2
176
     0
 90
        2
176
     0
 90
        0
176
     0
 90
        0
176
     0
 40
0.6
176
     0
 40
30.0
176
     0
 62
     7
420
 16777215
176
     0
 90
        1
176
     0
 90
        4
176
     0
 62
     7
176
     0
 62
   257
176
     0
 90
        1
176
     0
 90
        1
176
     0
 40
1.0
176
     0
 90
        8
176
     2
 62
     7
176
     0
 40
1.0
176
     0
 90
        1
176
     0
 90
        6
176
     0
 90
        2
176
     0
 62
     7
176
     0
 90
        5
176
     0
 90
        0
176
     0
 90
        0
176
     0
290
     0
176
     0
 90
        1
176
     0
 40
0.0
176
     0
 90
        0
176
     0
290
     0
176
     0
290
     1
176
     0
290
     1
176
     0
290
     0
176
     0
290
     0
176
     0
290
     0
176
     0
290
     0
176
     0
290
     0
176
     0
290
     0
176
     0
 90
       50
176
     0
 40
0.0
176
     0
 40
1.0
176
     0
 90
        0
176
     0
 62
    18
420
        0
176
     0
 90
       50
176
     0
 90
        3
176
     0
 62
     5
420
      255
176
     0
290
     0
176
     0
 90
       50
176
     0
 90
       50
176
     0
 90
       50
176
     0
290
     0
176
     0
 90
       50
176
     0
 62
   256
176
     0
 40
1.0
176
     0
 90
        2
176
     0
  1
strokes_ogs.tif
176
     0
290
     0
176
     0
 40
1.0
176
     0
 40
1.0
176
     0
  0
VISUALSTYLE
  5
38
102
{ACAD_REACTORS
330
29
102
}
330
29
100
AcDbVisualStyle
  2
Facepattern
 70
    15
177
     3
291
     1
 70
    58
 90
        2
176
     1
 90
        2
176
     1
 90
        0
176
     1
 90
        0
176
     1
 40
0.6
176
     1
 40
30.0
176
     1
 62
     7
420
 16777215
176
     1
 90
        1
176
     1
 90
        4
176
     1
 62
     7
176
     1
 62
   257
176
     1
 90
        1
176
     1
 90
        1
176
     1
 40
1.0
176
     1
 90
        8
176
     1
 62
     7
176
     1
 40
1.0
176
     1
 90
        1
176
     1
 90
        6
176
     1
 90
        2
176
     1
 62
     7
176
     1
 90
        5
176
     1
 90
        0
176
     1
 90
        0
176
     1
290
     0
176
     1
 90
        1
176
     1
 40
0.0
176
     1
 90
        0
176
     1
290
     0
176
     1
290
     1
176
     1
290
     1
176
     1
290
     0
176
     1
290
     0
176
     1
290
     0
176
     1
290
     0
176
     1
290
     0
176
     1
290
     0
176
     1
 90
       50
176
     1
 40
0.0
176
     1
 40
1.0
176
     1
 90
        0
176
     1
 62
    18
420
        0
176
     1
 90
       50
176
     1
 90
        3
176
     1
 62
     5
420
      255
176
     1
290
     0
176
     1
 90
       50
176
     1
 90
       50
176
     1
 90
       50
176
     1
290
     0
176
     1
 90
       50
176
     1
 62
   256
176
     0
 40
1.0
176
     0
 90
        2
176
     1
  1
strokes_ogs.tif
176
     1
290
     0
176
     1
 40
1.0
176
     1
 40
1.0
176
     1
  0
VISUALSTYLE
  5
2A
102
{ACAD_REACTORS
330
29
102
}
330
29
100
AcDbVisualStyle
  2
Flat
 70
     0
177
     3
291
     1
 70
    58
 90
        2
176
     1
 90
        1
176
     1
 90
        1
176
     1
 90
        2
176
     1
 40
0.6
176
     1
 40
30.0
176
     1
 62
     7
420
 16777215
176
     1
 90
        0
176
     1
 90
        0
176
     1
 62
     7
176
     1
 62
   257
176
     1
 90
        1
176
     1
 90
        1
176
     1
 40
1.0
176
     1
 90
        8
176
     1
 62
     7
176
     1
 40
1.0
176
     1
 90
        1
176
     1
 90
        6
176
     1
 90
        2
176
     1
 62
     7
176
     1
 90
        5
176
     1
 90
        0
176
     1
 90
        0
176
     1
290
     0
176
     1
 90
       13
176
     1
 40
0.0
176
     1
 90
        0
176
     1
290
     0
176
     1
290
     1
176
     1
290
     1
176
     1
290
     0
176
     1
290
     0
176
     1
290
     0
176
     1
290
     0
176
     1
290
     0
176
     1
290
     0
176
     1
 90
       50
176
     1
 40
0.0
176
     1
 40
1.0
176
     1
 90
        0
176
     1
 62
    18
420
        0
176
     1
 90
       50
176
     1
 90
        3
176
     1
 62
     5
420
      255
176
     1
290
     0
176
     1
 90
       50
176
     1
 90
       50
176
     1
 90
       50
176
     1
290
     0
176
     1
 90
       50
176
     1
 62
   256
176
     0
 40
1.0
176
     0
 90
        2
176
     1
  1
strokes_ogs.tif
176
     1
290
     0
176
     1
 40
1.0
176
     1
 40
1.0
176
     1
  0
VISUALSTYLE
  5
2B
102
{ACAD_REACTORS
330
29
102
}
330
29
100
AcDbVisualStyle
  2
FlatWithEdges
 70
     1
177
     3
291
     1
 70
    58
 90
        2
176
     1
 90
        1
176
     1
 90
        1
176
     1
 90
        2
176
     1
 40
0.6
176
     1
 40
30.0
176
     1
 62
     7
420
 16777215
176
     1
 90
        1
176
     1
 90
        0
176
     1
 62
     7
176
     1
 62
   257
176
     1
 90
        1
176
     1
 90
        1
176
     1
 40
1.0
176
     1
 90
        0
176
     1
 62
   257
176
     1
 40
1.0
176
     1
 90
        1
176
     1
 90
        6
176
     1
 90
        2
176
     1
 62
     7
176
     1
 90
        5
176
     1
 90
        0
176
     1
 90
        0
176
     1
290
     0
176
     1
 90
       13
176
     1
 40
0.0
176
     1
 90
        0
176
     1
290
     0
176
     1
290
     1
176
     1
290
     1
176
     1
290
     0
176
     1
290
     0
176
     1
290
     0
176
     1
290
     0
176
     1
290
     0
176
     1
290
     0
176
     1
 90
       50
176
     1
 40
0.0
176
     1
 40
1.0
176
     1
 90
        0
176
     1
 62
    18
420
        0
176
     1
 90
       50
176
     1
 90
        3
176
     1
 62
     5
420
      255
176
     1
290
     0
176
     1
 90
       50
176
     1
 90
       50
176
     1
 90
       50
176
     1
290
     0
176
     1
 90
       50
176
     1
 62
   256
176
     0
 40
1.0
176
     0
 90
        2
176
     1
  1
strokes_ogs.tif
176
     1
290
     0
176
     1
 40
1.0
176
     1
 40
1.0
176
     1
  0
VISUALSTYLE
  5
2C
102
{ACAD_REACTORS
330
29
102
}
330
29
100
AcDbVisualStyle
  2
Gouraud
 70
     2
177
     3
291
     1
 70
    58
 90
        2
176
     1
 90
        2
176
     1
 90
        1
176
     1
 90
        2
176
     1
 40
0.6
176
     1
 40
30.0
176
     1
 62
     7
420
 16777215
176
     1
 90
        0
176
     1
 90
        0
176
     1
 62
     7
176
     1
 62
   257
176
     1
 90
        1
176
     1
 90
        1
176
     1
 40
1.0
176
     1
 90
        0
176
     1
 62
     7
176
     1
 40
1.0
176
     1
 90
        1
176
     1
 90
        6
176
     1
 90
        2
176
     1
 62
     7
176
     1
 90
        5
176
     1
 90
        0
176
     1
 90
        0
176
     1
290
     0
176
     1
 90
       13
176
     1
 40
0.0
176
     1
 90
        0
176
     1
290
     0
176
     1
290
     1
176
     1
290
     1
176
     1
290
     0
176
     1
290
     0
176
     1
290
     0
176
     1
290
     0
176
     1
290
     0
176
     1
290
     0
176
     1
 90
       50
176
     1
 40
0.0
176
     1
 40
1.0
176
     1
 90
        0
176
     1
 62
    18
420
        0
176
     1
 90
       50
176
     1
 90
        3
176
     1
 62
     5
420
      255
176
     1
290
     0
176
     1
 90
       50
176
     1
 90
       50
176
     1
 90
       50
176
     1
290
     0
176
     1
 90
       50
176
     1
 62
   256
176
     0
 40
1.0
176
     0
 90
        2
176
     1
  1
strokes_ogs.tif
176
     1
290
     0
176
     1
 40
1.0
176
     1
 40
1.0
176
     1
  0
VISUALSTYLE
  5
2D
102
{ACAD_REACTORS
330
29
102
}
330
29
100
AcDbVisualStyle
  2
GouraudWithEdges
 70
     3
177
     3
291
     1
 70
    58
 90
        2
176
     1
 90
        2
176
     1
 90
        1
176
     1
 90
        2
176
     1
 40
0.6
176
     1
 40
30.0
176
     1
 62
     7
420
 16777215
176
     1
 90
        1
176
     1
 90
        0
176
     1
 62
     7
176
     1
 62
   257
176
     1
 90
        1
176
     1
 90
        1
176
     1
 40
1.0
176
     1
 90
        0
176
     1
 62
   257
176
     1
 40
1.0
176
     1
 90
        1
176
     1
 90
        6
176
     1
 90
        2
176
     1
 62
     7
176
     1
 90
        5
176
     1
 90
        0
176
     1
 90
        0
176
     1
290
     0
176
     1
 90
       13
176
     1
 40
0.0
176
     1
 90
        0
176
     1
290
     0
176
     1
290
     1
176
     1
290
     1
176
     1
290
     0
176
     1
290
     0
176
     1
290
     0
176
     1
290
     0
176
     1
290
     0
176
     1
290
     0
176
     1
 90
       50
176
     1
 40
0.0
176
     1
 40
1.0
176
     1
 90
        0
176
     1
 62
    18
420
        0
176
     1
 90
       50
176
     1
 90
        3
176
     1
 62
     5
420
      255
176
     1
290
     0
176
     1
 90
       50
176
     1
 90
       50
176
     1
 90
       50
176
     1
290
     0
176
     1
 90
       50
176
     1
 62
   256
176
     0
 40
1.0
176
     0
 90
        2
176
     1
  1
strokes_ogs.tif
176
     1
290
     0
176
     1
 40
1.0
176
     1
 40
1.0
176
     1
  0
VISUALSTYLE
  5
31
102
{ACAD_REACTORS
330
29
102
}
330
29
100
AcDbVisualStyle
  2
Hidden
 70
     6
177
     3
291
     0
 70
    58
 90
        1
176
     1
 90
        2
176
     1
 90
        2
176
     1
 90
        0
176
     1
 40
0.6
176
     1
 40
30.0
176
     1
 62
     7
420
 16777215
176
     1
 90
        2
176
     1
 90
        2
176
     1
 62
     7
176
     1
 62
   257
176
     1
 90
        2
176
     1
 90
        1
176
     1
 40
40.0
176
     1
 90
        0
176
     1
 62
   257
176
     1
 40
1.0
176
     1
 90
        1
176
     1
 90
        6
176
     1
 90
        2
176
     1
 62
     7
176
     1
 90
        3
176
     1
 90
        0
176
     1
 90
        0
176
     1
290
     0
176
     1
 90
        1
176
     1
 40
0.0
176
     1
 90
        0
176
     1
290
     0
176
     1
290
     1
176
     1
290
     1
176
     1
290
     0
176
     1
290
     0
176
     1
290
     0
176
     1
290
     0
176
     1
290
     0
176
     1
290
     0
176
     1
 90
       50
176
     1
 40
0.0
176
     1
 40
1.0
176
     1
 90
        0
176
     1
 62
    18
420
        0
176
     1
 90
       50
176
     1
 90
        3
176
     1
 62
     5
420
      255
176
     1
290
     0
176
     1
 90
       50
176
     1
 90
       50
176
     1
 90
       50
176
     1
290
     0
176
     1
 90
       50
176
     1
 62
   256
176
     0
 40
1.0
176
     0
 90
        2
176
     1
  1
strokes_ogs.tif
176
     1
290
     0
176
     1
 40
1.0
176
     1
 40
1.0
176
     1
  0
VISUALSTYLE
  5
3F
102
{ACAD_REACTORS
330
29
102
}
330
29
100
AcDbVisualStyle
  2
JitterOff
 70
    20
177
     3
291
     1
 70
    58
 90
        2
176
     0
 90
        2
176
     0
 90
        0
176
     0
 90
        0
176
     0
 40
0.6
176
     0
 40
30.0
176
     0
 62
     7
420
 16777215
176
     0
 90
        1
176
     0
 90
        4
176
     0
 62
     7
176
     0
 62
   257
176
     0
 90
        1
176
     0
 90
        1
176
     0
 40
1.0
176
     0
 90
       10
176
     2
 62
     7
176
     0
 40
1.0
176
     0
 90
        1
176
     0
 90
        6
176
     0
 90
        2
176
     0
 62
     7
176
     0
 90
        5
176
     0
 90
        0
176
     0
 90
        0
176
     0
290
     0
176
     0
 90
        1
176
     0
 40
0.0
176
     0
 90
        0
176
     0
290
     0
176
     0
290
     1
176
     0
290
     1
176
     0
290
     0
176
     0
290
     0
176
     0
290
     0
176
     0
290
     0
176
     0
290
     0
176
     0
290
     0
176
     0
 90
       50
176
     0
 40
0.0
176
     0
 40
1.0
176
     0
 90
        0
176
     0
 62
    18
420
        0
176
     0
 90
       50
176
     0
 90
        3
176
     0
 62
     5
420
      255
176
     0
290
     0
176
     0
 90
       50
176
     0
 90
       50
176
     0
 90
       50
176
     0
290
     0
176
     0
 90
       50
176
     0
 62
   256
176
     0
 40
1.0
176
     0
 90
        2
176
     0
  1
strokes_ogs.tif
176
     0
290
     0
176
     0
 40
1.0
176
     0
 40
1.0
176
     0
  0
VISUALSTYLE
  5
37
102
{ACAD_REACTORS
330
29
102
}
330
29
100
AcDbVisualStyle
  2
Linepattern
 70
    14
177
     3
291
     1
 70
    58
 90
        2
176
     1
 90
        2
176
     1
 90
        0
176
     1
 90
        0
176
     1
 40
0.6
176
     1
 40
30.0
176
     1
 62
     7
420
 16777215
176
     1
 90
        1
176
     1
 90
        4
176
     1
 62
     7
176
     1
 62
   257
176
     1
 90
        7
176
     1
 90
        7
176
     1
 40
1.0
176
     1
 90
        8
176
     1
 62
     7
176
     1
 40
1.0
176
     1
 90
        1
176
     1
 90
        6
176
     1
 90
        2
176
     1
 62
     7
176
     1
 90
        5
176
     1
 90
        0
176
     1
 90
        0
176
     1
290
     0
176
     1
 90
        1
176
     1
 40
0.0
176
     1
 90
        0
176
     1
290
     0
176
     1
290
     1
176
     1
290
     1
176
     1
290
     0
176
     1
290
     0
176
     1
290
     0
176
     1
290
     0
176
     1
290
     0
176
     1
290
     0
176
     1
 90
       50
176
     1
 40
0.0
176
     1
 40
1.0
176
     1
 90
        0
176
     1
 62
    18
420
        0
176
     1
 90
       50
176
     1
 90
        3
176
     1
 62
     5
420
      255
176
     1
290
     0
176
     1
 90
       50
176
     1
 90
       50
176
     1
 90
       50
176
     1
290
     0
176
     1
 90
       50
176
     1
 62
   256
176
     0
 40
1.0
176
     0
 90
        2
176
     1
  1
strokes_ogs.tif
176
     1
290
     0
176
     1
 40
1.0
176
     1
 40
1.0
176
     1
  0
VISUALSTYLE
  5
40
102
{ACAD_REACTORS
330
29
102
}
330
29
100
AcDbVisualStyle
  2
OverhangOff
 70
    21
177
     3
291
     1
 70
    58
 90
        2
176
     0
 90
        2
176
     0
 90
        0
176
     0
 90
        0
176
     0
 40
0.6
176
     0
 40
30.0
176
     0
 62
     7
420
 16777215
176
     0
 90
        1
176
     0
 90
        4
176
     0
 62
     7
176
     0
 62
   257
176
     0
 90
        1
176
     0
 90
        1
176
     0
 40
1.0
176
     0
 90
        9
176
     2
 62
     7
176
     0
 40
1.0
176
     0
 90
        1
176
     0
 90
        6
176
     0
 90
        2
176
     0
 62
     7
176
     0
 90
        5
176
     0
 90
        0
176
     0
 90
        0
176
     0
290
     0
176
     0
 90
        1
176
     0
 40
0.0
176
     0
 90
        0
176
     0
290
     0
176
     0
290
     1
176
     0
290
     1
176
     0
290
     0
176
     0
290
     0
176
     0
290
     0
176
     0
290
     0
176
     0
290
     0
176
     0
290
     0
176
     0
 90
       50
176
     0
 40
0.0
176
     0
 40
1.0
176
     0
 90
        0
176
     0
 62
    18
420
        0
176
     0
 90
       50
176
     0
 90
        3
176
     0
 62
     5
420
      255
176
     0
290
     0
176
     0
 90
       50
176
     0
 90
       50
176
     0
 90
       50
176
     0
290
     0
176
     0
 90
       50
176
     0
 62
   256
176
     0
 40
1.0
176
     0
 90
        2
176
     0
  1
strokes_ogs.tif
176
     0
290
     0
176
     0
 40
1.0
176
     0
 40
1.0
176
     0
  0
VISUALSTYLE
  5
33
102
{ACAD_REACTORS
330
29
102
}
330
29
100
AcDbVisualStyle
  2
Realistic
 70
     8
177
     3
291
     0
 70
    58
 90
        2
176
     1
 90
        3
176
     1
 90
        0
176
     1
 90
        2
176
     1
 40
0.6
176
     1
 40
30.0
176
     1
 62
     7
420
 16777215
176
     1
 90
        0
176
     1
 90
        0
176
     1
 62
     7
176
     1
 62
   257
176
     1
 90
        1
176
     1
 90
        1
176
     1
 40
1.0
176
     1
 90
        8
176
     1
 62
   257
176
     1
 40
1.0
176
     1
 90
        1
176
     1
 90
        6
176
     1
 90
        2
176
     1
 62
     7
176
     1
 90
        3
176
     1
 90
        0
176
     1
 90
        0
176
     1
290
     0
176
     1
 90
       13
176
     1
 40
0.0
176
     1
 90
        0
176
     1
290
     0
176
     1
290
     1
176
     1
290
     1
176
     1
290
     0
176
     1
290
     0
176
     1
290
     0
176
     1
290
     0
176
     1
290
     0
176
     1
290
     0
176
     1
 90
       50
176
     1
 40
0.0
176
     1
 40
1.0
176
     1
 90
        0
176
     1
 62
    18
420
        0
176
     1
 90
       50
176
     1
 90
        3
176
     1
 62
     5
420
      255
176
     1
290
     0
176
     1
 90
       50
176
     1
 90
       50
176
     1
 90
       50
176
     1
290
     0
176
     1
 90
       50
176
     1
 62
   256
176
     0
 40
1.0
176
     0
 90
        2
176
     1
  1
strokes_ogs.tif
176
     1
290
     0
176
     1
 40
1.0
176
     1
 40
1.0
176
     1
  0
VISUALSTYLE
  5
3E
102
{ACAD_REACTORS
330
29
102
}
330
29
100
AcDbVisualStyle
  2
Shaded
 70
    27
177
     3
291
     0
 70
    58
 90
        2
176
     1
 90
        2
176
     1
 90
        1
176
     1
 90
        2
176
     1
 40
0.6
176
     1
 40
30.0
176
     1
 62
     7
420
 16777215
176
     1
 90
        0
176
     1
 90
        4
176
     1
 62
     7
176
     1
 62
   257
176
     1
 90
        1
176
     1
 90
        1
176
     1
 40
1.0
176
     1
 90
        8
176
     1
 62
   257
176
     1
 40
1.0
176
     1
 90
        1
176
     1
 90
        6
176
     1
 90
        2
176
     1
 62
     8
420
  7895160
176
     1
 90
        3
176
     1
 90
        0
176
     1
 90
        0
176
     1
290
     0
176
     1
 90
        5
176
     1
 40
0.0
176
     1
 90
        0
176
     1
290
     0
176
     1
290
     1
176
     1
290
     1
176
     1
290
     0
176
     1
290
     0
176
     1
290
     0
176
     1
290
     0
176
     1
290
     0
176
     1
290
     0
176
     1
 90
       50
176
     1
 40
0.0
176
     1
 40
1.0
176
     1
 90
        0
176
     1
 62
    18
420
        0
176
     1
 90
       50
176
     1
 90
        3
176
     1
 62
     5
420
      255
176
     1
290
     0
176
     1
 90
       50
176
     1
 90
       50
176
     1
 90
       50
176
     1
290
     0
176
     1
 90
       50
176
     1
 62
   256
176
     0
 40
1.0
176
     0
 90
        2
176
     1
  1
strokes_ogs.tif
176
     1
290
     0
176
     1
 40
1.0
176
     1
 40
1.0
176
     1
  0
VISUALSTYLE
  5
3D
102
{ACAD_REACTORS
330
29
102
}
330
29
100
AcDbVisualStyle
  2
Shaded with edges
 70
    26
177
     3
291
     0
 70
    58
 90
        2
176
     1
 90
        2
176
     1
 90
        1
176
     1
 90
        2
176
     1
 40
0.6
176
     1
 40
30.0
176
     1
 62
     7
420
 16777215
176
     1
 90
        1
176
     1
 90
        2
176
     1
 62
     7
176
     1
 62
   257
176
     1
 90
        2
176
     1
 90
        1
176
     1
 40
1.0
176
     1
 90
        8
176
     1
 62
   257
176
     1
 40
1.0
176
     1
 90
        1
176
     1
 90
        6
176
     1
 90
        2
176
     1
 62
     7
176
     1
 90
        3
176
     1
 90
        0
176
     1
 90
        0
176
     1
290
     0
176
     1
 90
        5
176
     1
 40
0.0
176
     1
 90
        0
176
     1
290
     0
176
     1
290
     1
176
     1
290
     1
176
     1
290
     0
176
     1
290
     0
176
     1
290
     0
176
     1
290
     0
176
     1
290
     0
176
     1
290
     0
176
     1
 90
       50
176
     1
 40
0.0
176
     1
 40
1.0
176
     1
 90
        0
176
     1
 62
    18
420
        0
176
     1
 90
       50
176
     1
 90
        3
176
     1
 62
     5
420
      255
176
     1
290
     0
176
     1
 90
       50
176
     1
 90
       50
176
     1
 90
       50
176
     1
290
     0
176
     1
 90
       50
176
     1
 62
   256
176
     0
 40
1.0
176
     0
 90
        2
176
     1
  1
strokes_ogs.tif
176
     1
290
     0
176
     1
 40
1.0
176
     1
 40
1.0
176
     1
  0
VISUALSTYLE
  5
3A
102
{ACAD_REACTORS
330
29
102
}
330
29
100
AcDbVisualStyle
  2
Shades of Gray
 70
    23
177
     3
291
     0
 70
    58
 90
        2
176
     1
 90
        2
176
     1
 90
        3
176
     1
 90
        0
176
     1
 40
0.6
176
     1
 40
30.0
176
     1
 62
     7
420
 16777215
176
     1
 90
        2
176
     1
 90
        2
176
     1
 62
     7
176
     1
 62
     7
176
     1
 90
        1
176
     1
 90
        1
176
     1
 40
40.0
176
     1
 90
        8
176
     1
 62
     7
176
     1
 40
1.0
176
     1
 90
        1
176
     1
 90
        6
176
     1
 90
        2
176
     1
 62
     7
176
     1
 90
        3
176
     1
 90
        0
176
     1
 90
        0
176
     1
290
     0
176
     1
 90
        1
176
     1
 40
0.0
176
     1
 90
        0
176
     1
290
     0
176
     1
290
     1
176
     1
290
     1
176
     1
290
     0
176
     1
290
     0
176
     1
290
     0
176
     1
290
     0
176
     1
290
     0
176
     1
290
     0
176
     1
 90
       50
176
     1
 40
0.0
176
     1
 40
1.0
176
     1
 90
        0
176
     1
 62
    18
420
        0
176
     1
 90
       50
176
     1
 90
        3
176
     1
 62
     5
420
      255
176
     1
290
     0
176
     1
 90
       50
176
     1
 90
       50
176
     1
 90
       50
176
     1
290
     0
176
     1
 90
       50
176
     1
 62
   256
176
     0
 40
1.0
176
     0
 90
        2
176
     1
  1
strokes_ogs.tif
176
     1
290
     0
176
     1
 40
1.0
176
     1
 40
1.0
176
     1
  0
VISUALSTYLE
  5
3B
102
{ACAD_REACTORS
330
29
102
}
330
29
100
AcDbVisualStyle
  2
Sketchy
 70
    24
177
     3
291
     0
 70
    58
 90
        1
176
     1
 90
        2
176
     1
 90
        2
176
     1
 90
        0
176
     1
 40
0.6
176
     1
 40
30.0
176
     1
 62
     7
420
 16777215
176
     1
 90
        2
176
     1
 90
        2
176
     1
 62
     7
176
     1
 62
     7
176
     1
 90
        1
176
     1
 90
        1
176
     1
 40
40.0
176
     1
 90
       11
176
     1
 62
     7
176
     1
 40
1.0
176
     1
 90
        1
176
     1
 90
        6
176
     1
 90
        2
176
     1
 62
     7
176
     1
 90
        6
176
     1
 90
        0
176
     1
 90
        0
176
     1
290
     0
176
     1
 90
        1
176
     1
 40
0.0
176
     1
 90
        0
176
     1
290
     0
176
     1
290
     1
176
     1
290
     1
176
     1
290
     0
176
     1
290
     0
176
     1
290
     0
176
     1
290
     0
176
     1
290
     0
176
     1
290
     0
176
     1
 90
       50
176
     1
 40
0.0
176
     1
 40
1.0
176
     1
 90
        0
176
     1
 62
    18
420
        0
176
     1
 90
       50
176
     1
 90
        3
176
     1
 62
     5
420
      255
176
     1
290
     0
176
     1
 90
       50
176
     1
 90
       50
176
     1
 90
       50
176
     1
290
     0
176
     1
 90
       50
176
     1
 62
   256
176
     0
 40
1.0
176
     0
 90
        2
176
     1
  1
strokes_ogs.tif
176
     1
290
     0
176
     1
 40
1.0
176
     1
 40
1.0
176
     1
  0
VISUALSTYLE
  5
36
102
{ACAD_REACTORS
330
29
102
}
330
29
100
AcDbVisualStyle
  2
Thicken
 70
    13
177
     3
291
     1
 70
    58
 90
        2
176
     1
 90
        2
176
     1
 90
        0
176
     1
 90
        0
176
     1
 40
0.6
176
     1
 40
30.0
176
     1
 62
     7
420
 16777215
176
     1
 90
        1
176
     1
 90
        4
176
     1
 62
     7
176
     1
 62
   257
176
     1
 90
        1
176
     1
 90
        1
176
     1
 40
1.0
176
     1
 90
       12
176
     1
 62
     7
176
     1
 40
1.0
176
     1
 90
        1
176
     1
 90
        6
176
     1
 90
        2
176
     1
 62
     7
176
     1
 90
        5
176
     1
 90
        0
176
     1
 90
        0
176
     1
290
     0
176
     1
 90
        1
176
     1
 40
0.0
176
     1
 90
        0
176
     1
290
     0
176
     1
290
     1
176
     1
290
     1
176
     1
290
     0
176
     1
290
     0
176
     1
290
     0
176
     1
290
     0
176
     1
290
     0
176
     1
290
     0
176
     1
 90
       50
176
     1
 40
0.0
176
     1
 40
1.0
176
     1
 90
        0
176
     1
 62
    18
420
        0
176
     1
 90
       50
176
     1
 90
        3
176
     1
 62
     5
420
      255
176
     1
290
     0
176
     1
 90
       50
176
     1
 90
       50
176
     1
 90
       50
176
     1
290
     0
176
     1
 90
       50
176
     1
 62
   256
176
     0
 40
1.0
176
     0
 90
        2
176
     1
  1
strokes_ogs.tif
176
     1
290
     0
176
     1
 40
1.0
176
     1
 40
1.0
176
     1
  0
VISUALSTYLE
  5
30
102
{ACAD_REACTORS
330
29
102
}
330
29
100
AcDbVisualStyle
  2
Wireframe
 70
     5
177
     3
291
     0
 70
    58
 90
        0
176
     1
 90
        2
176
     1
 90
        0
176
     1
 90
        0
176
     1
 40
0.6
176
     1
 40
30.0
176
     1
 62
     7
420
 16777215
176
     1
 90
        1
176
     1
 90
        4
176
     1
 62
     7
176
     1
 62
   257
176
     1
 90
        1
176
     1
 90
        1
176
     1
 40
1.0
176
     1
 90
        0
176
     1
 62
   257
176
     1
 40
1.0
176
     1
 90
        1
176
     1
 90
        6
176
     1
 90
        2
176
     1
 62
     7
176
     1
 90
        3
176
     1
 90
        0
176
     1
 90
        0
176
     1
290
     0
176
     1
 90
        1
176
     1
 40
0.0
176
     1
 90
        0
176
     1
290
     0
176
     1
290
     1
176
     1
290
     1
176
     1
290
     0
176
     1
290
     0
176
     1
290
     0
176
     1
290
     0
176
     1
290
     0
176
     1
290
     0
176
     1
 90
       50
176
     1
 40
0.0
176
     1
 40
1.0
176
     1
 90
        0
176
     1
 62
    18
420
        0
176
     1
 90
       50
176
     1
 90
        3
176
     1
 62
     5
420
      255
176
     1
290
     0
176
     1
 90
       50
176
     1
 90
       50
176
     1
 90
       50
176
     1
290
     0
176
     1
 90
       50
176
     1
 62
   256
176
     0
 40
1.0
176
     0
 90
        2
176
     1
  1
strokes_ogs.tif
176
     1
290
     0
176
     1
 40
1.0
176
     1
 40
1.0
176
     1
  0
VISUALSTYLE
  5
3C
102
{ACAD_REACTORS
330
29
102
}
330
29
100
AcDbVisualStyle
  2
X-Ray
 70
    25
177
     3
291
     0
 70
    58
 90
        2
176
     1
 90
        2
176
     1
 90
        1
176
     1
 90
        1
176
     1
 40
0.5
176
     1
 40
30.0
176
     1
 62
     7
420
 16777215
176
     1
 90
        1
176
     1
 90
        0
176
     1
 62
     7
176
     1
 62
   257
176
     1
 90
        1
176
     1
 90
        1
176
     1
 40
1.0
176
     1
 90
        8
176
     1
 62
     7
176
     1
 40
1.0
176
     1
 90
        1
176
     1
 90
        6
176
     1
 90
        2
176
     1
 62
     7
176
     1
 90
        3
176
     1
 90
        0
176
     1
 90
        0
176
     1
290
     0
176
     1
 90
       13
176
     1
 40
0.0
176
     1
 90
        0
176
     1
290
     0
176
     1
290
     1
176
     1
290
     1
176
     1
290
     0
176
     1
290
     0
176
     1
290
     0
176
     1
290
     0
176
     1
290
     0
176
     1
290
     0
176
     1
 90
       50
176
     1
 40
0.0
176
     1
 40
1.0
176
     1
 90
        0
176
     1
 62
    18
420
        0
176
     1
 90
       50
176
     1
 90
        3
176
     1
 62
     5
420
      255
176
     1
290
     0
176
     1
 90
       50
176
     1
 90
       50
176
     1
 90
       50
176
     1
290
     0
176
     1
 90
       50
176
     1
 62
   256
176
     0
 40
1.0
176
     0
 90
        2
176
     1
  1
strokes_ogs.tif
176
     1
290
     0
176
     1
 40
1.0
176
     1
 40
1.0
176
     1
  0
DICTIONARYVAR
  5
E8
102
{ACAD_REACTORS
330
E3
102
}
330
E3
100
DictionaryVariables
280
     0
  1
1:1
  0
DICTIONARYVAR
  5
E5
102
{ACAD_REACTORS
330
E3
102
}
330
E3
100
DictionaryVariables
280
     0
  1
STANDARD
  0
DICTIONARYVAR
  5
E4
102
{ACAD_REACTORS
330
E3
102
}
330
E3
100
DictionaryVariables
280
     0
  1
STANDARD
  0
DICTIONARYVAR
  5
E6
102
{ACAD_REACTORS
330
E3
102
}
330
E3
100
DictionaryVariables
280
     0
  1
Imperial24
  0
DICTIONARYVAR
  5
E7
102
{ACAD_REACTORS
330
E3
102
}
330
E3
100
DictionaryVariables
280
     0
  1
Imperial24
  0
DICTIONARY
  5
1A
330
19
100
AcDbDictionary
280
     1
281
     1
  3
BUMPTILE
360
1C
  3
DIFFUSETILE
360
1B
  3
OPACITYTILE
360
1F
  3
REFLECTIONTILE
360
1E
  3
REFRACTIONTILE
360
20
  3
SPECULARTILE
360
1D
  0
DICTIONARY
  5
12
330
11
100
AcDbDictionary
280
     1
281
     1
  3
BUMPTILE
360
14
  3
DIFFUSETILE
360
13
  3
OPACITYTILE
360
17
  3
REFLECTIONTILE
360
16
  3
REFRACTIONTILE
360
18
  3
SPECULARTILE
360
15
  0
DICTIONARY
  5
22
330
21
100
AcDbDictionary
280
     1
281
     1
  3
BUMPTILE
360
24
  3
DIFFUSETILE
360
23
  3
OPACITYTILE
360
27
  3
REFLECTIONTILE
360
26
  3
REFRACTIONTILE
360
28
  3
SPECULARTILE
360
25
  0
DICTIONARY
  5
E9
330
65
100
AcDbDictionary
280
     1
281
     1
  3
ACAD_ROUNDTRIP_2008_TABLESTYLE_CELLSTYLEMAP
360
EA
  0
XRECORD
  5
1C
102
{ACAD_REACTORS
330
1A
102
}
330
1A
100
AcDbXrecord
280
     1
270
     1
271
     1
  0
XRECORD
  5
1B
102
{ACAD_REACTORS
330
1A
102
}
330
1A
100
AcDbXrecord
280
     1
270
     1
271
     1
  0
XRECORD
  5
1F
102
{ACAD_REACTORS
330
1A
102
}
330
1A
100
AcDbXrecord
280
     1
270
     1
271
     1
  0
XRECORD
  5
1E
102
{ACAD_REACTORS
330
1A
102
}
330
1A
100
AcDbXrecord
280
     1
270
     1
271
     1
  0
XRECORD
  5
20
102
{ACAD_REACTORS
330
1A
102
}
330
1A
100
AcDbXrecord
280
     1
270
     1
271
     1
  0
XRECORD
  5
1D
102
{ACAD_REACTORS
330
1A
102
}
330
1A
100
AcDbXrecord
280
     1
270
     1
271
     1
  0
XRECORD
  5
14
102
{ACAD_REACTORS
330
12
102
}
330
12
100
AcDbXrecord
280
     1
270
     1
271
     1
  0
XRECORD
  5
13
102
{ACAD_REACTORS
330
12
102
}
330
12
100
AcDbXrecord
280
     1
270
     1
271
     1
  0
XRECORD
  5
17
102
{ACAD_REACTORS
330
12
102
}
330
12
100
AcDbXrecord
280
     1
270
     1
271
     1
  0
XRECORD
  5
16
102
{ACAD_REACTORS
330
12
102
}
330
12
100
AcDbXrecord
280
     1
270
     1
271
     1
  0
XRECORD
  5
18
102
{ACAD_REACTORS
330
12
102
}
330
12
100
AcDbXrecord
280
     1
270
     1
271
     1
  0
XRECORD
  5
15
102
{ACAD_REACTORS
330
12
102
}
330
12
100
AcDbXrecord
280
     1
270
     1
271
     1
  0
XRECORD
  5
24
102
{ACAD_REACTORS
330
22
102
}
330
22
100
AcDbXrecord
280
     1
270
     1
271
     1
  0
XRECORD
  5
23
102
{ACAD_REACTORS
330
22
102
}
330
22
100
AcDbXrecord
280
     1
270
     1
271
     1
  0
XRECORD
  5
27
102
{ACAD_REACTORS
330
22
102
}
330
22
100
AcDbXrecord
280
     1
270
     1
271
     1
  0
XRECORD
  5
26
102
{ACAD_REACTORS
330
22
102
}
330
22
100
AcDbXrecord
280
     1
270
     1
271
     1
  0
XRECORD
  5
28
102
{ACAD_REACTORS
330
22
102
}
330
22
100
AcDbXrecord
280
     1
270
     1
271
     1
  0
XRECORD
  5
25
102
{ACAD_REACTORS
330
22
102
}
330
22
100
AcDbXrecord
280
     1
270
     1
271
     1
  0
CELLSTYLEMAP
  5
EA
102
{ACAD_REACTORS
330
E9
102
}
330
E9
100
AcDbCellStyleMap
 90
        3
300
CELLSTYLE
  1
TABLEFORMAT_BEGIN
 90
        5
170
     1
 91
        0
 92
    32768
 62
   257
 93
        1
300
CONTENTFORMAT
  1
CONTENTFORMAT_BEGIN
 90
        0
 91
        0
 92
      512
 93
        0
300

 40
0.0
140
1.0
 94
        5
 62
     0
340
55
144
0.25
309
CONTENTFORMAT_END
171
     0
 94
        0
309
TABLEFORMAT_END
  1
CELLSTYLE_BEGIN
 90
        1
 91
        1
300
_TITLE
309
CELLSTYLE_END
300
CELLSTYLE
  1
TABLEFORMAT_BEGIN
 90
        5
170
     1
 91
        0
 92
        0
 62
   257
 93
        1
300
CONTENTFORMAT
  1
CONTENTFORMAT_BEGIN
 90
        0
 91
        0
 92
      512
 93
        0
300

 40
0.0
140
1.0
 94
        5
 62
     0
340
55
144
0.18
309
CONTENTFORMAT_END
171
     0
 94
        0
309
TABLEFORMAT_END
  1
CELLSTYLE_BEGIN
 90
        2
 91
        1
300
_HEADER
309
CELLSTYLE_END
300
CELLSTYLE
  1
TABLEFORMAT_BEGIN
 90
        5
170
     1
 91
        0
 92
        0
 62
   257
 93
        1
300
CONTENTFORMAT
  1
CONTENTFORMAT_BEGIN
 90
        0
 91
        0
 92
      512
 93
        0
300

 40
0.0
140
1.0
 94
        2
 62
     0
340
55
144
0.18
309
CONTENTFORMAT_END
171
     0
 94
        0
309
TABLEFORMAT_END
  1
CELLSTYLE_BEGIN
 90
        3
 91
        2
300
_DATA
309
CELLSTYLE_END
  0
ENDSEC
  0
EOF
