  0
SECTION
  2
HEADER
  9
$ACADVER
  1
AC1032
  9
$ACADMAINTVER
 90
      228
  9
$DWGCODEPAGE
  3
ANSI_932
  9
$REQUIREDVERSIONS
160
                 0
  9
$INSBASE
 10
0.0
 20
0.0
 30
0.0
  9
$EXTMIN
 10
1.000000000000000E+20
 20
1.000000000000000E+20
 30
1.000000000000000E+20
  9
$EXTMAX
 10
-1.000000000000000E+20
 20
-1.000000000000000E+20
 30
-1.000000000000000E+20
  9
$LIMMIN
 10
0.0
 20
0.0
  9
$LIMMAX
 10
12.0
 20
9.0
  9
$ORTHOMODE
 70
     0
  9
$REGENMODE
 70
     1
  9
$FILLMODE
 70
     1
  9
$QTEXTMODE
 70
     0
  9
$MIRRTEXT
 70
     0
  9
$LTSCALE
 40
1.0
  9
$ATTMODE
 70
     1
  9
$TEXTSIZE
 40
0.2
  9
$TRACEWID
 40
0.05
  9
$TEXTSTYLE
  7
Standard
  9
$CLAYER
  8
0
  9
$CELTYPE
  6
ByLayer
  9
$CECOLOR
 62
   256
  9
$CELTSCALE
 40
1.0
  9
$DISPSILH
 70
     0
  9
$DIMSCALE
 40
1.0
  9
$DIMASZ
 40
0.18
  9
$DIMEXO
 40
0.0625
  9
$DIMDLI
 40
0.38
  9
$DIMRND
 40
0.0
  9
$DIMDLE
 40
0.0
  9
$DIMEXE
 40
0.18
  9
$DIMTP
 40
0.0
  9
$DIMTM
 40
0.0
  9
$DIMTXT
 40
0.18
  9
$DIMCEN
 40
0.09
  9
$DIMTSZ
 40
0.0
  9
$DIMTOL
 70
     0
  9
$DIMLIM
 70
     0
  9
$DIMTIH
 70
     1
  9
$DIMTOH
 70
     1
  9
$DIMSE1
 70
     0
  9
$DIMSE2
 70
     0
  9
$DIMTAD
 70
     0
  9
$DIMZIN
 70
     0
  9
$DIMBLK
  1

  9
$DIMASO
 70
     1
  9
$DIMSHO
 70
     1
  9
$DIMPOST
  1

  9
$DIMAPOST
  1

  9
$DIMALT
 70
     0
  9
$DIMALTD
 70
     2
  9
$DIMALTF
 40
25.4
  9
$DIMLFAC
 40
1.0
  9
$DIMTOFL
 70
     0
  9
$DIMTVP
 40
0.0
  9
$DIMTIX
 70
     0
  9
$DIMSOXD
 70
     0
  9
$DIMSAH
 70
     0
  9
$DIMBLK1
  1

  9
$DIMBLK2
  1

  9
$DIMSTYLE
  2
Standard
  9
$DIMCLRD
 70
     0
  9
$DIMCLRE
 70
     0
  9
$DIMCLRT
 70
     0
  9
$DIMTFAC
 40
1.0
  9
$DIMGAP
 40
0.09
  9
$DIMJUST
 70
     0
  9
$DIMSD1
 70
     0
  9
$DIMSD2
 70
     0
  9
$DIMTOLJ
 70
     1
  9
$DIMTZIN
 70
     0
  9
$DIMALTZ
 70
     0
  9
$DIMALTTZ
 70
     0
  9
$DIMUPT
 70
     0
  9
$DIMDEC
 70
     4
  9
$DIMTDEC
 70
     4
  9
$DIMALTU
 70
     2
  9
$DIMALTTD
 70
     2
  9
$DIMTXSTY
  7
Standard
  9
$DIMAUNIT
 70
     0
  9
$DIMADEC
 70
     0
  9
$DIMALTRND
 40
0.0
  9
$DIMAZIN
 70
     0
  9
$DIMDSEP
 70
    46
  9
$DIMATFIT
 70
     3
  9
$DIMFRAC
 70
     0
  9
$DIMLDRBLK
  1

  9
$DIMLUNIT
 70
     2
  9
$DIMLWD
 70
    -2
  9
$DIMLWE
 70
    -2
  9
$DIMTMOVE
 70
     0
  9
$DIMFXL
 40
1.0
  9
$DIMFXLON
 70
     0
  9
$DIMJOGANG
 40
0.7853981633974483
  9
$DIMTFILL
 70
     0
  9
$DIMTFILLCLR
 70
     0
  9
$DIMARCSYM
 70
     0
  9
$DIMLTYPE
  6

  9
$DIMLTEX1
  6

  9
$DIMLTEX2
  6

  9
$DIMTXTDIRECTION
 70
     0
  9
$LUNITS
 70
     2
  9
$LUPREC
 70
     4
  9
$SKETCHINC
 40
0.1
  9
$FILLETRAD
 40
0.0
  9
$AUNITS
 70
     0
  9
$AUPREC
 70
     0
  9
$MENU
  1
.
  9
$ELEVATION
 40
0.0
  9
$PELEVATION
 40
0.0
  9
$THICKNESS
 40
0.0
  9
$LIMCHECK
 70
     0
  9
$CHAMFERA
 40
0.0
  9
$CHAMFERB
 40
0.0
  9
$CHAMFERC
 40
0.0
  9
$CHAMFERD
 40
0.0
  9
$SKPOLY
 70
     0
  9
$TDCREATE
 40
2460062.573541667
  9
$TDUCREATE
 40
2460062.198541667
  9
$TDUPDATE
 40
2460062.573541667
  9
$TDUUPDATE
 40
2460062.198541667
  9
$TDINDWG
 40
0.0000000000
  9
$TDUSRTIMER
 40
0.0000000000
  9
$USRTIMER
 70
     1
  9
$ANGBASE
 50
0.0
  9
$ANGDIR
 70
     0
  9
$PDMODE
 70
     0
  9
$PDSIZE
 40
0.0
  9
$PLINEWID
 40
0.0
  9
$SPLFRAME
 70
     0
  9
$SPLINETYPE
 70
     6
  9
$SPLINESEGS
 70
     8
  9
$HANDSEED
  5
24F
  9
$SURFTAB1
 70
     6
  9
$SURFTAB2
 70
     6
  9
$SURFTYPE
 70
     6
  9
$SURFU
 70
     6
  9
$SURFV
 70
     6
  9
$UCSBASE
  2

  9
$UCSNAME
  2

  9
$UCSORG
 10
0.0
 20
0.0
 30
0.0
  9
$UCSXDIR
 10
1.0
 20
0.0
 30
0.0
  9
$UCSYDIR
 10
0.0
 20
1.0
 30
0.0
  9
$UCSORTHOREF
  2

  9
$UCSORTHOVIEW
 70
     0
  9
$UCSORGTOP
 10
0.0
 20
0.0
 30
0.0
  9
$UCSORGBOTTOM
 10
0.0
 20
0.0
 30
0.0
  9
$UCSORGLEFT
 10
0.0
 20
0.0
 30
0.0
  9
$UCSORGRIGHT
 10
0.0
 20
0.0
 30
0.0
  9
$UCSORGFRONT
 10
0.0
 20
0.0
 30
0.0
  9
$UCSORGBACK
 10
0.0
 20
0.0
 30
0.0
  9
$PUCSBASE
  2

  9
$PUCSNAME
  2

  9
$PUCSORG
 10
0.0
 20
0.0
 30
0.0
  9
$PUCSXDIR
 10
1.0
 20
0.0
 30
0.0
  9
$PUCSYDIR
 10
0.0
 20
1.0
 30
0.0
  9
$PUCSORTHOREF
  2

  9
$PUCSORTHOVIEW
 70
     0
  9
$PUCSORGTOP
 10
0.0
 20
0.0
 30
0.0
  9
$PUCSORGBOTTOM
 10
0.0
 20
0.0
 30
0.0
  9
$PUCSORGLEFT
 10
0.0
 20
0.0
 30
0.0
  9
$PUCSORGRIGHT
 10
0.0
 20
0.0
 30
0.0
  9
$PUCSORGFRONT
 10
0.0
 20
0.0
 30
0.0
  9
$PUCSORGBACK
 10
0.0
 20
0.0
 30
0.0
  9
$USERI1
 70
     0
  9
$USERI2
 70
     0
  9
$USERI3
 70
     0
  9
$USERI4
 70
     0
  9
$USERI5
 70
     0
  9
$USERR1
 40
0.0
  9
$USERR2
 40
0.0
  9
$USERR3
 40
0.0
  9
$USERR4
 40
0.0
  9
$USERR5
 40
0.0
  9
$WORLDVIEW
 70
     1
  9
$SHADEDGE
 70
     3
  9
$SHADEDIF
 70
    70
  9
$TILEMODE
 70
     1
  9
$MAXACTVP
 70
    64
  9
$PINSBASE
 10
0.0
 20
0.0
 30
0.0
  9
$PLIMCHECK
 70
     0
  9
$PEXTMIN
 10
1.000000000000000E+20
 20
1.000000000000000E+20
 30
1.000000000000000E+20
  9
$PEXTMAX
 10
-1.000000000000000E+20
 20
-1.000000000000000E+20
 30
-1.000000000000000E+20
  9
$PLIMMIN
 10
0.0
 20
0.0
  9
$PLIMMAX
 10
12.0
 20
9.0
  9
$UNITMODE
 70
     0
  9
$VISRETAIN
 70
     1
  9
$PLINEGEN
 70
     0
  9
$PSLTSCALE
 70
     1
  9
$TREEDEPTH
 70
  3020
  9
$CMLSTYLE
  2
Standard
  9
$CMLJUST
 70
     0
  9
$CMLSCALE
 40
1.0
  9
$PROXYGRAPHICS
 70
     1
  9
$MEASUREMENT
 70
     0
  9
$CELWEIGHT
370
    -1
  9
$ENDCAPS
280
     0
  9
$JOINSTYLE
280
     0
  9
$LWDISPLAY
290
     1
  9
$INSUNITS
 70
     4
  9
$HYPERLINKBASE
  1

  9
$STYLESHEET
  1

  9
$XEDIT
290
     1
  9
$CEPSNTYPE
380
     0
  9
$PSTYLEMODE
290
     1
  9
$FINGERPRINTGUID
  2
{9862D75C-AFB7-2245-8E79-6B9827443B44}
  9
$VERSIONGUID
  2
{EB69966D-2BFB-E54E-833C-F5752428AFE7}
  9
$EXTNAMES
290
     1
  9
$PSVPSCALE
 40
0.0
  9
$OLESTARTUP
290
     0
  9
$SORTENTS
280
   127
  9
$INDEXCTL
280
     0
  9
$HIDETEXT
280
     1
  9
$XCLIPFRAME
280
     2
  9
$HALOGAP
280
     0
  9
$OBSCOLOR
 70
   257
  9
$OBSLTYPE
280
     0
  9
$INTERSECTIONDISPLAY
280
     0
  9
$INTERSECTIONCOLOR
 70
   257
  9
$DIMASSOC
280
     2
  9
$PROJECTNAME
  1

  9
$CAMERADISPLAY
290
     0
  9
$LENSLENGTH
 40
50.0
  9
$CAMERAHEIGHT
 40
0.0
  9
$STEPSPERSEC
 40
2.0
  9
$STEPSIZE
 40
6.0
  9
$3DDWFPREC
 40
2.0
  9
$PSOLWIDTH
 40
0.25
  9
$PSOLHEIGHT
 40
4.0
  9
$LOFTANG1
 40
1.570796326794896
  9
$LOFTANG2
 40
1.570796326794896
  9
$LOFTMAG1
 40
0.0
  9
$LOFTMAG2
 40
0.0
  9
$LOFTPARAM
 70
     7
  9
$LOFTNORMALS
280
     1
  9
$LATITUDE
 40
37.795
  9
$LONGITUDE
 40
-122.394
  9
$NORTHDIRECTION
 40
0.0
  9
$TIMEZONE
 70
 -8000
  9
$LIGHTGLYPHDISPLAY
280
     1
  9
$TILEMODELIGHTSYNCH
280
     1
  9
$CMATERIAL
347
11
  9
$SOLIDHIST
280
     0
  9
$SHOWHIST
280
     1
  9
$DWFFRAME
280
     2
  9
$DGNFRAME
280
     0
  9
$REALWORLDSCALE
290
     1
  9
$INTERFERECOLOR
 62
     1
  9
$INTERFEREOBJVS
345
33
  9
$INTERFEREVPVS
346
30
  9
$CSHADOW
280
     0
  9
$SHADOWPLANELOCATION
 40
0.0
  0
ENDSEC
  0
SECTION
  2
CLASSES
  0
CLASS
  1
ACDBDICTIONARYWDFLT
  2
AcDbDictionaryWithDefault
  3
ObjectDBX Classes
 90
        0
 91
        1
280
     0
281
     0
  0
CLASS
  1
MATERIAL
  2
AcDbMaterial
  3
ObjectDBX Classes
 90
     1153
 91
        3
280
     0
281
     0
  0
CLASS
  1
VISUALSTYLE
  2
AcDbVisualStyle
  3
ObjectDBX Classes
 90
     4095
 91
       24
280
     0
281
     0
  0
CLASS
  1
SCALE
  2
AcDbScale
  3
ObjectDBX Classes
 90
     1153
 91
       17
280
     0
281
     0
  0
CLASS
  1
TABLESTYLE
  2
AcDbTableStyle
  3
ObjectDBX Classes
 90
     4095
 91
        1
280
     0
281
     0
  0
CLASS
  1
MLEADERSTYLE
  2
AcDbMLeaderStyle
  3
ACDB_MLEADERSTYLE_CLASS
 90
     4095
 91
        1
280
     0
281
     0
  0
CLASS
  1
ACDBSECTIONVIEWSTYLE
  2
AcDbSectionViewStyle
  3
ObjectDBX Classes
 90
     1025
 91
        1
280
     0
281
     0
  0
CLASS
  1
ACDBDETAILVIEWSTYLE
  2
AcDbDetailViewStyle
  3
ObjectDBX Classes
 90
     1025
 91
        1
280
     0
281
     0
  0
CLASS
  1
DICTIONARYVAR
  2
AcDbDictionaryVar
  3
ObjectDBX Classes
 90
        0
 91
        5
280
     0
281
     0
  0
CLASS
  1
CELLSTYLEMAP
  2
AcDbCellStyleMap
  3
ObjectDBX Classes
 90
     1152
 91
        1
280
     0
281
     0
  0
ENDSEC
  0
SECTION
  2
TABLES
  0
TABLE
  2
VPORT
  5
8
330
0
100
AcDbSymbolTable
 70
     1
  0
VPORT
  5
57
330
8
100
AcDbSymbolTableRecord
100
AcDbViewportTableRecord
  2
*Active
 70
     0
 10
0.0
 20
0.0
 11
1.0
 21
1.0
 12
0.0
 22
0.0
 13
0.0
 23
0.0
 14
1.0
 24
1.0
 15
0.0
 25
0.0
 16
0.0
 26
0.0
 36
1.0
 17
338.666666582
 27
190.4999999523751
 37
0.0
 40
388.8749999028449
 41
1.776612021857632
 42
50.0
 43
0.0
 44
0.0
 50
0.0
 51
0.0
 71
     0
 72
   100
 73
     1
 74
     1
 75
     0
 76
     0
 77
     0
 78
     0
281
     0
 65
     1
110
0.0
120
0.0
130
0.0
111
1.0
121
0.0
131
0.0
112
0.0
122
1.0
132
0.0
 79
     0
146
0.0
 60
     3
 61
     5
292
     1
282
     1
141
0.0
142
0.0
 63
   250
421
  3355443
  0
ENDTAB
  0
TABLE
  2
LTYPE
  5
5
330
0
100
AcDbSymbolTable
 70
    34
  0
LTYPE
  5
5B
330
5
100
AcDbSymbolTableRecord
100
AcDbLinetypeTableRecord
  2
ByBlock
 70
     0
  3

 72
    65
 73
     0
 40
0.0
  0
LTYPE
  5
5C
330
5
100
AcDbSymbolTableRecord
100
AcDbLinetypeTableRecord
  2
ByLayer
 70
     0
  3

 72
    65
 73
     0
 40
0.0
  0
LTYPE
  5
5D
330
5
100
AcDbSymbolTableRecord
100
AcDbLinetypeTableRecord
  2
Continuous
 70
     0
  3
Solid line
 72
    65
 73
     0
 40
0.0
  0
LTYPE
  5
204
330
5
100
AcDbSymbolTableRecord
100
AcDbLinetypeTableRecord
  2
AI-Linetype-0
 70
     0
  3
Adobe Illustrator Linetype No. 0
 72
    65
 73
     6
 40
28.83309416579927
 49
14.41654708289963
 74
     0
 49
-3.604136770724908
 74
     0
 49
1.802068385362454
 74
     0
 49
-3.604136770724908
 74
     0
 49
1.802068385362454
 74
     0
 49
-3.604136770724908
 74
     0
  0
LTYPE
  5
206
330
5
100
AcDbSymbolTableRecord
100
AcDbLinetypeTableRecord
  2
AI-Linetype-1
 70
     0
  3
Adobe Illustrator Linetype No. 1
 72
    65
 73
     6
 40
28.83309416579927
 49
14.41654708289963
 74
     0
 49
-3.604136770724908
 74
     0
 49
1.802068385362454
 74
     0
 49
-3.604136770724908
 74
     0
 49
1.802068385362454
 74
     0
 49
-3.604136770724908
 74
     0
  0
LTYPE
  5
208
330
5
100
AcDbSymbolTableRecord
100
AcDbLinetypeTableRecord
  2
AI-Linetype-2
 70
     0
  3
Adobe Illustrator Linetype No. 2
 72
    65
 73
     6
 40
28.83309416579927
 49
14.41654708289963
 74
     0
 49
-3.604136770724908
 74
     0
 49
1.802068385362454
 74
     0
 49
-3.604136770724908
 74
     0
 49
1.802068385362454
 74
     0
 49
-3.604136770724908
 74
     0
  0
LTYPE
  5
20A
330
5
100
AcDbSymbolTableRecord
100
AcDbLinetypeTableRecord
  2
AI-Linetype-3
 70
     0
  3
Adobe Illustrator Linetype No. 3
 72
    65
 73
     6
 40
28.83309416579927
 49
14.41654708289963
 74
     0
 49
-3.604136770724908
 74
     0
 49
1.802068385362454
 74
     0
 49
-3.604136770724908
 74
     0
 49
1.802068385362454
 74
     0
 49
-3.604136770724908
 74
     0
  0
LTYPE
  5
20C
330
5
100
AcDbSymbolTableRecord
100
AcDbLinetypeTableRecord
  2
AI-Linetype-4
 70
     0
  3
Adobe Illustrator Linetype No. 4
 72
    65
 73
     6
 40
28.83309416579927
 49
14.41654708289963
 74
     0
 49
-3.604136770724908
 74
     0
 49
1.802068385362454
 74
     0
 49
-3.604136770724908
 74
     0
 49
1.802068385362454
 74
     0
 49
-3.604136770724908
 74
     0
  0
LTYPE
  5
20E
330
5
100
AcDbSymbolTableRecord
100
AcDbLinetypeTableRecord
  2
AI-Linetype-5
 70
     0
  3
Adobe Illustrator Linetype No. 5
 72
    65
 73
     6
 40
28.83309416579927
 49
14.41654708289963
 74
     0
 49
-3.604136770724908
 74
     0
 49
1.802068385362454
 74
     0
 49
-3.604136770724908
 74
     0
 49
1.802068385362454
 74
     0
 49
-3.604136770724908
 74
     0
  0
LTYPE
  5
210
330
5
100
AcDbSymbolTableRecord
100
AcDbLinetypeTableRecord
  2
AI-Linetype-6
 70
     0
  3
Adobe Illustrator Linetype No. 6
 72
    65
 73
     6
 40
28.83309416579927
 49
14.41654708289963
 74
     0
 49
-3.604136770724908
 74
     0
 49
1.802068385362454
 74
     0
 49
-3.604136770724908
 74
     0
 49
1.802068385362454
 74
     0
 49
-3.604136770724908
 74
     0
  0
LTYPE
  5
212
330
5
100
AcDbSymbolTableRecord
100
AcDbLinetypeTableRecord
  2
AI-Linetype-7
 70
     0
  3
Adobe Illustrator Linetype No. 7
 72
    65
 73
     6
 40
28.83309416579927
 49
14.41654708289963
 74
     0
 49
-3.604136770724908
 74
     0
 49
1.802068385362454
 74
     0
 49
-3.604136770724908
 74
     0
 49
1.802068385362454
 74
     0
 49
-3.604136770724908
 74
     0
  0
LTYPE
  5
214
330
5
100
AcDbSymbolTableRecord
100
AcDbLinetypeTableRecord
  2
AI-Linetype-8
 70
     0
  3
Adobe Illustrator Linetype No. 8
 72
    65
 73
     6
 40
28.83309416579927
 49
14.41654708289963
 74
     0
 49
-3.604136770724908
 74
     0
 49
1.802068385362454
 74
     0
 49
-3.604136770724908
 74
     0
 49
1.802068385362454
 74
     0
 49
-3.604136770724908
 74
     0
  0
LTYPE
  5
216
330
5
100
AcDbSymbolTableRecord
100
AcDbLinetypeTableRecord
  2
AI-Linetype-9
 70
     0
  3
Adobe Illustrator Linetype No. 9
 72
    65
 73
     6
 40
28.83309416579927
 49
14.41654708289963
 74
     0
 49
-3.604136770724908
 74
     0
 49
1.802068385362454
 74
     0
 49
-3.604136770724908
 74
     0
 49
1.802068385362454
 74
     0
 49
-3.604136770724908
 74
     0
  0
LTYPE
  5
218
330
5
100
AcDbSymbolTableRecord
100
AcDbLinetypeTableRecord
  2
AI-Linetype-10
 70
     0
  3
Adobe Illustrator Linetype No. 10
 72
    65
 73
     6
 40
28.83309416579927
 49
14.41654708289963
 74
     0
 49
-3.604136770724908
 74
     0
 49
1.802068385362454
 74
     0
 49
-3.604136770724908
 74
     0
 49
1.802068385362454
 74
     0
 49
-3.604136770724908
 74
     0
  0
LTYPE
  5
21A
330
5
100
AcDbSymbolTableRecord
100
AcDbLinetypeTableRecord
  2
AI-Linetype-11
 70
     0
  3
Adobe Illustrator Linetype No. 11
 72
    65
 73
     6
 40
28.83309416579927
 49
14.41654708289963
 74
     0
 49
-3.604136770724908
 74
     0
 49
1.802068385362454
 74
     0
 49
-3.604136770724908
 74
     0
 49
1.802068385362454
 74
     0
 49
-3.604136770724908
 74
     0
  0
LTYPE
  5
21C
330
5
100
AcDbSymbolTableRecord
100
AcDbLinetypeTableRecord
  2
AI-Linetype-12
 70
     0
  3
Adobe Illustrator Linetype No. 12
 72
    65
 73
     6
 40
28.83309416579927
 49
14.41654708289963
 74
     0
 49
-3.604136770724908
 74
     0
 49
1.802068385362454
 74
     0
 49
-3.604136770724908
 74
     0
 49
1.802068385362454
 74
     0
 49
-3.604136770724908
 74
     0
  0
LTYPE
  5
21E
330
5
100
AcDbSymbolTableRecord
100
AcDbLinetypeTableRecord
  2
AI-Linetype-13
 70
     0
  3
Adobe Illustrator Linetype No. 13
 72
    65
 73
     6
 40
28.83309416579927
 49
14.41654708289963
 74
     0
 49
-3.604136770724908
 74
     0
 49
1.802068385362454
 74
     0
 49
-3.604136770724908
 74
     0
 49
1.802068385362454
 74
     0
 49
-3.604136770724908
 74
     0
  0
LTYPE
  5
220
330
5
100
AcDbSymbolTableRecord
100
AcDbLinetypeTableRecord
  2
AI-Linetype-14
 70
     0
  3
Adobe Illustrator Linetype No. 14
 72
    65
 73
     6
 40
28.83309416579927
 49
14.41654708289963
 74
     0
 49
-3.604136770724908
 74
     0
 49
1.802068385362454
 74
     0
 49
-3.604136770724908
 74
     0
 49
1.802068385362454
 74
     0
 49
-3.604136770724908
 74
     0
  0
LTYPE
  5
222
330
5
100
AcDbSymbolTableRecord
100
AcDbLinetypeTableRecord
  2
AI-Linetype-15
 70
     0
  3
Adobe Illustrator Linetype No. 15
 72
    65
 73
     6
 40
28.83309416579927
 49
14.41654708289963
 74
     0
 49
-3.604136770724908
 74
     0
 49
1.802068385362454
 74
     0
 49
-3.604136770724908
 74
     0
 49
1.802068385362454
 74
     0
 49
-3.604136770724908
 74
     0
  0
LTYPE
  5
224
330
5
100
AcDbSymbolTableRecord
100
AcDbLinetypeTableRecord
  2
AI-Linetype-16
 70
     0
  3
Adobe Illustrator Linetype No. 16
 72
    65
 73
     6
 40
28.83309416579927
 49
14.41654708289963
 74
     0
 49
-3.604136770724908
 74
     0
 49
1.802068385362454
 74
     0
 49
-3.604136770724908
 74
     0
 49
1.802068385362454
 74
     0
 49
-3.604136770724908
 74
     0
  0
LTYPE
  5
226
330
5
100
AcDbSymbolTableRecord
100
AcDbLinetypeTableRecord
  2
AI-Linetype-17
 70
     0
  3
Adobe Illustrator Linetype No. 17
 72
    65
 73
     6
 40
28.83309416579927
 49
14.41654708289963
 74
     0
 49
-3.604136770724908
 74
     0
 49
1.802068385362454
 74
     0
 49
-3.604136770724908
 74
     0
 49
1.802068385362454
 74
     0
 49
-3.604136770724908
 74
     0
  0
LTYPE
  5
228
330
5
100
AcDbSymbolTableRecord
100
AcDbLinetypeTableRecord
  2
AI-Linetype-18
 70
     0
  3
Adobe Illustrator Linetype No. 18
 72
    65
 73
     6
 40
28.83309416579927
 49
14.41654708289963
 74
     0
 49
-3.604136770724908
 74
     0
 49
1.802068385362454
 74
     0
 49
-3.604136770724908
 74
     0
 49
1.802068385362454
 74
     0
 49
-3.604136770724908
 74
     0
  0
LTYPE
  5
22A
330
5
100
AcDbSymbolTableRecord
100
AcDbLinetypeTableRecord
  2
AI-Linetype-19
 70
     0
  3
Adobe Illustrator Linetype No. 19
 72
    65
 73
     6
 40
28.83309416579927
 49
14.41654708289963
 74
     0
 49
-3.604136770724908
 74
     0
 49
1.802068385362454
 74
     0
 49
-3.604136770724908
 74
     0
 49
1.802068385362454
 74
     0
 49
-3.604136770724908
 74
     0
  0
LTYPE
  5
22C
330
5
100
AcDbSymbolTableRecord
100
AcDbLinetypeTableRecord
  2
AI-Linetype-20
 70
     0
  3
Adobe Illustrator Linetype No. 20
 72
    65
 73
     6
 40
28.83309416579927
 49
14.41654708289963
 74
     0
 49
-3.604136770724908
 74
     0
 49
1.802068385362454
 74
     0
 49
-3.604136770724908
 74
     0
 49
1.802068385362454
 74
     0
 49
-3.604136770724908
 74
     0
  0
LTYPE
  5
22E
330
5
100
AcDbSymbolTableRecord
100
AcDbLinetypeTableRecord
  2
AI-Linetype-21
 70
     0
  3
Adobe Illustrator Linetype No. 21
 72
    65
 73
     6
 40
28.83309416579927
 49
14.41654708289963
 74
     0
 49
-3.604136770724908
 74
     0
 49
1.802068385362454
 74
     0
 49
-3.604136770724908
 74
     0
 49
1.802068385362454
 74
     0
 49
-3.604136770724908
 74
     0
  0
LTYPE
  5
230
330
5
100
AcDbSymbolTableRecord
100
AcDbLinetypeTableRecord
  2
AI-Linetype-22
 70
     0
  3
Adobe Illustrator Linetype No. 22
 72
    65
 73
     6
 40
28.83309416579927
 49
14.41654708289963
 74
     0
 49
-3.604136770724908
 74
     0
 49
1.802068385362454
 74
     0
 49
-3.604136770724908
 74
     0
 49
1.802068385362454
 74
     0
 49
-3.604136770724908
 74
     0
  0
LTYPE
  5
232
330
5
100
AcDbSymbolTableRecord
100
AcDbLinetypeTableRecord
  2
AI-Linetype-23
 70
     0
  3
Adobe Illustrator Linetype No. 23
 72
    65
 73
     6
 40
28.83309416579927
 49
14.41654708289963
 74
     0
 49
-3.604136770724908
 74
     0
 49
1.802068385362454
 74
     0
 49
-3.604136770724908
 74
     0
 49
1.802068385362454
 74
     0
 49
-3.604136770724908
 74
     0
  0
LTYPE
  5
234
330
5
100
AcDbSymbolTableRecord
100
AcDbLinetypeTableRecord
  2
AI-Linetype-24
 70
     0
  3
Adobe Illustrator Linetype No. 24
 72
    65
 73
     6
 40
28.83309416579927
 49
14.41654708289963
 74
     0
 49
-3.604136770724908
 74
     0
 49
1.802068385362454
 74
     0
 49
-3.604136770724908
 74
     0
 49
1.802068385362454
 74
     0
 49
-3.604136770724908
 74
     0
  0
LTYPE
  5
236
330
5
100
AcDbSymbolTableRecord
100
AcDbLinetypeTableRecord
  2
AI-Linetype-25
 70
     0
  3
Adobe Illustrator Linetype No. 25
 72
    65
 73
     6
 40
28.83309416579927
 49
14.41654708289963
 74
     0
 49
-3.604136770724908
 74
     0
 49
1.802068385362454
 74
     0
 49
-3.604136770724908
 74
     0
 49
1.802068385362454
 74
     0
 49
-3.604136770724908
 74
     0
  0
LTYPE
  5
238
330
5
100
AcDbSymbolTableRecord
100
AcDbLinetypeTableRecord
  2
AI-Linetype-26
 70
     0
  3
Adobe Illustrator Linetype No. 26
 72
    65
 73
     6
 40
28.83309416579927
 49
14.41654708289963
 74
     0
 49
-3.604136770724908
 74
     0
 49
1.802068385362454
 74
     0
 49
-3.604136770724908
 74
     0
 49
1.802068385362454
 74
     0
 49
-3.604136770724908
 74
     0
  0
LTYPE
  5
23A
330
5
100
AcDbSymbolTableRecord
100
AcDbLinetypeTableRecord
  2
AI-Linetype-27
 70
     0
  3
Adobe Illustrator Linetype No. 27
 72
    65
 73
     6
 40
28.83309416579927
 49
14.41654708289963
 74
     0
 49
-3.604136770724908
 74
     0
 49
1.802068385362454
 74
     0
 49
-3.604136770724908
 74
     0
 49
1.802068385362454
 74
     0
 49
-3.604136770724908
 74
     0
  0
LTYPE
  5
23C
330
5
100
AcDbSymbolTableRecord
100
AcDbLinetypeTableRecord
  2
AI-Linetype-28
 70
     0
  3
Adobe Illustrator Linetype No. 28
 72
    65
 73
     6
 40
28.83309416579927
 49
14.41654708289963
 74
     0
 49
-3.604136770724908
 74
     0
 49
1.802068385362454
 74
     0
 49
-3.604136770724908
 74
     0
 49
1.802068385362454
 74
     0
 49
-3.604136770724908
 74
     0
  0
LTYPE
  5
23F
330
5
100
AcDbSymbolTableRecord
100
AcDbLinetypeTableRecord
  2
AI-Linetype-29
 70
     0
  3
Adobe Illustrator Linetype No. 29
 72
    65
 73
     4
 40
19.1019245484069
 49
18.02068351718943
 74
     0
 49
-0.3604136770724909
 74
     0
 49
0.3604136770724909
 74
     0
 49
-0.3604136770724909
 74
     0
  0
LTYPE
  5
241
330
5
100
AcDbSymbolTableRecord
100
AcDbLinetypeTableRecord
  2
AI-Linetype-30
 70
     0
  3
Adobe Illustrator Linetype No. 30
 72
    65
 73
     4
 40
19.1019245484069
 49
18.02068351718943
 74
     0
 49
-0.3604136770724909
 74
     0
 49
0.3604136770724909
 74
     0
 49
-0.3604136770724909
 74
     0
  0
LTYPE
  5
243
330
5
100
AcDbSymbolTableRecord
100
AcDbLinetypeTableRecord
  2
AI-Linetype-31
 70
     0
  3
Adobe Illustrator Linetype No. 31
 72
    65
 73
     4
 40
19.1019245484069
 49
18.02068351718943
 74
     0
 49
-0.3604136770724909
 74
     0
 49
0.3604136770724909
 74
     0
 49
-0.3604136770724909
 74
     0
  0
LTYPE
  5
245
330
5
100
AcDbSymbolTableRecord
100
AcDbLinetypeTableRecord
  2
AI-Linetype-32
 70
     0
  3
Adobe Illustrator Linetype No. 32
 72
    65
 73
     4
 40
19.1019245484069
 49
18.02068351718943
 74
     0
 49
-0.3604136770724909
 74
     0
 49
0.3604136770724909
 74
     0
 49
-0.3604136770724909
 74
     0
  0
ENDTAB
  0
TABLE
  2
LAYER
  5
2
330
0
100
AcDbSymbolTable
 70
     7
  0
LAYER
  5
54
330
2
100
AcDbSymbolTableRecord
100
AcDbLayerTableRecord
  2
0
 70
     0
 62
     7
  6
Continuous
370
    -3
390
F
347
21
348
0
  0
LAYER
  5
78
330
2
100
AcDbSymbolTableRecord
100
AcDbLayerTableRecord
  2
FLAME
 70
     0
 62
     7
  6
Continuous
370
     0
390
F
347
21
348
0
  0
LAYER
  5
80
330
2
100
AcDbSymbolTableRecord
100
AcDbLayerTableRecord
  2
SPEC
 70
     0
 62
     7
  6
Continuous
370
     0
390
F
347
21
348
0
  0
LAYER
  5
8C
330
2
100
AcDbSymbolTableRecord
100
AcDbLayerTableRecord
  2
HONTAI
 70
     0
 62
     7
  6
Continuous
370
     0
390
F
347
21
348
0
  0
LAYER
  5
1E3
330
2
100
AcDbSymbolTableRecord
100
AcDbLayerTableRecord
  2
0-HONTAI
 70
     0
 62
     7
  6
Continuous
370
     0
390
F
347
21
348
0
  0
LAYER
  5
202
330
2
100
AcDbSymbolTableRecord
100
AcDbLayerTableRecord
  2
TOUGU
 70
     0
 62
     7
  6
Continuous
370
     0
390
F
347
21
348
0
  0
LAYER
  5
23D
330
2
100
AcDbSymbolTableRecord
100
AcDbLayerTableRecord
  2
CL
 70
     0
 62
     7
  6
Continuous
370
     0
390
F
347
21
348
0
  0
ENDTAB
  0
TABLE
  2
STYLE
  5
3
330
0
100
AcDbSymbolTable
 70
     2
  0
STYLE
  5
55
330
3
100
AcDbSymbolTableRecord
100
AcDbTextStyleTableRecord
  2
Standard
 70
     0
 40
0.0
 41
1.0
 50
0.0
 71
     0
 42
0.2
  3
txt
  4

  0
STYLE
  5
5A
330
3
100
AcDbSymbolTableRecord
100
AcDbTextStyleTableRecord
  2
Annotative
 70
     0
 40
0.0
 41
1.0
 50
0.0
 71
     0
 42
0.2
  3
txt
  4

1001
AcadAnnotative
1000
AnnotativeData
1002
{
1070
     1
1070
     1
1002
}
  0
ENDTAB
  0
TABLE
  2
VIEW
  5
6
330
0
100
AcDbSymbolTable
 70
     0
  0
ENDTAB
  0
TABLE
  2
UCS
  5
7
330
0
100
AcDbSymbolTable
 70
     0
  0
ENDTAB
  0
TABLE
  2
APPID
  5
9
330
0
100
AcDbSymbolTable
 70
     2
  0
APPID
  5
56
330
9
100
AcDbSymbolTableRecord
100
AcDbRegAppTableRecord
  2
ACAD
 70
     0
  0
APPID
  5
5E
330
9
100
AcDbSymbolTableRecord
100
AcDbRegAppTableRecord
  2
AcadAnnotative
 70
     0
  0
ENDTAB
  0
TABLE
  2
DIMSTYLE
  5
A
330
0
100
AcDbSymbolTable
 70
     2
100
AcDbDimStyleTable
 71
     0
  0
DIMSTYLE
105
58
330
A
100
AcDbSymbolTableRecord
100
AcDbDimStyleTableRecord
  2
Standard
 70
     0
340
55
  0
DIMSTYLE
105
59
330
A
100
AcDbSymbolTableRecord
100
AcDbDimStyleTableRecord
  2
Annotative
 70
     0
340
55
1001
AcadAnnotative
1000
AnnotativeData
1002
{
1070
     1
1070
     1
1002
}
  0
ENDTAB
  0
TABLE
  2
BLOCK_RECORD
  5
1
330
0
100
AcDbSymbolTable
 70
     2
  0
BLOCK_RECORD
  5
70
330
1
100
AcDbSymbolTableRecord
100
AcDbBlockTableRecord
  2
*Model_Space
340
73
 70
     0
280
     1
281
     0
  0
BLOCK_RECORD
  5
6C
330
1
100
AcDbSymbolTableRecord
100
AcDbBlockTableRecord
  2
*Paper_Space
340
6F
 70
     0
280
     1
281
     0
  0
BLOCK_RECORD
  5
74
330
1
100
AcDbSymbolTableRecord
100
AcDbBlockTableRecord
  2
*Paper_Space0
340
77
 70
     0
280
     1
281
     0
  0
BLOCK_RECORD
  5
81
330
1
100
AcDbSymbolTableRecord
100
AcDbBlockTableRecord
  2
Block_0
340
0
102
{BLKREFS
331
82
102
}
 70
     0
280
     1
281
     0
  0
ENDTAB
  0
ENDSEC
  0
SECTION
  2
BLOCKS
  0
BLOCK
  5
71
330
70
100
AcDbEntity
  8
0
100
AcDbBlockBegin
  2
*Model_Space
 70
     0
 10
0.0
 20
0.0
 30
0.0
  3
*Model_Space
  1

  0
ENDBLK
  5
72
330
70
100
AcDbEntity
  8
0
100
AcDbBlockEnd
  0
BLOCK
  5
6D
330
6C
100
AcDbEntity
 67
     1
  8
0
100
AcDbBlockBegin
  2
*Paper_Space
 70
     0
 10
0.0
 20
0.0
 30
0.0
  3
*Paper_Space
  1

  0
ENDBLK
  5
6E
330
6C
100
AcDbEntity
 67
     1
  8
0
100
AcDbBlockEnd
  0
BLOCK
  5
75
330
74
100
AcDbEntity
 67
     1
  8
0
100
AcDbBlockBegin
  2
*Paper_Space0
 70
     0
 10
0.0
 20
0.0
 30
0.0
  3
*Paper_Space0
  1

  0
ENDBLK
  5
76
330
74
100
AcDbEntity
 67
     1
  8
0
100
AcDbBlockEnd
  0
BLOCK
  5
83
330
81
100
AcDbEntity
  8
0
100
AcDbBlockBegin
  2
Block_0
 70
     0
 10
0.0
 20
0.0
 30
0.0
  3
Block_0
  1

  0
MTEXT
  5
85
330
81
100
AcDbEntity
  8
SPEC
100
AcDbMText
 10
182.7893594920631
 20
23.09140113677137
 30
0.0
 40
0.2
 41
0.0
 46
0.0
 71
     7
 72
     1
  1
\C9;\c12632256;\FKozuka Gothic Pr6N R|b0|i0|c128;\H7.992533;\W1.000000;E26 LED
 73
     1
 44
1.0
  0
MTEXT
  5
86
330
81
100
AcDbEntity
  8
SPEC
100
AcDbMText
 10
223.5676413083117
 20
23.09140113677137
 30
0.0
 40
0.2
 41
0.0
 46
0.0
 71
     7
 72
     1
  1
\C9;\c12632256;\FMS PGothic|b0|i0|c128;\H7.992533;\W1.000000;電球（
 73
     1
 44
1.0
  0
MTEXT
  5
87
330
81
100
AcDbEntity
  8
SPEC
100
AcDbMText
 10
252.631392691291
 20
23.09140113677137
 30
0.0
 40
0.2
 41
0.0
 46
0.0
 71
     7
 72
     1
  1
\C9;\c12632256;\FKozuka Gothic Pr6N R|b0|i0|c128;\H7.992533;\W1.000000;100W
 73
     1
 44
1.0
  0
MTEXT
  5
88
330
81
100
AcDbEntity
  8
SPEC
100
AcDbMText
 10
281.9373558187301
 20
23.09140113677137
 30
0.0
 40
0.2
 41
0.0
 46
0.0
 71
     7
 72
     1
  1
\C9;\c12632256;\FMS PGothic|b0|i0|c128;\H7.992533;\W1.000000;相当 電球色 全方向
 73
     1
 44
1.0
  0
MTEXT
  5
89
330
81
100
AcDbEntity
  8
SPEC
100
AcDbMText
 10
382.025690958096
 20
23.09140113677137
 30
0.0
 40
0.2
 41
0.0
 46
0.0
 71
     7
 72
     1
  1
\C9;\c12632256;\FKozuka Gothic Pr6N R|b0|i0|c128;\H7.992533;\W1.000000;/
 73
     1
 44
1.0
  0
MTEXT
  5
8A
330
81
100
AcDbEntity
  8
SPEC
100
AcDbMText
 10
390.018183292795
 20
23.09140113677137
 30
0.0
 40
0.2
 41
0.0
 46
0.0
 71
     7
 72
     1
  1
\C9;\c12632256;\FMS PGothic|b0|i0|c128;\H7.992533;\W1.000000;広配光タイプ）
 73
     1
 44
1.0
  0
ENDBLK
  5
84
330
81
100
AcDbEntity
  8
0
100
AcDbBlockEnd
  0
ENDSEC
  0
SECTION
  2
ENTITIES
  0
LINE
  5
79
330
70
100
AcDbEntity
  8
FLAME
 62
     2
420
 16776960
370
    25
100
AcDbLine
 10
501.9523808268929
 20
380.9999999047501
 30
0.0
 11
501.9523808268929
 21
0.0
 31
0.0
  0
LINE
  5
7A
330
70
100
AcDbEntity
  8
FLAME
 62
     2
420
 16776960
370
    25
100
AcDbLine
 10
175.380952337107
 20
0.0
 30
0.0
 11
175.380952337107
 21
380.9999999047501
 31
0.0
  0
LINE
  5
7B
330
70
100
AcDbEntity
  8
FLAME
 62
     2
420
 16776960
370
    25
100
AcDbLine
 10
501.9523808268929
 20
0.0
 30
0.0
 11
175.380952337107
 21
0.0
 31
0.0
  0
LINE
  5
7C
330
70
100
AcDbEntity
  8
FLAME
 62
     2
420
 16776960
370
    25
100
AcDbLine
 10
501.9523808268929
 20
18.14285713832115
 30
0.0
 11
175.380952337107
 21
18.14285713832115
 31
0.0
  0
LINE
  5
7D
330
70
100
AcDbEntity
  8
FLAME
 62
     2
420
 16776960
370
    25
100
AcDbLine
 10
501.9523808268929
 20
36.28571427664231
 30
0.0
 11
175.380952337107
 21
36.28571427664231
 31
0.0
  0
LINE
  5
7E
330
70
100
AcDbEntity
  8
FLAME
 62
     2
420
 16776960
370
    25
100
AcDbLine
 10
501.9523808268929
 20
54.42857141496411
 30
0.0
 11
175.380952337107
 21
54.42857141496411
 31
0.0
  0
LINE
  5
7F
330
70
100
AcDbEntity
  8
FLAME
 62
     2
420
 16776960
370
    25
100
AcDbLine
 10
501.9523808268929
 20
380.9999999047501
 30
0.0
 11
175.380952337107
 21
380.9999999047501
 31
0.0
  0
INSERT
  5
82
330
70
100
AcDbEntity
  8
SPEC
100
AcDbBlockReference
  2
Block_0
 10
0.0
 20
0.0
 30
0.0
  0
MTEXT
  5
8B
330
70
100
AcDbEntity
  8
SPEC
100
AcDbMText
 10
183.0583783857675
 20
40.69478669738653
 30
0.0
 40
0.2
 41
0.0
 46
0.0
 71
     7
 72
     1
  1
\C9;\c12632256;\FKozuka Gothic Pr6N R|b0|i0|c128;\H9.071429;\W1.000000;KT 375SLO
 73
     1
 44
1.0
  0
LINE
  5
8D
330
70
100
AcDbEntity
  8
HONTAI
 62
     2
420
 16776960
370
    25
100
AcDbLine
 10
305.7001382171734
 20
151.5843307272685
 30
0.0
 11
305.7001382171734
 21
169.8906187226965
 31
0.0
  0
LINE
  5
8E
330
70
100
AcDbEntity
  8
HONTAI
 62
     2
420
 16776960
370
    25
100
AcDbLine
 10
342.312714208014
 20
151.5843307272685
 30
0.0
 11
342.312714208014
 21
169.8906187226965
 31
0.0
  0
LINE
  5
8F
330
70
100
AcDbEntity
  8
HONTAI
 62
     2
420
 16776960
370
    25
100
AcDbLine
 10
451.7755635745959
 20
198.8258770920035
 30
0.0
 11
451.7755635745959
 21
165.0089419239124
 31
0.0
  0
LINE
  5
90
330
70
100
AcDbEntity
  8
HONTAI
 62
     2
420
 16776960
370
    25
100
AcDbLine
 10
454.2164019739886
 20
198.8258770920035
 30
0.0
 11
454.2164019739886
 21
165.0089419239124
 31
0.0
  0
LINE
  5
91
330
70
100
AcDbEntity
  8
HONTAI
 62
     2
420
 16776960
370
    25
100
AcDbLine
 10
342.312714208014
 20
153.6183627267613
 30
0.0
 11
378.5773774941676
 21
153.6183627267613
 31
0.0
  0
LINE
  5
92
330
70
100
AcDbEntity
  8
HONTAI
 62
     2
420
 16776960
370
    25
100
AcDbLine
 10
380.7863439042181
 20
153.6183627267613
 30
0.0
 11
391.2140434798289
 21
153.6183627267613
 31
0.0
  0
LINE
  5
93
330
70
100
AcDbEntity
  8
HONTAI
 62
     2
420
 16776960
370
    25
100
AcDbLine
 10
417.6564594732084
 20
153.6183627267613
 30
0.0
 11
429.1469069041164
 21
153.6183627267613
 31
0.0
  0
LINE
  5
94
330
70
100
AcDbEntity
  8
HONTAI
 62
     2
420
 16776960
370
    25
100
AcDbLine
 10
431.3558733141689
 20
153.6183627267613
 30
0.0
 11
442.8258227768286
 21
153.6183627267613
 31
0.0
  0
LINE
  5
95
330
70
100
AcDbEntity
  8
HONTAI
 62
     2
420
 16776960
370
    25
100
AcDbLine
 10
342.312714208014
 20
156.0592011261464
 30
0.0
 11
379.2036943932204
 21
156.0592011261464
 31
0.0
  0
LINE
  5
96
330
70
100
AcDbEntity
  8
HONTAI
 62
     2
420
 16776960
370
    25
100
AcDbLine
 10
381.4126608032831
 20
156.0592011261464
 30
0.0
 11
391.2140434798289
 21
156.0592011261464
 31
0.0
  0
LINE
  5
97
330
70
100
AcDbEntity
  8
HONTAI
 62
     2
420
 16776960
370
    25
100
AcDbLine
 10
417.6564594732084
 20
156.0592011261464
 30
0.0
 11
429.7732238031692
 21
156.0592011261464
 31
0.0
  0
LINE
  5
98
330
70
100
AcDbEntity
  8
HONTAI
 62
     2
420
 16776960
370
    25
100
AcDbLine
 10
431.9821902132217
 20
156.0592011261464
 30
0.0
 11
442.8258227768286
 21
156.0592011261464
 31
0.0
  0
SPLINE
  5
99
330
70
100
AcDbEntity
  8
HONTAI
 62
     2
420
 16776960
370
    25
100
AcDbSpline
210
0.0
220
0.0
230
1.0
 70
     8
 71
     3
 72
     8
 73
     4
 74
     0
 42
0.0000000001
 43
0.0000000001
 40
0.0
 40
0.0
 40
0.0
 40
0.0
 40
1.0
 40
1.0
 40
1.0
 40
1.0
 10
442.8258227768286
 20
156.0592011261496
 30
0.0
 10
447.7686281343708
 20
156.0592011261496
 30
0.0
 10
451.7755635745907
 20
160.0661365663695
 30
0.0
 10
451.7755635745907
 20
165.0089419239124
 30
0.0
  0
SPLINE
  5
9A
330
70
100
AcDbEntity
  8
HONTAI
 62
     2
420
 16776960
370
    25
100
AcDbSpline
210
0.0
220
0.0
230
1.0
 70
     8
 71
     3
 72
     8
 73
     4
 74
     0
 42
0.0000000001
 43
0.0000000001
 40
0.0
 40
0.0
 40
0.0
 40
0.0
 40
1.0
 40
1.0
 40
1.0
 40
1.0
 10
442.8258227768286
 20
153.6183627267601
 30
0.0
 10
449.1166659591555
 20
153.6183627267601
 30
0.0
 10
454.2164019739809
 20
158.7180987415854
 30
0.0
 10
454.2164019739809
 20
165.0089419239124
 30
0.0
  0
SPLINE
  5
9B
330
70
100
AcDbEntity
  8
HONTAI
 62
     2
420
 16776960
370
    25
100
AcDbSpline
210
0.0
220
0.0
230
1.0
 70
     8
 71
     3
 72
    11
 73
     7
 74
     0
 42
0.0000000001
 43
0.0000000001
 40
0.0
 40
0.0
 40
0.0
 40
0.0
 40
1.0
 40
1.0
 40
1.0
 40
2.0
 40
2.0
 40
2.0
 40
2.0
 10
305.7001382171785
 20
151.5843307272833
 30
0.0
 10
305.7001382171785
 20
149.5414330689022
 30
0.0
 10
313.8961425267193
 20
147.8853373022297
 30
0.0
 10
324.006426212602
 20
147.8853373022297
 30
0.0
 10
334.1167098984848
 20
147.8853373022297
 30
0.0
 10
342.3127142080255
 20
149.5414330689022
 30
0.0
 10
342.3127142080255
 20
151.5843307272833
 30
0.0
  0
SPLINE
  5
9C
330
70
100
AcDbEntity
  8
HONTAI
 62
     2
420
 16776960
370
    25
100
AcDbSpline
210
0.0
220
0.0
230
1.0
 70
     8
 71
     3
 72
    11
 73
     7
 74
     0
 42
0.0000000001
 43
0.0000000001
 40
0.0
 40
0.0
 40
0.0
 40
0.0
 40
1.0
 40
1.0
 40
1.0
 40
2.0
 40
2.0
 40
2.0
 40
2.0
 10
306.0614312712319
 20
149.3965520685792
 30
0.0
 10
306.0614312712319
 20
147.3536544101975
 30
0.0
 10
314.0956791706924
 20
145.697558643525
 30
0.0
 10
324.006426212602
 20
145.697558643525
 30
0.0
 10
333.9171732545116
 20
145.697558643525
 30
0.0
 10
341.9514211539722
 20
147.3536544101975
 30
0.0
 10
341.9514211539722
 20
149.3965520685792
 30
0.0
  0
LINE
  5
9D
330
70
100
AcDbEntity
  8
HONTAI
 62
     2
420
 16776960
370
    25
100
AcDbLine
 10
306.0614312712254
 20
149.3965520685529
 30
0.0
 11
306.0614312712254
 21
150.8530657644749
 31
0.0
  0
LINE
  5
9E
330
70
100
AcDbEntity
  8
HONTAI
 62
     2
420
 16776960
370
    25
100
AcDbLine
 10
341.9502524305591
 20
149.3543362040021
 30
0.0
 11
341.9502524305591
 21
150.8518957656568
 31
0.0
  0
LINE
  5
9F
330
70
100
AcDbEntity
  8
HONTAI
 62
     8
420
  8421504
370
    25
100
AcDbLine
 10
306.8931762168751
 20
269.2870705249258
 30
0.0
 11
289.7310660963565
 21
259.4382696138577
 31
0.0
  0
LINE
  5
A0
330
70
100
AcDbEntity
  8
HONTAI
 62
     8
420
  8421504
370
    25
100
AcDbLine
 10
289.7310660963565
 20
259.4382696138577
 30
0.0
 11
278.8446738835137
 21
246.4810946170902
 31
0.0
  0
LINE
  5
A1
330
70
100
AcDbEntity
  8
HONTAI
 62
     8
420
  8421504
370
    25
100
AcDbLine
 10
278.8446738835137
 20
246.4810946170902
 30
0.0
 11
272.361986606937
 21
229.367844621371
 31
0.0
  0
LINE
  5
A2
330
70
100
AcDbEntity
  8
HONTAI
 62
     8
420
  8421504
370
    25
100
AcDbLine
 10
272.361986606937
 20
229.367844621371
 30
0.0
 11
272.361986606937
 21
209.8098446262574
 31
0.0
  0
LINE
  5
A3
330
70
100
AcDbEntity
  8
HONTAI
 62
     8
420
  8421504
370
    25
100
AcDbLine
 10
319.5325939696557
 20
259.4382696138577
 30
0.0
 11
321.0527062887532
 21
246.4810946170902
 31
0.0
  0
LINE
  5
A4
330
70
100
AcDbEntity
  8
HONTAI
 62
     8
420
  8421504
370
    25
100
AcDbLine
 10
324.0044343336228
 20
259.4382696138577
 30
0.0
 11
321.8400307355237
 21
266.5275882729594
 31
0.0
  0
LINE
  5
A5
330
70
100
AcDbEntity
  8
HONTAI
 62
     8
420
  8421504
370
    25
100
AcDbLine
 10
321.8400307355237
 20
266.5275882729594
 30
0.0
 11
319.5325939696557
 21
259.4382696138577
 31
0.0
  0
LINE
  5
A6
330
70
100
AcDbEntity
  8
HONTAI
 62
     8
420
  8421504
370
    25
100
AcDbLine
 10
324.0044343336228
 20
259.4382696138577
 30
0.0
 11
321.0527062887532
 21
246.4810946170902
 31
0.0
  0
LINE
  5
A7
330
70
100
AcDbEntity
  8
HONTAI
 62
     8
420
  8421504
370
    25
100
AcDbLine
 10
321.0527062887532
 20
246.4810946170902
 30
0.0
 11
324.0044343336228
 21
229.367844621371
 31
0.0
  0
LINE
  5
A8
330
70
100
AcDbEntity
  8
HONTAI
 62
     8
420
  8421504
370
    25
100
AcDbLine
 10
321.0527062887532
 20
246.4810946170902
 30
0.0
 11
317.2654741615307
 21
229.367844621371
 31
0.0
  0
LINE
  5
A9
330
70
100
AcDbEntity
  8
HONTAI
 62
     8
420
  8421504
370
    25
100
AcDbLine
 10
317.2654741615307
 20
229.367844621371
 30
0.0
 11
317.2654741615307
 21
209.8098446262574
 31
0.0
  0
LINE
  5
AA
330
70
100
AcDbEntity
  8
HONTAI
 62
     8
420
  8421504
370
    25
100
AcDbLine
 10
310.6398616690085
 20
229.367844621371
 30
0.0
 11
310.6398616690085
 21
209.8098446262574
 31
0.0
  0
LINE
  5
AB
330
70
100
AcDbEntity
  8
HONTAI
 62
     8
420
  8421504
370
    25
100
AcDbLine
 10
304.242954801733
 20
229.367844621371
 30
0.0
 11
304.242954801733
 21
209.8098446262574
 31
0.0
  0
LINE
  5
AC
330
70
100
AcDbEntity
  8
HONTAI
 62
     8
420
  8421504
370
    25
100
AcDbLine
 10
298.1842064097695
 20
229.367844621371
 30
0.0
 11
298.1842064097695
 21
209.8098446262574
 31
0.0
  0
LINE
  5
AD
330
70
100
AcDbEntity
  8
HONTAI
 62
     8
420
  8421504
370
    25
100
AcDbLine
 10
292.5672833578979
 20
229.367844621371
 30
0.0
 11
292.5672833578979
 21
209.8098446262574
 31
0.0
  0
LINE
  5
AE
330
70
100
AcDbEntity
  8
HONTAI
 62
     8
420
  8421504
370
    25
100
AcDbLine
 10
287.488292756865
 20
229.367844621371
 30
0.0
 11
287.488292756865
 21
209.8098446262574
 31
0.0
  0
LINE
  5
AF
330
70
100
AcDbEntity
  8
HONTAI
 62
     8
420
  8421504
370
    25
100
AcDbLine
 10
283.0341375439835
 20
229.367844621371
 30
0.0
 11
283.0341375439835
 21
209.8098446262574
 31
0.0
  0
LINE
  5
B0
330
70
100
AcDbEntity
  8
HONTAI
 62
     8
420
  8421504
370
    25
100
AcDbLine
 10
279.2810295498894
 20
229.367844621371
 30
0.0
 11
279.2810295498894
 21
209.8098446262574
 31
0.0
  0
LINE
  5
B1
330
70
100
AcDbEntity
  8
HONTAI
 62
     8
420
  8421504
370
    25
100
AcDbLine
 10
276.2931854929173
 20
229.367844621371
 30
0.0
 11
276.2931854929173
 21
209.8098446262574
 31
0.0
  0
LINE
  5
B2
330
70
100
AcDbEntity
  8
HONTAI
 62
     8
420
  8421504
370
    25
100
AcDbLine
 10
274.1217282132718
 20
229.367844621371
 30
0.0
 11
274.1217282132718
 21
209.8098446262574
 31
0.0
  0
LINE
  5
B3
330
70
100
AcDbEntity
  8
HONTAI
 62
     8
420
  8421504
370
    25
100
AcDbLine
 10
272.803811947032
 20
229.367844621371
 30
0.0
 11
272.803811947032
 21
209.8098446262574
 31
0.0
  0
LINE
  5
B4
330
70
100
AcDbEntity
  8
HONTAI
 62
     8
420
  8421504
370
    25
100
AcDbLine
 10
317.2654741615307
 20
229.367844621371
 30
0.0
 11
315.1958054078926
 21
246.4810946170902
 31
0.0
  0
LINE
  5
B5
330
70
100
AcDbEntity
  8
HONTAI
 62
     8
420
  8421504
370
    25
100
AcDbLine
 10
315.1958054078926
 20
246.4810946170902
 30
0.0
 11
310.6398616690085
 21
229.367844621371
 31
0.0
  0
LINE
  5
B6
330
70
100
AcDbEntity
  8
HONTAI
 62
     8
420
  8421504
370
    25
100
AcDbLine
 10
310.6398616690085
 20
229.367844621371
 30
0.0
 11
309.4896566917791
 21
246.4810946170902
 31
0.0
  0
LINE
  5
B7
330
70
100
AcDbEntity
  8
HONTAI
 62
     8
420
  8421504
370
    25
100
AcDbLine
 10
309.4896566917791
 20
246.4810946170902
 30
0.0
 11
304.242954801733
 21
229.367844621371
 31
0.0
  0
LINE
  5
B8
330
70
100
AcDbEntity
  8
HONTAI
 62
     8
420
  8421504
370
    25
100
AcDbLine
 10
304.242954801733
 20
229.367844621371
 30
0.0
 11
304.0318939269855
 21
246.4810946170902
 31
0.0
  0
LINE
  5
B9
330
70
100
AcDbEntity
  8
HONTAI
 62
     8
420
  8421504
370
    25
100
AcDbLine
 10
304.0318939269855
 20
246.4810946170902
 30
0.0
 11
298.1842064097695
 21
229.367844621371
 31
0.0
  0
LINE
  5
BA
330
70
100
AcDbEntity
  8
HONTAI
 62
     8
420
  8421504
370
    25
100
AcDbLine
 10
298.1842064097695
 20
229.367844621371
 30
0.0
 11
298.9159009475635
 21
246.4810946170902
 31
0.0
  0
LINE
  5
BB
330
70
100
AcDbEntity
  8
HONTAI
 62
     8
420
  8421504
370
    25
100
AcDbLine
 10
298.9159009475635
 20
246.4810946170902
 30
0.0
 11
292.5672833578979
 21
229.367844621371
 31
0.0
  0
LINE
  5
BC
330
70
100
AcDbEntity
  8
HONTAI
 62
     8
420
  8421504
370
    25
100
AcDbLine
 10
292.5672833578979
 20
229.367844621371
 30
0.0
 11
294.2292138118318
 21
246.4810946170902
 31
0.0
  0
LINE
  5
BD
330
70
100
AcDbEntity
  8
HONTAI
 62
     8
420
  8421504
370
    25
100
AcDbLine
 10
294.2292138118318
 20
246.4810946170902
 30
0.0
 11
287.488292756865
 21
229.367844621371
 31
0.0
  0
LINE
  5
BE
330
70
100
AcDbEntity
  8
HONTAI
 62
     8
420
  8421504
370
    25
100
AcDbLine
 10
287.488292756865
 20
229.367844621371
 30
0.0
 11
290.0520230360839
 21
246.4810946170902
 31
0.0
  0
LINE
  5
BF
330
70
100
AcDbEntity
  8
HONTAI
 62
     8
420
  8421504
370
    25
100
AcDbLine
 10
290.0520230360839
 20
246.4810946170902
 30
0.0
 11
283.0341375439835
 21
229.367844621371
 31
0.0
  0
LINE
  5
C0
330
70
100
AcDbEntity
  8
HONTAI
 62
     8
420
  8421504
370
    25
100
AcDbLine
 10
283.0341375439835
 20
229.367844621371
 30
0.0
 11
286.4558015126413
 21
246.4810946170902
 31
0.0
  0
LINE
  5
C1
330
70
100
AcDbEntity
  8
HONTAI
 62
     8
420
  8421504
370
    25
100
AcDbLine
 10
286.4558015126413
 20
246.4810946170902
 30
0.0
 11
279.2810295498894
 21
229.367844621371
 31
0.0
  0
LINE
  5
C2
330
70
100
AcDbEntity
  8
HONTAI
 62
     8
420
  8421504
370
    25
100
AcDbLine
 10
279.2810295498894
 20
229.367844621371
 30
0.0
 11
283.5020815887931
 21
246.4810946170902
 31
0.0
  0
LINE
  5
C3
330
70
100
AcDbEntity
  8
HONTAI
 62
     8
420
  8421504
370
    25
100
AcDbLine
 10
283.5020815887931
 20
246.4810946170902
 30
0.0
 11
276.2931854929173
 21
229.367844621371
 31
0.0
  0
LINE
  5
C4
330
70
100
AcDbEntity
  8
HONTAI
 62
     8
420
  8421504
370
    25
100
AcDbLine
 10
276.2931854929173
 20
229.367844621371
 30
0.0
 11
281.2414022314047
 21
246.4810946170902
 31
0.0
  0
LINE
  5
C5
330
70
100
AcDbEntity
  8
HONTAI
 62
     8
420
  8421504
370
    25
100
AcDbLine
 10
281.2414022314047
 20
246.4810946170902
 30
0.0
 11
274.1217282132718
 21
229.367844621371
 31
0.0
  0
LINE
  5
C6
330
70
100
AcDbEntity
  8
HONTAI
 62
     8
420
  8421504
370
    25
100
AcDbLine
 10
274.1217282132718
 20
229.367844621371
 30
0.0
 11
279.7124442910207
 21
246.4810946170902
 31
0.0
  0
LINE
  5
C7
330
70
100
AcDbEntity
  8
HONTAI
 62
     8
420
  8421504
370
    25
100
AcDbLine
 10
279.7124442910207
 20
246.4810946170902
 30
0.0
 11
272.803811947032
 21
229.367844621371
 31
0.0
  0
LINE
  5
C8
330
70
100
AcDbEntity
  8
HONTAI
 62
     8
420
  8421504
370
    25
100
AcDbLine
 10
272.803811947032
 20
229.367844621371
 30
0.0
 11
278.9413686619342
 21
246.4810946170902
 31
0.0
  0
LINE
  5
C9
330
70
100
AcDbEntity
  8
HONTAI
 62
     8
420
  8421504
370
    25
100
AcDbLine
 10
278.9413686619342
 20
246.4810946170902
 30
0.0
 11
272.361986606937
 21
229.367844621371
 31
0.0
  0
LINE
  5
CA
330
70
100
AcDbEntity
  8
HONTAI
 62
     8
420
  8421504
370
    25
100
AcDbLine
 10
319.5325939696557
 20
259.4382696138577
 30
0.0
 11
315.1958054078926
 21
246.4810946170902
 31
0.0
  0
LINE
  5
CB
330
70
100
AcDbEntity
  8
HONTAI
 62
     8
420
  8421504
370
    25
100
AcDbLine
 10
315.1958054078926
 20
246.4810946170902
 30
0.0
 11
315.1285040600722
 21
259.4382696138577
 31
0.0
  0
LINE
  5
CC
330
70
100
AcDbEntity
  8
HONTAI
 62
     8
420
  8421504
370
    25
100
AcDbLine
 10
315.1285040600722
 20
259.4382696138577
 30
0.0
 11
309.4896566917791
 21
246.4810946170902
 31
0.0
  0
LINE
  5
CD
330
70
100
AcDbEntity
  8
HONTAI
 62
     8
420
  8421504
370
    25
100
AcDbLine
 10
309.4896566917791
 20
246.4810946170902
 30
0.0
 11
310.8898137577698
 21
259.4382696138577
 31
0.0
  0
LINE
  5
CE
330
70
100
AcDbEntity
  8
HONTAI
 62
     8
420
  8421504
370
    25
100
AcDbLine
 10
310.8898137577698
 20
259.4382696138577
 30
0.0
 11
304.0318939269855
 21
246.4810946170902
 31
0.0
  0
LINE
  5
CF
330
70
100
AcDbEntity
  8
HONTAI
 62
     8
420
  8421504
370
    25
100
AcDbLine
 10
304.0318939269855
 20
246.4810946170902
 30
0.0
 11
306.868746154485
 21
259.4382696138577
 31
0.0
  0
LINE
  5
D0
330
70
100
AcDbEntity
  8
HONTAI
 62
     8
420
  8421504
370
    25
100
AcDbLine
 10
306.868746154485
 20
259.4382696138577
 30
0.0
 11
298.9159009475635
 21
246.4810946170902
 31
0.0
  0
LINE
  5
D1
330
70
100
AcDbEntity
  8
HONTAI
 62
     8
420
  8421504
370
    25
100
AcDbLine
 10
298.9159009475635
 20
246.4810946170902
 30
0.0
 11
303.1409090084536
 21
259.4382696138577
 31
0.0
  0
LINE
  5
D2
330
70
100
AcDbEntity
  8
HONTAI
 62
     8
420
  8421504
370
    25
100
AcDbLine
 10
303.1409090084536
 20
259.4382696138577
 30
0.0
 11
294.2292138118318
 21
246.4810946170902
 31
0.0
  0
LINE
  5
D3
330
70
100
AcDbEntity
  8
HONTAI
 62
     8
420
  8421504
370
    25
100
AcDbLine
 10
294.2292138118318
 20
246.4810946170902
 30
0.0
 11
299.7700866467888
 21
259.4382696138577
 31
0.0
  0
LINE
  5
D4
330
70
100
AcDbEntity
  8
HONTAI
 62
     8
420
  8421504
370
    25
100
AcDbLine
 10
299.7700866467888
 20
259.4382696138577
 30
0.0
 11
290.0520230360839
 21
246.4810946170902
 31
0.0
  0
LINE
  5
D5
330
70
100
AcDbEntity
  8
HONTAI
 62
     8
420
  8421504
370
    25
100
AcDbLine
 10
290.0520230360839
 20
246.4810946170902
 30
0.0
 11
296.8139547746808
 21
259.4382696138577
 31
0.0
  0
LINE
  5
D6
330
70
100
AcDbEntity
  8
HONTAI
 62
     8
420
  8421504
370
    25
100
AcDbLine
 10
296.8139547746808
 20
259.4382696138577
 30
0.0
 11
286.4558015126413
 21
246.4810946170902
 31
0.0
  0
LINE
  5
D7
330
70
100
AcDbEntity
  8
HONTAI
 62
     8
420
  8421504
370
    25
100
AcDbLine
 10
286.4558015126413
 20
246.4810946170902
 30
0.0
 11
294.3230936280735
 21
259.4382696138577
 31
0.0
  0
LINE
  5
D8
330
70
100
AcDbEntity
  8
HONTAI
 62
     8
420
  8421504
370
    25
100
AcDbLine
 10
294.3230936280735
 20
259.4382696138577
 30
0.0
 11
283.5020815887931
 21
246.4810946170902
 31
0.0
  0
LINE
  5
D9
330
70
100
AcDbEntity
  8
HONTAI
 62
     8
420
  8421504
370
    25
100
AcDbLine
 10
283.5020815887931
 20
246.4810946170902
 30
0.0
 11
292.3401225317499
 21
259.4382696138577
 31
0.0
  0
LINE
  5
DA
330
70
100
AcDbEntity
  8
HONTAI
 62
     8
420
  8421504
370
    25
100
AcDbLine
 10
292.3401225317499
 20
259.4382696138577
 30
0.0
 11
281.2414022314047
 21
246.4810946170902
 31
0.0
  0
LINE
  5
DB
330
70
100
AcDbEntity
  8
HONTAI
 62
     8
420
  8421504
370
    25
100
AcDbLine
 10
281.2414022314047
 20
246.4810946170902
 30
0.0
 11
290.8989706709657
 21
259.4382696138577
 31
0.0
  0
LINE
  5
DC
330
70
100
AcDbEntity
  8
HONTAI
 62
     8
420
  8421504
370
    25
100
AcDbLine
 10
290.8989706709657
 20
259.4382696138577
 30
0.0
 11
279.7124442910207
 21
246.4810946170902
 31
0.0
  0
LINE
  5
DD
330
70
100
AcDbEntity
  8
HONTAI
 62
     8
420
  8421504
370
    25
100
AcDbLine
 10
279.7124442910207
 20
246.4810946170902
 30
0.0
 11
290.0242965536214
 21
259.4382696138577
 31
0.0
  0
LINE
  5
DE
330
70
100
AcDbEntity
  8
HONTAI
 62
     8
420
  8421504
370
    25
100
AcDbLine
 10
290.0242965536214
 20
259.4382696138577
 30
0.0
 11
278.9413686619342
 21
246.4810946170902
 31
0.0
  0
LINE
  5
DF
330
70
100
AcDbEntity
  8
HONTAI
 62
     8
420
  8421504
370
    25
100
AcDbLine
 10
278.9413686619342
 20
246.4810946170902
 30
0.0
 11
289.7310660963565
 21
259.4382696138577
 31
0.0
  0
LINE
  5
E0
330
70
100
AcDbEntity
  8
HONTAI
 62
     8
420
  8421504
370
    25
100
AcDbLine
 10
319.5325939697744
 20
259.4382696142466
 30
0.0
 11
319.0562197641995
 21
266.6112065635894
 31
0.0
  0
LINE
  5
E1
330
70
100
AcDbEntity
  8
HONTAI
 62
     8
420
  8421504
370
    25
100
AcDbLine
 10
319.0562197641995
 20
266.6112065635894
 30
0.0
 11
315.1285040600722
 21
259.4382696138577
 31
0.0
  0
LINE
  5
E2
330
70
100
AcDbEntity
  8
HONTAI
 62
     8
420
  8421504
370
    25
100
AcDbLine
 10
315.1285040600722
 20
259.4382696138577
 30
0.0
 11
316.4436362429224
 21
266.7562498112277
 31
0.0
  0
LINE
  5
E3
330
70
100
AcDbEntity
  8
HONTAI
 62
     8
420
  8421504
370
    25
100
AcDbLine
 10
316.4436362429224
 20
266.7562498112277
 30
0.0
 11
310.8898137577698
 21
259.4382696138577
 31
0.0
  0
LINE
  5
E4
330
70
100
AcDbEntity
  8
HONTAI
 62
     8
420
  8421504
370
    25
100
AcDbLine
 10
310.8898137577698
 20
259.4382696138577
 30
0.0
 11
314.0705393767039
 21
266.9558933778916
 31
0.0
  0
LINE
  5
E5
330
70
100
AcDbEntity
  8
HONTAI
 62
     8
420
  8421504
370
    25
100
AcDbLine
 10
314.0705393767039
 20
266.9558933778916
 30
0.0
 11
306.868746154485
 21
259.4382696138577
 31
0.0
  0
LINE
  5
E6
330
70
100
AcDbEntity
  8
HONTAI
 62
     8
420
  8421504
370
    25
100
AcDbLine
 10
306.868746154485
 20
259.4382696138577
 30
0.0
 11
311.9958401685697
 21
267.2012846177464
 31
0.0
  0
LINE
  5
E7
330
70
100
AcDbEntity
  8
HONTAI
 62
     8
420
  8421504
370
    25
100
AcDbLine
 10
311.9958401685697
 20
267.2012846177464
 30
0.0
 11
303.1409090084536
 21
259.4382696138577
 31
0.0
  0
LINE
  5
E8
330
70
100
AcDbEntity
  8
HONTAI
 62
     8
420
  8421504
370
    25
100
AcDbLine
 10
303.1409090084536
 20
259.4382696138577
 30
0.0
 11
310.2585785375012
 21
267.4827793848488
 31
0.0
  0
LINE
  5
E9
330
70
100
AcDbEntity
  8
HONTAI
 62
     8
420
  8421504
370
    25
100
AcDbLine
 10
310.2585785375012
 20
267.4827793848488
 30
0.0
 11
299.7700866467888
 21
259.4382696138577
 31
0.0
  0
LINE
  5
EA
330
70
100
AcDbEntity
  8
HONTAI
 62
     8
420
  8421504
370
    25
100
AcDbLine
 10
299.7700866467888
 20
259.4382696138577
 30
0.0
 11
308.880317304924
 21
267.79071528166
 31
0.0
  0
LINE
  5
EB
330
70
100
AcDbEntity
  8
HONTAI
 62
     8
420
  8421504
370
    25
100
AcDbLine
 10
308.880317304924
 20
267.79071528166
 30
0.0
 11
296.8139547746808
 21
259.4382696138577
 31
0.0
  0
LINE
  5
EC
330
70
100
AcDbEntity
  8
HONTAI
 62
     8
420
  8421504
370
    25
100
AcDbLine
 10
296.8139547746808
 20
259.4382696138577
 30
0.0
 11
307.8674633538046
 21
268.1162488197445
 31
0.0
  0
LINE
  5
ED
330
70
100
AcDbEntity
  8
HONTAI
 62
     8
420
  8421504
370
    25
100
AcDbLine
 10
307.8674633538046
 20
268.1162488197445
 30
0.0
 11
294.3230936280735
 21
259.4382696138577
 31
0.0
  0
LINE
  5
EE
330
70
100
AcDbEntity
  8
HONTAI
 62
     8
420
  8421504
370
    25
100
AcDbLine
 10
294.3230936280735
 20
259.4382696138577
 30
0.0
 11
307.2151968327362
 21
268.4524077746621
 31
0.0
  0
LINE
  5
EF
330
70
100
AcDbEntity
  8
HONTAI
 62
     8
420
  8421504
370
    25
100
AcDbLine
 10
307.2151968327362
 20
268.4524077746621
 30
0.0
 11
292.3401225317499
 21
259.4382696138577
 31
0.0
  0
LINE
  5
F0
330
70
100
AcDbEntity
  8
HONTAI
 62
     8
420
  8421504
370
    25
100
AcDbLine
 10
292.3401225317499
 20
259.4382696138577
 30
0.0
 11
306.929664306119
 21
268.7603631486023
 31
0.0
  0
LINE
  5
F1
330
70
100
AcDbEntity
  8
HONTAI
 62
     8
420
  8421504
370
    25
100
AcDbLine
 10
306.929664306119
 20
268.7603631486023
 30
0.0
 11
290.8989706709657
 21
259.4382696138577
 31
0.0
  0
LINE
  5
F2
330
70
100
AcDbEntity
  8
HONTAI
 62
     8
420
  8421504
370
    25
100
AcDbLine
 10
290.8989706709657
 20
259.4382696138577
 30
0.0
 11
306.9857531274799
 21
269.1678963771906
 31
0.0
  0
LINE
  5
F3
330
70
100
AcDbEntity
  8
HONTAI
 62
     8
420
  8421504
370
    25
100
AcDbLine
 10
306.9857531274799
 20
269.1678963771906
 30
0.0
 11
290.0242965536214
 21
259.4382696138577
 31
0.0
  0
LINE
  5
F4
330
70
100
AcDbEntity
  8
HONTAI
 62
     8
420
  8421504
370
    25
100
AcDbLine
 10
290.0242965536214
 20
259.4382696138577
 30
0.0
 11
306.9206999607096
 21
269.2870705249258
 31
0.0
  0
LINE
  5
F5
330
70
100
AcDbEntity
  8
HONTAI
 62
     8
420
  8421504
370
    25
100
AcDbLine
 10
306.6600779904426
 20
168.708527245886
 30
0.0
 11
289.7310660963565
 21
179.7394196337787
 31
0.0
  0
LINE
  5
F6
330
70
100
AcDbEntity
  8
HONTAI
 62
     8
420
  8421504
370
    25
100
AcDbLine
 10
289.7310660963565
 20
179.7394196337787
 30
0.0
 11
278.8446738835137
 21
192.6965946305359
 31
0.0
  0
LINE
  5
F7
330
70
100
AcDbEntity
  8
HONTAI
 62
     8
420
  8421504
370
    25
100
AcDbLine
 10
278.8446738835137
 20
192.6965946305359
 30
0.0
 11
272.361986606937
 21
209.8098446262574
 31
0.0
  0
LINE
  5
F8
330
70
100
AcDbEntity
  8
HONTAI
 62
     8
420
  8421504
370
    25
100
AcDbLine
 10
319.5325939696557
 20
179.7394196337787
 30
0.0
 11
321.0527062887532
 21
192.6965946305359
 31
0.0
  0
LINE
  5
F9
330
70
100
AcDbEntity
  8
HONTAI
 62
     8
420
  8421504
370
    25
100
AcDbLine
 10
324.0044343336228
 20
179.7394196337787
 30
0.0
 11
322.6842043716505
 21
166.2012864550927
 31
0.0
  0
LINE
  5
FA
330
70
100
AcDbEntity
  8
HONTAI
 62
     8
420
  8421504
370
    25
100
AcDbLine
 10
322.6842043716505
 20
166.2012864550927
 30
0.0
 11
319.5325939696557
 21
179.7394196337787
 31
0.0
  0
LINE
  5
FB
330
70
100
AcDbEntity
  8
HONTAI
 62
     8
420
  8421504
370
    25
100
AcDbLine
 10
324.0044343336228
 20
179.7394196337787
 30
0.0
 11
321.0527062887532
 21
192.6965946305359
 31
0.0
  0
LINE
  5
FC
330
70
100
AcDbEntity
  8
HONTAI
 62
     8
420
  8421504
370
    25
100
AcDbLine
 10
321.0527062887532
 20
192.6965946305359
 30
0.0
 11
324.0044343336228
 21
209.8098446262574
 31
0.0
  0
LINE
  5
FD
330
70
100
AcDbEntity
  8
HONTAI
 62
     8
420
  8421504
370
    25
100
AcDbLine
 10
321.0527062887532
 20
192.6965946305359
 30
0.0
 11
317.2654741615307
 21
209.8098446262574
 31
0.0
  0
LINE
  5
FE
330
70
100
AcDbEntity
  8
HONTAI
 62
     8
420
  8421504
370
    25
100
AcDbLine
 10
317.2654741615307
 20
209.8098446262574
 30
0.0
 11
315.1958054078926
 21
192.6965946305359
 31
0.0
  0
LINE
  5
FF
330
70
100
AcDbEntity
  8
HONTAI
 62
     8
420
  8421504
370
    25
100
AcDbLine
 10
315.1958054078926
 20
192.6965946305359
 30
0.0
 11
310.6398616690085
 21
209.8098446262574
 31
0.0
  0
LINE
  5
100
330
70
100
AcDbEntity
  8
HONTAI
 62
     8
420
  8421504
370
    25
100
AcDbLine
 10
310.6398616690085
 20
209.8098446262574
 30
0.0
 11
309.4896566917791
 21
192.6965946305359
 31
0.0
  0
LINE
  5
101
330
70
100
AcDbEntity
  8
HONTAI
 62
     8
420
  8421504
370
    25
100
AcDbLine
 10
309.4896566917791
 20
192.6965946305359
 30
0.0
 11
304.242954801733
 21
209.8098446262574
 31
0.0
  0
LINE
  5
102
330
70
100
AcDbEntity
  8
HONTAI
 62
     8
420
  8421504
370
    25
100
AcDbLine
 10
304.242954801733
 20
209.8098446262574
 30
0.0
 11
304.0318939269855
 21
192.6965946305359
 31
0.0
  0
LINE
  5
103
330
70
100
AcDbEntity
  8
HONTAI
 62
     8
420
  8421504
370
    25
100
AcDbLine
 10
304.0318939269855
 20
192.6965946305359
 30
0.0
 11
298.1842064097695
 21
209.8098446262574
 31
0.0
  0
LINE
  5
104
330
70
100
AcDbEntity
  8
HONTAI
 62
     8
420
  8421504
370
    25
100
AcDbLine
 10
298.1842064097695
 20
209.8098446262574
 30
0.0
 11
298.9159009475635
 21
192.6965946305359
 31
0.0
  0
LINE
  5
105
330
70
100
AcDbEntity
  8
HONTAI
 62
     8
420
  8421504
370
    25
100
AcDbLine
 10
298.9159009475635
 20
192.6965946305359
 30
0.0
 11
292.5672833578979
 21
209.8098446262574
 31
0.0
  0
LINE
  5
106
330
70
100
AcDbEntity
  8
HONTAI
 62
     8
420
  8421504
370
    25
100
AcDbLine
 10
292.5672833578979
 20
209.8098446262574
 30
0.0
 11
294.2292138118318
 21
192.6965946305359
 31
0.0
  0
LINE
  5
107
330
70
100
AcDbEntity
  8
HONTAI
 62
     8
420
  8421504
370
    25
100
AcDbLine
 10
294.2292138118318
 20
192.6965946305359
 30
0.0
 11
287.488292756865
 21
209.8098446262574
 31
0.0
  0
LINE
  5
108
330
70
100
AcDbEntity
  8
HONTAI
 62
     8
420
  8421504
370
    25
100
AcDbLine
 10
287.488292756865
 20
209.8098446262574
 30
0.0
 11
290.0520230360839
 21
192.6965946305359
 31
0.0
  0
LINE
  5
109
330
70
100
AcDbEntity
  8
HONTAI
 62
     8
420
  8421504
370
    25
100
AcDbLine
 10
290.0520230360839
 20
192.6965946305359
 30
0.0
 11
283.0341375439835
 21
209.8098446262574
 31
0.0
  0
LINE
  5
10A
330
70
100
AcDbEntity
  8
HONTAI
 62
     8
420
  8421504
370
    25
100
AcDbLine
 10
283.0341375439835
 20
209.8098446262574
 30
0.0
 11
286.4558015126413
 21
192.6965946305359
 31
0.0
  0
LINE
  5
10B
330
70
100
AcDbEntity
  8
HONTAI
 62
     8
420
  8421504
370
    25
100
AcDbLine
 10
286.4558015126413
 20
192.6965946305359
 30
0.0
 11
279.2810295498894
 21
209.8098446262574
 31
0.0
  0
LINE
  5
10C
330
70
100
AcDbEntity
  8
HONTAI
 62
     8
420
  8421504
370
    25
100
AcDbLine
 10
279.2810295498894
 20
209.8098446262574
 30
0.0
 11
283.5020815887931
 21
192.6965946305359
 31
0.0
  0
LINE
  5
10D
330
70
100
AcDbEntity
  8
HONTAI
 62
     8
420
  8421504
370
    25
100
AcDbLine
 10
283.5020815887931
 20
192.6965946305359
 30
0.0
 11
276.2931854929173
 21
209.8098446262574
 31
0.0
  0
LINE
  5
10E
330
70
100
AcDbEntity
  8
HONTAI
 62
     8
420
  8421504
370
    25
100
AcDbLine
 10
276.2931854929173
 20
209.8098446262574
 30
0.0
 11
281.2414022314047
 21
192.6965946305359
 31
0.0
  0
LINE
  5
10F
330
70
100
AcDbEntity
  8
HONTAI
 62
     8
420
  8421504
370
    25
100
AcDbLine
 10
281.2414022314047
 20
192.6965946305359
 30
0.0
 11
274.1217282132718
 21
209.8098446262574
 31
0.0
  0
LINE
  5
110
330
70
100
AcDbEntity
  8
HONTAI
 62
     8
420
  8421504
370
    25
100
AcDbLine
 10
274.1217282132718
 20
209.8098446262574
 30
0.0
 11
279.7124442910207
 21
192.6965946305359
 31
0.0
  0
LINE
  5
111
330
70
100
AcDbEntity
  8
HONTAI
 62
     8
420
  8421504
370
    25
100
AcDbLine
 10
279.7124442910207
 20
192.6965946305359
 30
0.0
 11
272.803811947032
 21
209.8098446262574
 31
0.0
  0
LINE
  5
112
330
70
100
AcDbEntity
  8
HONTAI
 62
     8
420
  8421504
370
    25
100
AcDbLine
 10
272.803811947032
 20
209.8098446262574
 30
0.0
 11
278.9413686619342
 21
192.6965946305359
 31
0.0
  0
LINE
  5
113
330
70
100
AcDbEntity
  8
HONTAI
 62
     8
420
  8421504
370
    25
100
AcDbLine
 10
278.9413686619342
 20
192.6965946305359
 30
0.0
 11
272.361986606937
 21
209.8098446262574
 31
0.0
  0
LINE
  5
114
330
70
100
AcDbEntity
  8
HONTAI
 62
     8
420
  8421504
370
    25
100
AcDbLine
 10
319.5325939696557
 20
179.7394196337722
 30
0.0
 11
315.1958054078926
 21
192.6965946305359
 31
0.0
  0
LINE
  5
115
330
70
100
AcDbEntity
  8
HONTAI
 62
     8
420
  8421504
370
    25
100
AcDbLine
 10
315.1958054078926
 20
192.6965946305359
 30
0.0
 11
315.1285040600722
 21
179.7394196337787
 31
0.0
  0
LINE
  5
116
330
70
100
AcDbEntity
  8
HONTAI
 62
     8
420
  8421504
370
    25
100
AcDbLine
 10
315.1285040600722
 20
179.7394196337787
 30
0.0
 11
309.4896566917791
 21
192.6965946305359
 31
0.0
  0
LINE
  5
117
330
70
100
AcDbEntity
  8
HONTAI
 62
     8
420
  8421504
370
    25
100
AcDbLine
 10
309.4896566917791
 20
192.6965946305359
 30
0.0
 11
310.8898137577698
 21
179.7394196337787
 31
0.0
  0
LINE
  5
118
330
70
100
AcDbEntity
  8
HONTAI
 62
     8
420
  8421504
370
    25
100
AcDbLine
 10
310.8898137577698
 20
179.7394196337787
 30
0.0
 11
304.0318939269855
 21
192.6965946305359
 31
0.0
  0
LINE
  5
119
330
70
100
AcDbEntity
  8
HONTAI
 62
     8
420
  8421504
370
    25
100
AcDbLine
 10
304.0318939269855
 20
192.6965946305359
 30
0.0
 11
306.868746154485
 21
179.7394196337787
 31
0.0
  0
LINE
  5
11A
330
70
100
AcDbEntity
  8
HONTAI
 62
     8
420
  8421504
370
    25
100
AcDbLine
 10
306.868746154485
 20
179.7394196337787
 30
0.0
 11
298.9159009475635
 21
192.6965946305359
 31
0.0
  0
LINE
  5
11B
330
70
100
AcDbEntity
  8
HONTAI
 62
     8
420
  8421504
370
    25
100
AcDbLine
 10
298.9159009475635
 20
192.6965946305359
 30
0.0
 11
303.1409090084536
 21
179.7394196337787
 31
0.0
  0
LINE
  5
11C
330
70
100
AcDbEntity
  8
HONTAI
 62
     8
420
  8421504
370
    25
100
AcDbLine
 10
303.1409090084536
 20
179.7394196337787
 30
0.0
 11
294.2292138118318
 21
192.6965946305359
 31
0.0
  0
LINE
  5
11D
330
70
100
AcDbEntity
  8
HONTAI
 62
     8
420
  8421504
370
    25
100
AcDbLine
 10
294.2292138118318
 20
192.6965946305359
 30
0.0
 11
299.7700866467888
 21
179.7394196337787
 31
0.0
  0
LINE
  5
11E
330
70
100
AcDbEntity
  8
HONTAI
 62
     8
420
  8421504
370
    25
100
AcDbLine
 10
299.7700866467888
 20
179.7394196337787
 30
0.0
 11
290.0520230360839
 21
192.6965946305359
 31
0.0
  0
LINE
  5
11F
330
70
100
AcDbEntity
  8
HONTAI
 62
     8
420
  8421504
370
    25
100
AcDbLine
 10
290.0520230360839
 20
192.6965946305359
 30
0.0
 11
296.8139547746808
 21
179.7394196337787
 31
0.0
  0
LINE
  5
120
330
70
100
AcDbEntity
  8
HONTAI
 62
     8
420
  8421504
370
    25
100
AcDbLine
 10
296.8139547746808
 20
179.7394196337787
 30
0.0
 11
286.4558015126413
 21
192.6965946305359
 31
0.0
  0
LINE
  5
121
330
70
100
AcDbEntity
  8
HONTAI
 62
     8
420
  8421504
370
    25
100
AcDbLine
 10
286.4558015126413
 20
192.6965946305359
 30
0.0
 11
294.3230936280735
 21
179.7394196337787
 31
0.0
  0
LINE
  5
122
330
70
100
AcDbEntity
  8
HONTAI
 62
     8
420
  8421504
370
    25
100
AcDbLine
 10
294.3230936280735
 20
179.7394196337787
 30
0.0
 11
283.5020815887931
 21
192.6965946305359
 31
0.0
  0
LINE
  5
123
330
70
100
AcDbEntity
  8
HONTAI
 62
     8
420
  8421504
370
    25
100
AcDbLine
 10
283.5020815887931
 20
192.6965946305359
 30
0.0
 11
292.3401225317499
 21
179.7394196337787
 31
0.0
  0
LINE
  5
124
330
70
100
AcDbEntity
  8
HONTAI
 62
     8
420
  8421504
370
    25
100
AcDbLine
 10
292.3401225317499
 20
179.7394196337787
 30
0.0
 11
281.2414022314047
 21
192.6965946305359
 31
0.0
  0
LINE
  5
125
330
70
100
AcDbEntity
  8
HONTAI
 62
     8
420
  8421504
370
    25
100
AcDbLine
 10
281.2414022314047
 20
192.6965946305359
 30
0.0
 11
290.8989706709657
 21
179.7394196337787
 31
0.0
  0
LINE
  5
126
330
70
100
AcDbEntity
  8
HONTAI
 62
     8
420
  8421504
370
    25
100
AcDbLine
 10
290.8989706709657
 20
179.7394196337787
 30
0.0
 11
279.7124442910207
 21
192.6965946305359
 31
0.0
  0
LINE
  5
127
330
70
100
AcDbEntity
  8
HONTAI
 62
     8
420
  8421504
370
    25
100
AcDbLine
 10
279.7124442910207
 20
192.6965946305359
 30
0.0
 11
290.0242965536214
 21
179.7394196337787
 31
0.0
  0
LINE
  5
128
330
70
100
AcDbEntity
  8
HONTAI
 62
     8
420
  8421504
370
    25
100
AcDbLine
 10
290.0242965536214
 20
179.7394196337787
 30
0.0
 11
278.9413686619342
 21
192.6965946305359
 31
0.0
  0
LINE
  5
129
330
70
100
AcDbEntity
  8
HONTAI
 62
     8
420
  8421504
370
    25
100
AcDbLine
 10
278.9413686619342
 20
192.6965946305359
 30
0.0
 11
289.7310660963565
 21
179.7394196337787
 31
0.0
  0
LINE
  5
12A
330
70
100
AcDbEntity
  8
HONTAI
 62
     8
420
  8421504
370
    25
100
AcDbLine
 10
319.5325939697744
 20
179.7394196333898
 30
0.0
 11
320.373110105702
 21
166.2652122571126
 31
0.0
  0
LINE
  5
12B
330
70
100
AcDbEntity
  8
HONTAI
 62
     8
420
  8421504
370
    25
100
AcDbLine
 10
320.373110105702
 20
166.2652122571126
 30
0.0
 11
315.1285040600722
 21
179.7394196337787
 31
0.0
  0
LINE
  5
12C
330
70
100
AcDbEntity
  8
HONTAI
 62
     8
420
  8421504
370
    25
100
AcDbLine
 10
315.1285040600722
 20
179.7394196337787
 30
0.0
 11
318.150331028921
 21
166.3859966554778
 31
0.0
  0
LINE
  5
12D
330
70
100
AcDbEntity
  8
HONTAI
 62
     8
420
  8421504
370
    25
100
AcDbLine
 10
318.150331028921
 20
166.3859966554778
 30
0.0
 11
310.8898137577698
 21
179.7394196337787
 31
0.0
  0
LINE
  5
12E
330
70
100
AcDbEntity
  8
HONTAI
 62
     8
420
  8421504
370
    25
100
AcDbLine
 10
310.8898137577698
 20
179.7394196337787
 30
0.0
 11
316.0401444448807
 21
166.5602298559914
 31
0.0
  0
LINE
  5
12F
330
70
100
AcDbEntity
  8
HONTAI
 62
     8
420
  8421504
370
    25
100
AcDbLine
 10
316.0401444448807
 20
166.5602298559914
 30
0.0
 11
306.868746154485
 21
179.7394196337787
 31
0.0
  0
LINE
  5
130
330
70
100
AcDbEntity
  8
HONTAI
 62
     8
420
  8421504
370
    25
100
AcDbLine
 10
306.868746154485
 20
179.7394196337787
 30
0.0
 11
314.2140435222843
 21
166.8019355168791
 31
0.0
  0
LINE
  5
131
330
70
100
AcDbEntity
  8
HONTAI
 62
     8
420
  8421504
370
    25
100
AcDbLine
 10
314.2140435222843
 20
166.8019355168791
 30
0.0
 11
303.1409090084536
 21
179.7394196337787
 31
0.0
  0
LINE
  5
132
330
70
100
AcDbEntity
  8
HONTAI
 62
     8
420
  8421504
370
    25
100
AcDbLine
 10
303.1409090084536
 20
179.7394196337787
 30
0.0
 11
312.5813500229575
 21
167.0004503103451
 31
0.0
  0
LINE
  5
133
330
70
100
AcDbEntity
  8
HONTAI
 62
     8
420
  8421504
370
    25
100
AcDbLine
 10
312.5813500229575
 20
167.0004503103451
 30
0.0
 11
299.7700866467888
 21
179.7394196337787
 31
0.0
  0
LINE
  5
134
330
70
100
AcDbEntity
  8
HONTAI
 62
     8
420
  8421504
370
    25
100
AcDbLine
 10
299.7700866467888
 20
179.7394196337787
 30
0.0
 11
311.0953273571511
 21
167.2683036013928
 31
0.0
  0
LINE
  5
135
330
70
100
AcDbEntity
  8
HONTAI
 62
     8
420
  8421504
370
    25
100
AcDbLine
 10
311.0953273571511
 20
167.2683036013928
 30
0.0
 11
296.8139547746808
 21
179.7394196337787
 31
0.0
  0
LINE
  5
136
330
70
100
AcDbEntity
  8
HONTAI
 62
     8
420
  8421504
370
    25
100
AcDbLine
 10
296.8139547746808
 20
179.7394196337787
 30
0.0
 11
309.8607513172357
 21
167.5427034525551
 31
0.0
  0
LINE
  5
137
330
70
100
AcDbEntity
  8
HONTAI
 62
     8
420
  8421504
370
    25
100
AcDbLine
 10
309.8607513172357
 20
167.5427034525551
 30
0.0
 11
294.3230936280735
 21
179.7394196337787
 31
0.0
  0
LINE
  5
138
330
70
100
AcDbEntity
  8
HONTAI
 62
     8
420
  8421504
370
    25
100
AcDbLine
 10
294.3230936280735
 20
179.7394196337787
 30
0.0
 11
308.8980265039127
 21
167.8018824132722
 31
0.0
  0
LINE
  5
139
330
70
100
AcDbEntity
  8
HONTAI
 62
     8
420
  8421504
370
    25
100
AcDbLine
 10
308.8980265039127
 20
167.8018824132722
 30
0.0
 11
292.3401225317499
 21
179.7394196337787
 31
0.0
  0
LINE
  5
13A
330
70
100
AcDbEntity
  8
HONTAI
 62
     8
420
  8421504
370
    25
100
AcDbLine
 10
292.3401225317499
 20
179.7394196337787
 30
0.0
 11
308.2111586618269
 21
168.0208172899655
 31
0.0
  0
LINE
  5
13B
330
70
100
AcDbEntity
  8
HONTAI
 62
     8
420
  8421504
370
    25
100
AcDbLine
 10
308.2111586618269
 20
168.0208172899655
 30
0.0
 11
290.8989706709657
 21
179.7394196337787
 31
0.0
  0
LINE
  5
13C
330
70
100
AcDbEntity
  8
HONTAI
 62
     8
420
  8421504
370
    25
100
AcDbLine
 10
290.8989706709657
 20
179.7394196337787
 30
0.0
 11
307.7838518754443
 21
168.1766873720742
 31
0.0
  0
LINE
  5
13D
330
70
100
AcDbEntity
  8
HONTAI
 62
     8
420
  8421504
370
    25
100
AcDbLine
 10
307.7838518754443
 20
168.1766873720742
 30
0.0
 11
290.0242965536214
 21
179.7394196337787
 31
0.0
  0
LINE
  5
13E
330
70
100
AcDbEntity
  8
HONTAI
 62
     8
420
  8421504
370
    25
100
AcDbLine
 10
290.0242965536214
 20
179.7394196337787
 30
0.0
 11
306.6600779904426
 21
168.708527245886
 31
0.0
  0
LINE
  5
13F
330
70
100
AcDbEntity
  8
HONTAI
 62
     8
420
  8421504
370
    25
100
AcDbLine
 10
341.1196762083116
 20
269.2870705249258
 30
0.0
 11
358.2817863288174
 21
259.4382696138577
 31
0.0
  0
LINE
  5
140
330
70
100
AcDbEntity
  8
HONTAI
 62
     8
420
  8421504
370
    25
100
AcDbLine
 10
358.2817863288174
 20
259.4382696138577
 30
0.0
 11
369.1681785416736
 21
246.4810946170902
 31
0.0
  0
LINE
  5
141
330
70
100
AcDbEntity
  8
HONTAI
 62
     8
420
  8421504
370
    25
100
AcDbLine
 10
369.1681785416736
 20
246.4810946170902
 30
0.0
 11
375.6508658182504
 21
229.367844621371
 31
0.0
  0
LINE
  5
142
330
70
100
AcDbEntity
  8
HONTAI
 62
     8
420
  8421504
370
    25
100
AcDbLine
 10
375.6508658182504
 20
229.367844621371
 30
0.0
 11
375.6508658182504
 21
209.8098446262574
 31
0.0
  0
LINE
  5
143
330
70
100
AcDbEntity
  8
HONTAI
 62
     8
420
  8421504
370
    25
100
AcDbLine
 10
328.480258455531
 20
259.4382696138577
 30
0.0
 11
326.9601461364338
 21
246.4810946170902
 31
0.0
  0
LINE
  5
144
330
70
100
AcDbEntity
  8
HONTAI
 62
     8
420
  8421504
370
    25
100
AcDbLine
 10
324.0084180915649
 20
259.4382696138577
 30
0.0
 11
326.1728216896503
 21
266.5275882729594
 31
0.0
  0
LINE
  5
145
330
70
100
AcDbEntity
  8
HONTAI
 62
     8
420
  8421504
370
    25
100
AcDbLine
 10
326.1728216896503
 20
266.5275882729594
 30
0.0
 11
328.480258455531
 21
259.4382696138577
 31
0.0
  0
LINE
  5
146
330
70
100
AcDbEntity
  8
HONTAI
 62
     8
420
  8421504
370
    25
100
AcDbLine
 10
324.0084180915649
 20
259.4382696138577
 30
0.0
 11
326.9601461364338
 21
246.4810946170902
 31
0.0
  0
LINE
  5
147
330
70
100
AcDbEntity
  8
HONTAI
 62
     8
420
  8421504
370
    25
100
AcDbLine
 10
326.9601461364338
 20
246.4810946170902
 30
0.0
 11
324.0084180915649
 21
229.367844621371
 31
0.0
  0
LINE
  5
148
330
70
100
AcDbEntity
  8
HONTAI
 62
     8
420
  8421504
370
    25
100
AcDbLine
 10
326.9601461364338
 20
246.4810946170902
 30
0.0
 11
330.7473782636567
 21
229.367844621371
 31
0.0
  0
LINE
  5
149
330
70
100
AcDbEntity
  8
HONTAI
 62
     8
420
  8421504
370
    25
100
AcDbLine
 10
330.7473782636567
 20
229.367844621371
 30
0.0
 11
330.7473782636567
 21
209.8098446262574
 31
0.0
  0
LINE
  5
14A
330
70
100
AcDbEntity
  8
HONTAI
 62
     8
420
  8421504
370
    25
100
AcDbLine
 10
337.3729907561791
 20
229.367844621371
 30
0.0
 11
337.3729907561791
 21
209.8098446262574
 31
0.0
  0
LINE
  5
14B
330
70
100
AcDbEntity
  8
HONTAI
 62
     8
420
  8421504
370
    25
100
AcDbLine
 10
343.7698976234544
 20
229.367844621371
 30
0.0
 11
343.7698976234544
 21
209.8098446262574
 31
0.0
  0
LINE
  5
14C
330
70
100
AcDbEntity
  8
HONTAI
 62
     8
420
  8421504
370
    25
100
AcDbLine
 10
349.8286460154172
 20
229.367844621371
 30
0.0
 11
349.8286460154172
 21
209.8098446262574
 31
0.0
  0
LINE
  5
14D
330
70
100
AcDbEntity
  8
HONTAI
 62
     8
420
  8421504
370
    25
100
AcDbLine
 10
355.445569067276
 20
229.367844621371
 30
0.0
 11
355.445569067276
 21
209.8098446262574
 31
0.0
  0
LINE
  5
14E
330
70
100
AcDbEntity
  8
HONTAI
 62
     8
420
  8421504
370
    25
100
AcDbLine
 10
360.5245596683224
 20
229.367844621371
 30
0.0
 11
360.5245596683224
 21
209.8098446262574
 31
0.0
  0
LINE
  5
14F
330
70
100
AcDbEntity
  8
HONTAI
 62
     8
420
  8421504
370
    25
100
AcDbLine
 10
364.9787148812039
 20
229.367844621371
 30
0.0
 11
364.9787148812039
 21
209.8098446262574
 31
0.0
  0
LINE
  5
150
330
70
100
AcDbEntity
  8
HONTAI
 62
     8
420
  8421504
370
    25
100
AcDbLine
 10
368.731822875298
 20
229.367844621371
 30
0.0
 11
368.731822875298
 21
209.8098446262574
 31
0.0
  0
LINE
  5
151
330
70
100
AcDbEntity
  8
HONTAI
 62
     8
420
  8421504
370
    25
100
AcDbLine
 10
371.7196669322701
 20
229.367844621371
 30
0.0
 11
371.7196669322701
 21
209.8098446262574
 31
0.0
  0
LINE
  5
152
330
70
100
AcDbEntity
  8
HONTAI
 62
     8
420
  8421504
370
    25
100
AcDbLine
 10
373.8911242119156
 20
229.367844621371
 30
0.0
 11
373.8911242119156
 21
209.8098446262574
 31
0.0
  0
LINE
  5
153
330
70
100
AcDbEntity
  8
HONTAI
 62
     8
420
  8421504
370
    25
100
AcDbLine
 10
375.2090404781554
 20
229.367844621371
 30
0.0
 11
375.2090404781554
 21
209.8098446262574
 31
0.0
  0
LINE
  5
154
330
70
100
AcDbEntity
  8
HONTAI
 62
     8
420
  8421504
370
    25
100
AcDbLine
 10
330.7473782636567
 20
229.367844621371
 30
0.0
 11
332.8170470172781
 21
246.4810946170902
 31
0.0
  0
LINE
  5
155
330
70
100
AcDbEntity
  8
HONTAI
 62
     8
420
  8421504
370
    25
100
AcDbLine
 10
332.8170470172781
 20
246.4810946170902
 30
0.0
 11
337.3729907561791
 21
229.367844621371
 31
0.0
  0
LINE
  5
156
330
70
100
AcDbEntity
  8
HONTAI
 62
     8
420
  8421504
370
    25
100
AcDbLine
 10
337.3729907561791
 20
229.367844621371
 30
0.0
 11
338.5231957333961
 21
246.4810946170902
 31
0.0
  0
LINE
  5
157
330
70
100
AcDbEntity
  8
HONTAI
 62
     8
420
  8421504
370
    25
100
AcDbLine
 10
338.5231957333961
 20
246.4810946170902
 30
0.0
 11
343.7698976234544
 21
229.367844621371
 31
0.0
  0
LINE
  5
158
330
70
100
AcDbEntity
  8
HONTAI
 62
     8
420
  8421504
370
    25
100
AcDbLine
 10
343.7698976234544
 20
229.367844621371
 30
0.0
 11
343.9809584982015
 21
246.4810946170902
 31
0.0
  0
LINE
  5
159
330
70
100
AcDbEntity
  8
HONTAI
 62
     8
420
  8421504
370
    25
100
AcDbLine
 10
343.9809584982015
 20
246.4810946170902
 30
0.0
 11
349.8286460154172
 21
229.367844621371
 31
0.0
  0
LINE
  5
15A
330
70
100
AcDbEntity
  8
HONTAI
 62
     8
420
  8421504
370
    25
100
AcDbLine
 10
349.8286460154172
 20
229.367844621371
 30
0.0
 11
349.0969514776235
 21
246.4810946170902
 31
0.0
  0
LINE
  5
15B
330
70
100
AcDbEntity
  8
HONTAI
 62
     8
420
  8421504
370
    25
100
AcDbLine
 10
349.0969514776235
 20
246.4810946170902
 30
0.0
 11
355.445569067276
 21
229.367844621371
 31
0.0
  0
LINE
  5
15C
330
70
100
AcDbEntity
  8
HONTAI
 62
     8
420
  8421504
370
    25
100
AcDbLine
 10
355.445569067276
 20
229.367844621371
 30
0.0
 11
353.7836386133437
 21
246.4810946170902
 31
0.0
  0
LINE
  5
15D
330
70
100
AcDbEntity
  8
HONTAI
 62
     8
420
  8421504
370
    25
100
AcDbLine
 10
353.7836386133437
 20
246.4810946170902
 30
0.0
 11
360.5245596683224
 21
229.367844621371
 31
0.0
  0
LINE
  5
15E
330
70
100
AcDbEntity
  8
HONTAI
 62
     8
420
  8421504
370
    25
100
AcDbLine
 10
360.5245596683224
 20
229.367844621371
 30
0.0
 11
357.9608293891028
 21
246.4810946170902
 31
0.0
  0
LINE
  5
15F
330
70
100
AcDbEntity
  8
HONTAI
 62
     8
420
  8421504
370
    25
100
AcDbLine
 10
357.9608293891028
 20
246.4810946170902
 30
0.0
 11
364.9787148812039
 21
229.367844621371
 31
0.0
  0
LINE
  5
160
330
70
100
AcDbEntity
  8
HONTAI
 62
     8
420
  8421504
370
    25
100
AcDbLine
 10
364.9787148812039
 20
229.367844621371
 30
0.0
 11
361.5570509125455
 21
246.4810946170902
 31
0.0
  0
LINE
  5
161
330
70
100
AcDbEntity
  8
HONTAI
 62
     8
420
  8421504
370
    25
100
AcDbLine
 10
361.5570509125455
 20
246.4810946170902
 30
0.0
 11
368.731822875298
 21
229.367844621371
 31
0.0
  0
LINE
  5
162
330
70
100
AcDbEntity
  8
HONTAI
 62
     8
420
  8421504
370
    25
100
AcDbLine
 10
368.731822875298
 20
229.367844621371
 30
0.0
 11
364.5107708363943
 21
246.4810946170902
 31
0.0
  0
LINE
  5
163
330
70
100
AcDbEntity
  8
HONTAI
 62
     8
420
  8421504
370
    25
100
AcDbLine
 10
364.5107708363943
 20
246.4810946170902
 30
0.0
 11
371.7196669322701
 21
229.367844621371
 31
0.0
  0
LINE
  5
164
330
70
100
AcDbEntity
  8
HONTAI
 62
     8
420
  8421504
370
    25
100
AcDbLine
 10
371.7196669322701
 20
229.367844621371
 30
0.0
 11
366.7714501937827
 21
246.4810946170902
 31
0.0
  0
LINE
  5
165
330
70
100
AcDbEntity
  8
HONTAI
 62
     8
420
  8421504
370
    25
100
AcDbLine
 10
366.7714501937827
 20
246.4810946170902
 30
0.0
 11
373.8911242119156
 21
229.367844621371
 31
0.0
  0
LINE
  5
166
330
70
100
AcDbEntity
  8
HONTAI
 62
     8
420
  8421504
370
    25
100
AcDbLine
 10
373.8911242119156
 20
229.367844621371
 30
0.0
 11
368.3004081341666
 21
246.4810946170902
 31
0.0
  0
LINE
  5
167
330
70
100
AcDbEntity
  8
HONTAI
 62
     8
420
  8421504
370
    25
100
AcDbLine
 10
368.3004081341666
 20
246.4810946170902
 30
0.0
 11
375.2090404781554
 21
229.367844621371
 31
0.0
  0
LINE
  5
168
330
70
100
AcDbEntity
  8
HONTAI
 62
     8
420
  8421504
370
    25
100
AcDbLine
 10
375.2090404781554
 20
229.367844621371
 30
0.0
 11
369.0714837632532
 21
246.4810946170902
 31
0.0
  0
LINE
  5
169
330
70
100
AcDbEntity
  8
HONTAI
 62
     8
420
  8421504
370
    25
100
AcDbLine
 10
369.0714837632532
 20
246.4810946170902
 30
0.0
 11
375.6508658182504
 21
229.367844621371
 31
0.0
  0
LINE
  5
16A
330
70
100
AcDbEntity
  8
HONTAI
 62
     8
420
  8421504
370
    25
100
AcDbLine
 10
328.480258455531
 20
259.4382696138577
 30
0.0
 11
332.8170470172781
 21
246.4810946170902
 31
0.0
  0
LINE
  5
16B
330
70
100
AcDbEntity
  8
HONTAI
 62
     8
420
  8421504
370
    25
100
AcDbLine
 10
332.8170470172781
 20
246.4810946170902
 30
0.0
 11
332.8843483651152
 21
259.4382696138577
 31
0.0
  0
LINE
  5
16C
330
70
100
AcDbEntity
  8
HONTAI
 62
     8
420
  8421504
370
    25
100
AcDbLine
 10
332.8843483651152
 20
259.4382696138577
 30
0.0
 11
338.5231957333961
 21
246.4810946170902
 31
0.0
  0
LINE
  5
16D
330
70
100
AcDbEntity
  8
HONTAI
 62
     8
420
  8421504
370
    25
100
AcDbLine
 10
338.5231957333961
 20
246.4810946170902
 30
0.0
 11
337.1230386674173
 21
259.4382696138577
 31
0.0
  0
LINE
  5
16E
330
70
100
AcDbEntity
  8
HONTAI
 62
     8
420
  8421504
370
    25
100
AcDbLine
 10
337.1230386674173
 20
259.4382696138577
 30
0.0
 11
343.9809584982015
 21
246.4810946170902
 31
0.0
  0
LINE
  5
16F
330
70
100
AcDbEntity
  8
HONTAI
 62
     8
420
  8421504
370
    25
100
AcDbLine
 10
343.9809584982015
 20
246.4810946170902
 30
0.0
 11
341.1441062707017
 21
259.4382696138577
 31
0.0
  0
LINE
  5
170
330
70
100
AcDbEntity
  8
HONTAI
 62
     8
420
  8421504
370
    25
100
AcDbLine
 10
341.1441062707017
 20
259.4382696138577
 30
0.0
 11
349.0969514776235
 21
246.4810946170902
 31
0.0
  0
LINE
  5
171
330
70
100
AcDbEntity
  8
HONTAI
 62
     8
420
  8421504
370
    25
100
AcDbLine
 10
349.0969514776235
 20
246.4810946170902
 30
0.0
 11
344.8719434167335
 21
259.4382696138577
 31
0.0
  0
LINE
  5
172
330
70
100
AcDbEntity
  8
HONTAI
 62
     8
420
  8421504
370
    25
100
AcDbLine
 10
344.8719434167335
 20
259.4382696138577
 30
0.0
 11
353.7836386133437
 21
246.4810946170902
 31
0.0
  0
LINE
  5
173
330
70
100
AcDbEntity
  8
HONTAI
 62
     8
420
  8421504
370
    25
100
AcDbLine
 10
353.7836386133437
 20
246.4810946170902
 30
0.0
 11
348.242765778398
 21
259.4382696138577
 31
0.0
  0
LINE
  5
174
330
70
100
AcDbEntity
  8
HONTAI
 62
     8
420
  8421504
370
    25
100
AcDbLine
 10
348.242765778398
 20
259.4382696138577
 30
0.0
 11
357.9608293891028
 21
246.4810946170902
 31
0.0
  0
LINE
  5
175
330
70
100
AcDbEntity
  8
HONTAI
 62
     8
420
  8421504
370
    25
100
AcDbLine
 10
357.9608293891028
 20
246.4810946170902
 30
0.0
 11
351.198897650495
 21
259.4382696138577
 31
0.0
  0
LINE
  5
176
330
70
100
AcDbEntity
  8
HONTAI
 62
     8
420
  8421504
370
    25
100
AcDbLine
 10
351.198897650495
 20
259.4382696138577
 30
0.0
 11
361.5570509125455
 21
246.4810946170902
 31
0.0
  0
LINE
  5
177
330
70
100
AcDbEntity
  8
HONTAI
 62
     8
420
  8421504
370
    25
100
AcDbLine
 10
361.5570509125455
 20
246.4810946170902
 30
0.0
 11
353.6897587971133
 21
259.4382696138577
 31
0.0
  0
LINE
  5
178
330
70
100
AcDbEntity
  8
HONTAI
 62
     8
420
  8421504
370
    25
100
AcDbLine
 10
353.6897587971133
 20
259.4382696138577
 30
0.0
 11
364.5107708363943
 21
246.4810946170902
 31
0.0
  0
LINE
  5
179
330
70
100
AcDbEntity
  8
HONTAI
 62
     8
420
  8421504
370
    25
100
AcDbLine
 10
364.5107708363943
 20
246.4810946170902
 30
0.0
 11
355.6727298934374
 21
259.4382696138577
 31
0.0
  0
LINE
  5
17A
330
70
100
AcDbEntity
  8
HONTAI
 62
     8
420
  8421504
370
    25
100
AcDbLine
 10
355.6727298934374
 20
259.4382696138577
 30
0.0
 11
366.7714501937827
 21
246.4810946170902
 31
0.0
  0
LINE
  5
17B
330
70
100
AcDbEntity
  8
HONTAI
 62
     8
420
  8421504
370
    25
100
AcDbLine
 10
366.7714501937827
 20
246.4810946170902
 30
0.0
 11
357.1138817542204
 21
259.4382696138577
 31
0.0
  0
LINE
  5
17C
330
70
100
AcDbEntity
  8
HONTAI
 62
     8
420
  8421504
370
    25
100
AcDbLine
 10
357.1138817542204
 20
259.4382696138577
 30
0.0
 11
368.3004081341666
 21
246.4810946170902
 31
0.0
  0
LINE
  5
17D
330
70
100
AcDbEntity
  8
HONTAI
 62
     8
420
  8421504
370
    25
100
AcDbLine
 10
368.3004081341666
 20
246.4810946170902
 30
0.0
 11
357.988555871566
 21
259.4382696138577
 31
0.0
  0
LINE
  5
17E
330
70
100
AcDbEntity
  8
HONTAI
 62
     8
420
  8421504
370
    25
100
AcDbLine
 10
357.988555871566
 20
259.4382696138577
 30
0.0
 11
369.0714837632532
 21
246.4810946170902
 31
0.0
  0
LINE
  5
17F
330
70
100
AcDbEntity
  8
HONTAI
 62
     8
420
  8421504
370
    25
100
AcDbLine
 10
369.0714837632532
 20
246.4810946170902
 30
0.0
 11
358.2817863288174
 21
259.4382696138577
 31
0.0
  0
LINE
  5
180
330
70
100
AcDbEntity
  8
HONTAI
 62
     8
420
  8421504
370
    25
100
AcDbLine
 10
328.4802584554123
 20
259.4382696142466
 30
0.0
 11
328.9566326609764
 21
266.6112065635894
 31
0.0
  0
LINE
  5
181
330
70
100
AcDbEntity
  8
HONTAI
 62
     8
420
  8421504
370
    25
100
AcDbLine
 10
328.9566326609764
 20
266.6112065635894
 30
0.0
 11
332.8843483651152
 21
259.4382696138577
 31
0.0
  0
LINE
  5
182
330
70
100
AcDbEntity
  8
HONTAI
 62
     8
420
  8421504
370
    25
100
AcDbLine
 10
332.8843483651152
 20
259.4382696138577
 30
0.0
 11
331.5692161822644
 21
266.7562498112277
 31
0.0
  0
LINE
  5
183
330
70
100
AcDbEntity
  8
HONTAI
 62
     8
420
  8421504
370
    25
100
AcDbLine
 10
331.5692161822644
 20
266.7562498112277
 30
0.0
 11
337.1230386674173
 21
259.4382696138577
 31
0.0
  0
LINE
  5
184
330
70
100
AcDbEntity
  8
HONTAI
 62
     8
420
  8421504
370
    25
100
AcDbLine
 10
337.1230386674173
 20
259.4382696138577
 30
0.0
 11
333.9423130484835
 21
266.9558933778916
 31
0.0
  0
LINE
  5
185
330
70
100
AcDbEntity
  8
HONTAI
 62
     8
420
  8421504
370
    25
100
AcDbLine
 10
333.9423130484835
 20
266.9558933778916
 30
0.0
 11
341.1441062707017
 21
259.4382696138577
 31
0.0
  0
LINE
  5
186
330
70
100
AcDbEntity
  8
HONTAI
 62
     8
420
  8421504
370
    25
100
AcDbLine
 10
341.1441062707017
 20
259.4382696138577
 30
0.0
 11
336.0170122566177
 21
267.2012846177464
 31
0.0
  0
LINE
  5
187
330
70
100
AcDbEntity
  8
HONTAI
 62
     8
420
  8421504
370
    25
100
AcDbLine
 10
336.0170122566177
 20
267.2012846177464
 30
0.0
 11
344.8719434167335
 21
259.4382696138577
 31
0.0
  0
LINE
  5
188
330
70
100
AcDbEntity
  8
HONTAI
 62
     8
420
  8421504
370
    25
100
AcDbLine
 10
344.8719434167335
 20
259.4382696138577
 30
0.0
 11
337.7542738876862
 21
267.4827793848488
 31
0.0
  0
LINE
  5
189
330
70
100
AcDbEntity
  8
HONTAI
 62
     8
420
  8421504
370
    25
100
AcDbLine
 10
337.7542738876862
 20
267.4827793848488
 30
0.0
 11
348.242765778398
 21
259.4382696138577
 31
0.0
  0
LINE
  5
18A
330
70
100
AcDbEntity
  8
HONTAI
 62
     8
420
  8421504
370
    25
100
AcDbLine
 10
348.242765778398
 20
259.4382696138577
 30
0.0
 11
339.1325351202634
 21
267.79071528166
 31
0.0
  0
LINE
  5
18B
330
70
100
AcDbEntity
  8
HONTAI
 62
     8
420
  8421504
370
    25
100
AcDbLine
 10
339.1325351202634
 20
267.79071528166
 30
0.0
 11
351.198897650495
 21
259.4382696138577
 31
0.0
  0
LINE
  5
18C
330
70
100
AcDbEntity
  8
HONTAI
 62
     8
420
  8421504
370
    25
100
AcDbLine
 10
351.198897650495
 20
259.4382696138577
 30
0.0
 11
340.1453890713824
 21
268.1162488197445
 31
0.0
  0
LINE
  5
18D
330
70
100
AcDbEntity
  8
HONTAI
 62
     8
420
  8421504
370
    25
100
AcDbLine
 10
340.1453890713824
 20
268.1162488197445
 30
0.0
 11
353.6897587971133
 21
259.4382696138577
 31
0.0
  0
LINE
  5
18E
330
70
100
AcDbEntity
  8
HONTAI
 62
     8
420
  8421504
370
    25
100
AcDbLine
 10
353.6897587971133
 20
259.4382696138577
 30
0.0
 11
340.7976555924505
 21
268.4524077746621
 31
0.0
  0
LINE
  5
18F
330
70
100
AcDbEntity
  8
HONTAI
 62
     8
420
  8421504
370
    25
100
AcDbLine
 10
340.7976555924505
 20
268.4524077746621
 30
0.0
 11
355.6727298934374
 21
259.4382696138577
 31
0.0
  0
LINE
  5
190
330
70
100
AcDbEntity
  8
HONTAI
 62
     8
420
  8421504
370
    25
100
AcDbLine
 10
355.6727298934374
 20
259.4382696138577
 30
0.0
 11
341.0981053470062
 21
268.7966816232893
 31
0.0
  0
LINE
  5
191
330
70
100
AcDbEntity
  8
HONTAI
 62
     8
420
  8421504
370
    25
100
AcDbLine
 10
341.0981053470062
 20
268.7966816232893
 30
0.0
 11
357.1138817542204
 21
259.4382696138577
 31
0.0
  0
LINE
  5
192
330
70
100
AcDbEntity
  8
HONTAI
 62
     8
420
  8421504
370
    25
100
AcDbLine
 10
357.1138817542204
 20
259.4382696138577
 30
0.0
 11
341.0270992977069
 21
269.1678963771906
 31
0.0
  0
LINE
  5
193
330
70
100
AcDbEntity
  8
HONTAI
 62
     8
420
  8421504
370
    25
100
AcDbLine
 10
341.0270992977069
 20
269.1678963771906
 30
0.0
 11
357.988555871566
 21
259.4382696138577
 31
0.0
  0
LINE
  5
194
330
70
100
AcDbEntity
  8
HONTAI
 62
     8
420
  8421504
370
    25
100
AcDbLine
 10
357.988555871566
 20
259.4382696138577
 30
0.0
 11
341.0921524644771
 21
269.2870705249258
 31
0.0
  0
LINE
  5
195
330
70
100
AcDbEntity
  8
HONTAI
 62
     8
420
  8421504
370
    25
100
AcDbLine
 10
358.2817863288174
 20
179.7394196337787
 30
0.0
 11
369.1681785416736
 21
192.6965946305359
 31
0.0
  0
LINE
  5
196
330
70
100
AcDbEntity
  8
HONTAI
 62
     8
420
  8421504
370
    25
100
AcDbLine
 10
369.1681785416736
 20
192.6965946305359
 30
0.0
 11
375.6508658182504
 21
209.8098446262574
 31
0.0
  0
LINE
  5
197
330
70
100
AcDbEntity
  8
HONTAI
 62
     8
420
  8421504
370
    25
100
AcDbLine
 10
328.480258455531
 20
179.7394196337787
 30
0.0
 11
326.9601461364338
 21
192.6965946305359
 31
0.0
  0
LINE
  5
198
330
70
100
AcDbEntity
  8
HONTAI
 62
     8
420
  8421504
370
    25
100
AcDbLine
 10
324.0084180915649
 20
179.7394196337787
 30
0.0
 11
326.9601461364338
 21
192.6965946305359
 31
0.0
  0
LINE
  5
199
330
70
100
AcDbEntity
  8
HONTAI
 62
     8
420
  8421504
370
    25
100
AcDbLine
 10
326.9601461364338
 20
192.6965946305359
 30
0.0
 11
324.0084180915649
 21
209.8098446262574
 31
0.0
  0
LINE
  5
19A
330
70
100
AcDbEntity
  8
HONTAI
 62
     8
420
  8421504
370
    25
100
AcDbLine
 10
326.9601461364338
 20
192.6965946305359
 30
0.0
 11
330.7473782636567
 21
209.8098446262574
 31
0.0
  0
LINE
  5
19B
330
70
100
AcDbEntity
  8
HONTAI
 62
     8
420
  8421504
370
    25
100
AcDbLine
 10
330.7473782636567
 20
209.8098446262574
 30
0.0
 11
332.8170470172781
 21
192.6965946305359
 31
0.0
  0
LINE
  5
19C
330
70
100
AcDbEntity
  8
HONTAI
 62
     8
420
  8421504
370
    25
100
AcDbLine
 10
332.8170470172781
 20
192.6965946305359
 30
0.0
 11
337.3729907561791
 21
209.8098446262574
 31
0.0
  0
LINE
  5
19D
330
70
100
AcDbEntity
  8
HONTAI
 62
     8
420
  8421504
370
    25
100
AcDbLine
 10
337.3729907561791
 20
209.8098446262574
 30
0.0
 11
338.5231957333961
 21
192.6965946305359
 31
0.0
  0
LINE
  5
19E
330
70
100
AcDbEntity
  8
HONTAI
 62
     8
420
  8421504
370
    25
100
AcDbLine
 10
338.5231957333961
 20
192.6965946305359
 30
0.0
 11
343.7698976234544
 21
209.8098446262574
 31
0.0
  0
LINE
  5
19F
330
70
100
AcDbEntity
  8
HONTAI
 62
     8
420
  8421504
370
    25
100
AcDbLine
 10
343.7698976234544
 20
209.8098446262574
 30
0.0
 11
343.9809584982015
 21
192.6965946305359
 31
0.0
  0
LINE
  5
1A0
330
70
100
AcDbEntity
  8
HONTAI
 62
     8
420
  8421504
370
    25
100
AcDbLine
 10
343.9809584982015
 20
192.6965946305359
 30
0.0
 11
349.8286460154172
 21
209.8098446262574
 31
0.0
  0
LINE
  5
1A1
330
70
100
AcDbEntity
  8
HONTAI
 62
     8
420
  8421504
370
    25
100
AcDbLine
 10
349.8286460154172
 20
209.8098446262574
 30
0.0
 11
349.0969514776235
 21
192.6965946305359
 31
0.0
  0
LINE
  5
1A2
330
70
100
AcDbEntity
  8
HONTAI
 62
     8
420
  8421504
370
    25
100
AcDbLine
 10
349.0969514776235
 20
192.6965946305359
 30
0.0
 11
355.445569067276
 21
209.8098446262574
 31
0.0
  0
LINE
  5
1A3
330
70
100
AcDbEntity
  8
HONTAI
 62
     8
420
  8421504
370
    25
100
AcDbLine
 10
355.445569067276
 20
209.8098446262574
 30
0.0
 11
353.7836386133437
 21
192.6965946305359
 31
0.0
  0
LINE
  5
1A4
330
70
100
AcDbEntity
  8
HONTAI
 62
     8
420
  8421504
370
    25
100
AcDbLine
 10
353.7836386133437
 20
192.6965946305359
 30
0.0
 11
360.5245596683224
 21
209.8098446262574
 31
0.0
  0
LINE
  5
1A5
330
70
100
AcDbEntity
  8
HONTAI
 62
     8
420
  8421504
370
    25
100
AcDbLine
 10
360.5245596683224
 20
209.8098446262574
 30
0.0
 11
357.9608293891028
 21
192.6965946305359
 31
0.0
  0
LINE
  5
1A6
330
70
100
AcDbEntity
  8
HONTAI
 62
     8
420
  8421504
370
    25
100
AcDbLine
 10
357.9608293891028
 20
192.6965946305359
 30
0.0
 11
364.9787148812039
 21
209.8098446262574
 31
0.0
  0
LINE
  5
1A7
330
70
100
AcDbEntity
  8
HONTAI
 62
     8
420
  8421504
370
    25
100
AcDbLine
 10
364.9787148812039
 20
209.8098446262574
 30
0.0
 11
361.5570509125455
 21
192.6965946305359
 31
0.0
  0
LINE
  5
1A8
330
70
100
AcDbEntity
  8
HONTAI
 62
     8
420
  8421504
370
    25
100
AcDbLine
 10
361.5570509125455
 20
192.6965946305359
 30
0.0
 11
368.731822875298
 21
209.8098446262574
 31
0.0
  0
LINE
  5
1A9
330
70
100
AcDbEntity
  8
HONTAI
 62
     8
420
  8421504
370
    25
100
AcDbLine
 10
368.731822875298
 20
209.8098446262574
 30
0.0
 11
364.5107708363943
 21
192.6965946305359
 31
0.0
  0
LINE
  5
1AA
330
70
100
AcDbEntity
  8
HONTAI
 62
     8
420
  8421504
370
    25
100
AcDbLine
 10
364.5107708363943
 20
192.6965946305359
 30
0.0
 11
371.7196669322701
 21
209.8098446262574
 31
0.0
  0
LINE
  5
1AB
330
70
100
AcDbEntity
  8
HONTAI
 62
     8
420
  8421504
370
    25
100
AcDbLine
 10
371.7196669322701
 20
209.8098446262574
 30
0.0
 11
366.7714501937827
 21
192.6965946305359
 31
0.0
  0
LINE
  5
1AC
330
70
100
AcDbEntity
  8
HONTAI
 62
     8
420
  8421504
370
    25
100
AcDbLine
 10
366.7714501937827
 20
192.6965946305359
 30
0.0
 11
373.8911242119156
 21
209.8098446262574
 31
0.0
  0
LINE
  5
1AD
330
70
100
AcDbEntity
  8
HONTAI
 62
     8
420
  8421504
370
    25
100
AcDbLine
 10
373.8911242119156
 20
209.8098446262574
 30
0.0
 11
368.3004081341666
 21
192.6965946305359
 31
0.0
  0
LINE
  5
1AE
330
70
100
AcDbEntity
  8
HONTAI
 62
     8
420
  8421504
370
    25
100
AcDbLine
 10
368.3004081341666
 20
192.6965946305359
 30
0.0
 11
375.2090404781554
 21
209.8098446262574
 31
0.0
  0
LINE
  5
1AF
330
70
100
AcDbEntity
  8
HONTAI
 62
     8
420
  8421504
370
    25
100
AcDbLine
 10
375.2090404781554
 20
209.8098446262574
 30
0.0
 11
369.0714837632532
 21
192.6965946305359
 31
0.0
  0
LINE
  5
1B0
330
70
100
AcDbEntity
  8
HONTAI
 62
     8
420
  8421504
370
    25
100
AcDbLine
 10
369.0714837632532
 20
192.6965946305359
 30
0.0
 11
375.6508658182504
 21
209.8098446262574
 31
0.0
  0
LINE
  5
1B1
330
70
100
AcDbEntity
  8
HONTAI
 62
     8
420
  8421504
370
    25
100
AcDbLine
 10
328.480258455531
 20
179.7394196337722
 30
0.0
 11
332.8170470172781
 21
192.6965946305359
 31
0.0
  0
LINE
  5
1B2
330
70
100
AcDbEntity
  8
HONTAI
 62
     8
420
  8421504
370
    25
100
AcDbLine
 10
332.8170470172781
 20
192.6965946305359
 30
0.0
 11
332.8843483651152
 21
179.7394196337787
 31
0.0
  0
LINE
  5
1B3
330
70
100
AcDbEntity
  8
HONTAI
 62
     8
420
  8421504
370
    25
100
AcDbLine
 10
332.8843483651152
 20
179.7394196337787
 30
0.0
 11
338.5231957333961
 21
192.6965946305359
 31
0.0
  0
LINE
  5
1B4
330
70
100
AcDbEntity
  8
HONTAI
 62
     8
420
  8421504
370
    25
100
AcDbLine
 10
338.5231957333961
 20
192.6965946305359
 30
0.0
 11
337.1230386674173
 21
179.7394196337787
 31
0.0
  0
LINE
  5
1B5
330
70
100
AcDbEntity
  8
HONTAI
 62
     8
420
  8421504
370
    25
100
AcDbLine
 10
337.1230386674173
 20
179.7394196337787
 30
0.0
 11
343.9809584982015
 21
192.6965946305359
 31
0.0
  0
LINE
  5
1B6
330
70
100
AcDbEntity
  8
HONTAI
 62
     8
420
  8421504
370
    25
100
AcDbLine
 10
343.9809584982015
 20
192.6965946305359
 30
0.0
 11
341.1441062707017
 21
179.7394196337787
 31
0.0
  0
LINE
  5
1B7
330
70
100
AcDbEntity
  8
HONTAI
 62
     8
420
  8421504
370
    25
100
AcDbLine
 10
341.1441062707017
 20
179.7394196337787
 30
0.0
 11
349.0969514776235
 21
192.6965946305359
 31
0.0
  0
LINE
  5
1B8
330
70
100
AcDbEntity
  8
HONTAI
 62
     8
420
  8421504
370
    25
100
AcDbLine
 10
349.0969514776235
 20
192.6965946305359
 30
0.0
 11
344.8719434167335
 21
179.7394196337787
 31
0.0
  0
LINE
  5
1B9
330
70
100
AcDbEntity
  8
HONTAI
 62
     8
420
  8421504
370
    25
100
AcDbLine
 10
344.8719434167335
 20
179.7394196337787
 30
0.0
 11
353.7836386133437
 21
192.6965946305359
 31
0.0
  0
LINE
  5
1BA
330
70
100
AcDbEntity
  8
HONTAI
 62
     8
420
  8421504
370
    25
100
AcDbLine
 10
353.7836386133437
 20
192.6965946305359
 30
0.0
 11
348.242765778398
 21
179.7394196337787
 31
0.0
  0
LINE
  5
1BB
330
70
100
AcDbEntity
  8
HONTAI
 62
     8
420
  8421504
370
    25
100
AcDbLine
 10
348.242765778398
 20
179.7394196337787
 30
0.0
 11
357.9608293891028
 21
192.6965946305359
 31
0.0
  0
LINE
  5
1BC
330
70
100
AcDbEntity
  8
HONTAI
 62
     8
420
  8421504
370
    25
100
AcDbLine
 10
357.9608293891028
 20
192.6965946305359
 30
0.0
 11
351.198897650495
 21
179.7394196337787
 31
0.0
  0
LINE
  5
1BD
330
70
100
AcDbEntity
  8
HONTAI
 62
     8
420
  8421504
370
    25
100
AcDbLine
 10
351.198897650495
 20
179.7394196337787
 30
0.0
 11
361.5570509125455
 21
192.6965946305359
 31
0.0
  0
LINE
  5
1BE
330
70
100
AcDbEntity
  8
HONTAI
 62
     8
420
  8421504
370
    25
100
AcDbLine
 10
361.5570509125455
 20
192.6965946305359
 30
0.0
 11
353.6897587971133
 21
179.7394196337787
 31
0.0
  0
LINE
  5
1BF
330
70
100
AcDbEntity
  8
HONTAI
 62
     8
420
  8421504
370
    25
100
AcDbLine
 10
353.6897587971133
 20
179.7394196337787
 30
0.0
 11
364.5107708363943
 21
192.6965946305359
 31
0.0
  0
LINE
  5
1C0
330
70
100
AcDbEntity
  8
HONTAI
 62
     8
420
  8421504
370
    25
100
AcDbLine
 10
364.5107708363943
 20
192.6965946305359
 30
0.0
 11
355.6727298934374
 21
179.7394196337787
 31
0.0
  0
LINE
  5
1C1
330
70
100
AcDbEntity
  8
HONTAI
 62
     8
420
  8421504
370
    25
100
AcDbLine
 10
355.6727298934374
 20
179.7394196337787
 30
0.0
 11
366.7714501937827
 21
192.6965946305359
 31
0.0
  0
LINE
  5
1C2
330
70
100
AcDbEntity
  8
HONTAI
 62
     8
420
  8421504
370
    25
100
AcDbLine
 10
366.7714501937827
 20
192.6965946305359
 30
0.0
 11
357.1138817542204
 21
179.7394196337787
 31
0.0
  0
LINE
  5
1C3
330
70
100
AcDbEntity
  8
HONTAI
 62
     8
420
  8421504
370
    25
100
AcDbLine
 10
357.1138817542204
 20
179.7394196337787
 30
0.0
 11
368.3004081341666
 21
192.6965946305359
 31
0.0
  0
LINE
  5
1C4
330
70
100
AcDbEntity
  8
HONTAI
 62
     8
420
  8421504
370
    25
100
AcDbLine
 10
368.3004081341666
 20
192.6965946305359
 30
0.0
 11
357.988555871566
 21
179.7394196337787
 31
0.0
  0
LINE
  5
1C5
330
70
100
AcDbEntity
  8
HONTAI
 62
     8
420
  8421504
370
    25
100
AcDbLine
 10
357.988555871566
 20
179.7394196337787
 30
0.0
 11
369.0714837632532
 21
192.6965946305359
 31
0.0
  0
LINE
  5
1C6
330
70
100
AcDbEntity
  8
HONTAI
 62
     8
420
  8421504
370
    25
100
AcDbLine
 10
369.0714837632532
 20
192.6965946305359
 30
0.0
 11
358.2817863288174
 21
179.7394196337787
 31
0.0
  0
LINE
  5
1C7
330
70
100
AcDbEntity
  8
HONTAI
 62
     8
420
  8421504
370
    25
100
AcDbLine
 10
324.0084180915649
 20
229.367844621371
 30
0.0
 11
324.0084180915649
 21
209.8098446262574
 31
0.0
  0
ELLIPSE
  5
1C8
330
70
100
AcDbEntity
  8
HONTAI
 62
     8
420
  8421504
370
    25
100
AcDbEllipse
 10
324.006426212602
 20
268.9176180044133
 30
0.0
 11
17.11324999572176
 21
0.0
 31
0.0
210
0.0
220
0.0
230
1.0
 40
0.1407922916819313
 41
0.0
 42
6.283185307179584
  0
SPLINE
  5
1C9
330
70
100
AcDbEntity
  8
HONTAI
 62
     8
420
  8421504
370
    25
100
AcDbSpline
210
0.0
220
0.0
230
1.0
 70
     8
 71
     3
 72
    11
 73
     7
 74
     0
 42
0.0000000001
 43
0.0000000001
 40
0.0
 40
0.0
 40
0.0
 40
0.0
 40
1.0
 40
1.0
 40
1.0
 40
2.0
 40
2.0
 40
2.0
 40
2.0
 10
305.7001382171785
 20
169.890618722708
 30
0.0
 10
305.7001382171785
 20
167.847721064327
 30
0.0
 10
313.8961425267193
 20
166.1916252976545
 30
0.0
 10
324.006426212602
 20
166.1916252976545
 30
0.0
 10
334.1167098984848
 20
166.1916252976545
 30
0.0
 10
342.3127142080255
 20
167.847721064327
 30
0.0
 10
342.3127142080255
 20
169.890618722708
 30
0.0
  0
LINE
  5
1CA
330
70
100
AcDbEntity
  8
HONTAI
 62
     8
420
  8421504
370
    25
100
AcDbLine
 10
341.3527744347332
 20
168.708527245886
 30
0.0
 11
358.2817863288174
 21
179.7394196337787
 31
0.0
  0
LINE
  5
1CB
330
70
100
AcDbEntity
  8
HONTAI
 62
     8
420
  8421504
370
    25
100
AcDbLine
 10
324.008418091553
 20
179.7394196337787
 30
0.0
 11
325.328648053525
 21
166.2012864550927
 31
0.0
  0
LINE
  5
1CC
330
70
100
AcDbEntity
  8
HONTAI
 62
     8
420
  8421504
370
    25
100
AcDbLine
 10
325.328648053525
 20
166.2012864550927
 30
0.0
 11
328.480258455531
 21
179.7394196337787
 31
0.0
  0
LINE
  5
1CD
330
70
100
AcDbEntity
  8
HONTAI
 62
     8
420
  8421504
370
    25
100
AcDbLine
 10
328.4802584554123
 20
179.7394196333898
 30
0.0
 11
327.6397423194847
 21
166.2652122571126
 31
0.0
  0
LINE
  5
1CE
330
70
100
AcDbEntity
  8
HONTAI
 62
     8
420
  8421504
370
    25
100
AcDbLine
 10
327.6397423194847
 20
166.2652122571126
 30
0.0
 11
332.8843483651152
 21
179.7394196337787
 31
0.0
  0
LINE
  5
1CF
330
70
100
AcDbEntity
  8
HONTAI
 62
     8
420
  8421504
370
    25
100
AcDbLine
 10
332.8843483651152
 20
179.7394196337787
 30
0.0
 11
329.8625213962666
 21
166.3859966554778
 31
0.0
  0
LINE
  5
1D0
330
70
100
AcDbEntity
  8
HONTAI
 62
     8
420
  8421504
370
    25
100
AcDbLine
 10
329.8625213962666
 20
166.3859966554778
 30
0.0
 11
337.1230386674173
 21
179.7394196337787
 31
0.0
  0
LINE
  5
1D1
330
70
100
AcDbEntity
  8
HONTAI
 62
     8
420
  8421504
370
    25
100
AcDbLine
 10
337.1230386674173
 20
179.7394196337787
 30
0.0
 11
331.9727079802938
 21
166.5602298559914
 31
0.0
  0
LINE
  5
1D2
330
70
100
AcDbEntity
  8
HONTAI
 62
     8
420
  8421504
370
    25
100
AcDbLine
 10
331.9727079802938
 20
166.5602298559914
 30
0.0
 11
341.1441062707017
 21
179.7394196337787
 31
0.0
  0
LINE
  5
1D3
330
70
100
AcDbEntity
  8
HONTAI
 62
     8
420
  8421504
370
    25
100
AcDbLine
 10
341.1441062707017
 20
179.7394196337787
 30
0.0
 11
333.7988089029028
 21
166.8019355168791
 31
0.0
  0
LINE
  5
1D4
330
70
100
AcDbEntity
  8
HONTAI
 62
     8
420
  8421504
370
    25
100
AcDbLine
 10
333.7988089029028
 20
166.8019355168791
 30
0.0
 11
344.8719434167335
 21
179.7394196337787
 31
0.0
  0
LINE
  5
1D5
330
70
100
AcDbEntity
  8
HONTAI
 62
     8
420
  8421504
370
    25
100
AcDbLine
 10
344.8719434167335
 20
179.7394196337787
 30
0.0
 11
335.4315024022298
 21
167.0004503103451
 31
0.0
  0
LINE
  5
1D6
330
70
100
AcDbEntity
  8
HONTAI
 62
     8
420
  8421504
370
    25
100
AcDbLine
 10
335.4315024022298
 20
167.0004503103451
 30
0.0
 11
348.2427657783851
 21
179.7394196337787
 31
0.0
  0
LINE
  5
1D7
330
70
100
AcDbEntity
  8
HONTAI
 62
     8
420
  8421504
370
    25
100
AcDbLine
 10
348.2427657783851
 20
179.7394196337787
 30
0.0
 11
336.9175250680228
 21
167.2683036013928
 31
0.0
  0
LINE
  5
1D8
330
70
100
AcDbEntity
  8
HONTAI
 62
     8
420
  8421504
370
    25
100
AcDbLine
 10
336.9175250680228
 20
167.2683036013928
 30
0.0
 11
351.198897650495
 21
179.7394196337787
 31
0.0
  0
LINE
  5
1D9
330
70
100
AcDbEntity
  8
HONTAI
 62
     8
420
  8421504
370
    25
100
AcDbLine
 10
351.198897650495
 20
179.7394196337787
 30
0.0
 11
338.1521011079382
 21
167.5427034525551
 31
0.0
  0
LINE
  5
1DA
330
70
100
AcDbEntity
  8
HONTAI
 62
     8
420
  8421504
370
    25
100
AcDbLine
 10
338.1521011079382
 20
167.5427034525551
 30
0.0
 11
353.6897587971133
 21
179.7394196337787
 31
0.0
  0
LINE
  5
1DB
330
70
100
AcDbEntity
  8
HONTAI
 62
     8
420
  8421504
370
    25
100
AcDbLine
 10
353.6897587971133
 20
179.7394196337787
 30
0.0
 11
339.114825921274
 21
167.8018824132722
 31
0.0
  0
LINE
  5
1DC
330
70
100
AcDbEntity
  8
HONTAI
 62
     8
420
  8421504
370
    25
100
AcDbLine
 10
339.114825921274
 20
167.8018824132722
 30
0.0
 11
355.672729893424
 21
179.7394196337787
 31
0.0
  0
LINE
  5
1DD
330
70
100
AcDbEntity
  8
HONTAI
 62
     8
420
  8421504
370
    25
100
AcDbLine
 10
355.672729893424
 20
179.7394196337787
 30
0.0
 11
339.8016937633471
 21
168.0208172899655
 31
0.0
  0
LINE
  5
1DE
330
70
100
AcDbEntity
  8
HONTAI
 62
     8
420
  8421504
370
    25
100
AcDbLine
 10
339.8016937633471
 20
168.0208172899655
 30
0.0
 11
357.1138817542204
 21
179.7394196337787
 31
0.0
  0
LINE
  5
1DF
330
70
100
AcDbEntity
  8
HONTAI
 62
     8
420
  8421504
370
    25
100
AcDbLine
 10
357.1138817542204
 20
179.7394196337787
 30
0.0
 11
340.2290005497424
 21
168.1766873720742
 31
0.0
  0
LINE
  5
1E0
330
70
100
AcDbEntity
  8
HONTAI
 62
     8
420
  8421504
370
    25
100
AcDbLine
 10
340.2290005497424
 20
168.1766873720742
 30
0.0
 11
357.988555871566
 21
179.7394196337787
 31
0.0
  0
LINE
  5
1E1
330
70
100
AcDbEntity
  8
HONTAI
 62
     8
420
  8421504
370
    25
100
AcDbLine
 10
357.988555871566
 20
179.7394196337787
 30
0.0
 11
341.3527744347332
 21
168.708527245886
 31
0.0
  0
SPLINE
  5
1E2
330
70
100
AcDbEntity
  8
HONTAI
 62
     8
420
  8421504
370
    25
100
AcDbSpline
210
0.0
220
0.0
230
1.0
 70
     8
 71
     3
 72
    11
 73
     7
 74
     0
 42
0.0000000001
 43
0.0000000001
 40
0.0
 40
0.0
 40
0.0
 40
0.0
 40
1.0
 40
1.0
 40
1.0
 40
2.0
 40
2.0
 40
2.0
 40
2.0
 10
330.8909628098392
 20
266.7117730840461
 30
0.0
 10
330.0474817890249
 20
267.2566681164346
 30
0.0
 10
326.2813932948675
 20
267.6004011296902
 30
0.0
 10
322.4791687225612
 20
267.4795222574889
 30
0.0
 10
319.8043070193118
 20
267.3944840752786
 30
0.0
 10
317.7152777851293
 20
267.0951062687938
 30
0.0
 10
317.1218896153649
 20
266.7117730840461
 30
0.0
  0
LINE
  5
1E4
330
70
100
AcDbEntity
  8
0-HONTAI
 62
     2
420
 16776960
370
    25
100
AcDbLine
 10
458.8946600753697
 20
216.7253637946302
 30
0.0
 11
458.8946674895239
 21
208.1620521102919
 31
0.0
  0
LINE
  5
1E5
330
70
100
AcDbEntity
  8
0-HONTAI
 62
     2
420
 16776960
370
    25
100
AcDbLine
 10
456.4538199149155
 20
218.759393680839
 30
0.0
 11
456.453824493698
 21
213.4709104821611
 31
0.0
  0
LINE
  5
1E6
330
70
100
AcDbEntity
  8
0-HONTAI
 62
     2
420
 16776960
370
    25
100
AcDbLine
 10
449.5381111166468
 20
218.7593876931938
 30
0.0
 11
449.5381156954301
 21
213.4709044945175
 31
0.0
  0
LINE
  5
1E7
330
70
100
AcDbEntity
  8
0-HONTAI
 62
     2
420
 16776960
370
    25
100
AcDbLine
 10
447.0972744783311
 20
216.7253535804166
 30
0.0
 11
447.0972818924852
 21
208.1620418960731
 31
0.0
  0
LINE
  5
1E8
330
70
100
AcDbEntity
  8
0-HONTAI
 62
     2
420
 16776960
370
    25
100
AcDbLine
 10
455.436798279728
 20
225.2682951986749
 30
0.0
 11
455.0299918798351
 21
225.2682948464555
 31
0.0
  0
LINE
  5
1E9
330
70
100
AcDbEntity
  8
0-HONTAI
 62
     2
420
 16776960
370
    25
100
AcDbLine
 10
449.9449171643213
 20
219.1661944452965
 30
0.0
 11
456.0470131628012
 21
219.1661997285187
 31
0.0
  0
LINE
  5
1EA
330
70
100
AcDbEntity
  8
0-HONTAI
 62
     2
420
 16776960
370
    25
100
AcDbLine
 10
455.0299918798351
 20
225.2682948464555
 30
0.0
 11
455.0299971630602
 21
219.1661988479828
 31
0.0
  0
LINE
  5
1EB
330
70
100
AcDbEntity
  8
0-HONTAI
 62
     2
420
 16776960
370
    25
100
AcDbLine
 10
450.5551214809606
 20
225.2682909720936
 30
0.0
 11
450.9619278808649
 21
225.2682913243055
 31
0.0
  0
SPLINE
  5
1EC
330
70
100
AcDbEntity
  8
0-HONTAI
 62
     2
420
 16776960
370
    25
100
AcDbSpline
210
0.0
220
0.0
230
1.0
 70
     8
 71
     3
 72
     8
 73
     4
 74
     0
 42
0.0000000001
 43
0.0000000001
 40
0.0
 40
0.0
 40
0.0
 40
0.0
 40
1.0
 40
1.0
 40
1.0
 40
1.0
 10
447.5040805260203
 20
217.1321603325264
 30
0.0
 10
447.2794075552235
 20
217.1321601380034
 30
0.0
 10
447.0972742838148
 20
216.9500265512113
 30
0.0
 10
447.0972744783368
 20
216.725353580414
 30
0.0
  0
SPLINE
  5
1ED
330
70
100
AcDbEntity
  8
0-HONTAI
 62
     2
420
 16776960
370
    25
100
AcDbSpline
210
0.0
220
0.0
230
1.0
 70
     8
 71
     3
 72
     8
 73
     4
 74
     0
 42
0.0000000001
 43
0.0000000001
 40
0.0
 40
0.0
 40
0.0
 40
0.0
 40
1.0
 40
1.0
 40
1.0
 40
1.0
 10
449.9449171643283
 20
219.1661944453074
 30
0.0
 10
449.7202441935311
 20
219.1661942507841
 30
0.0
 10
449.5381109221222
 20
218.9840606639924
 30
0.0
 10
449.5381111166449
 20
218.759387693195
 30
0.0
  0
LINE
  5
1EE
330
70
100
AcDbEntity
  8
0-HONTAI
 62
     2
420
 16776960
370
    25
100
AcDbLine
 10
447.5040805260171
 20
217.1321603325238
 30
0.0
 11
449.5381125255009
 21
217.1321620935982
 31
0.0
  0
LINE
  5
1EF
330
70
100
AcDbEntity
  8
0-HONTAI
 62
     2
420
 16776960
370
    25
100
AcDbLine
 10
450.5551214809606
 20
225.2682909720936
 30
0.0
 11
450.5551267641804
 21
219.1661949736202
 31
0.0
  0
LINE
  5
1F0
330
70
100
AcDbEntity
  8
0-HONTAI
 62
     2
420
 16776960
370
    25
100
AcDbLine
 10
450.9619278808649
 20
225.2682913243055
 30
0.0
 11
450.9619331640764
 21
219.1661953258321
 31
0.0
  0
SPLINE
  5
1F1
330
70
100
AcDbEntity
  8
0-HONTAI
 62
     2
420
 16776960
370
    25
100
AcDbSpline
210
0.0
220
0.0
230
1.0
 70
     8
 71
     3
 72
     8
 73
     4
 74
     0
 42
0.0000000001
 43
0.0000000001
 40
0.0
 40
0.0
 40
0.0
 40
0.0
 40
1.0
 40
1.0
 40
1.0
 40
1.0
 10
458.8946600753729
 20
216.7253637946283
 30
0.0
 10
458.8946598808502
 20
216.9500367654257
 30
0.0
 10
458.7125262940578
 20
217.1321700368344
 30
0.0
 10
458.4878533232605
 20
217.1321698423124
 30
0.0
  0
SPLINE
  5
1F2
330
70
100
AcDbEntity
  8
0-HONTAI
 62
     2
420
 16776960
370
    25
100
AcDbSpline
210
0.0
220
0.0
230
1.0
 70
     8
 71
     3
 72
     8
 73
     4
 74
     0
 42
0.0000000001
 43
0.0000000001
 40
0.0
 40
0.0
 40
0.0
 40
0.0
 40
1.0
 40
1.0
 40
1.0
 40
1.0
 10
456.4538199149206
 20
218.759393680833
 30
0.0
 10
456.4538197203986
 20
218.9840666516303
 30
0.0
 10
456.2716861336062
 20
219.1661999230397
 30
0.0
 10
456.0470131628088
 20
219.166199728517
 30
0.0
  0
LINE
  5
1F3
330
70
100
AcDbEntity
  8
0-HONTAI
 62
     2
420
 16776960
370
    25
100
AcDbLine
 10
456.4538213237677
 20
217.1321680812406
 30
0.0
 11
458.4878533232675
 21
217.1321698423085
 31
0.0
  0
LINE
  5
1F4
330
70
100
AcDbEntity
  8
0-HONTAI
 62
     2
420
 16776960
370
    25
100
AcDbLine
 10
455.436798279728
 20
225.2682951986749
 30
0.0
 11
455.4368035629523
 21
219.1661992001947
 31
0.0
  0
LINE
  5
1F5
330
70
100
AcDbEntity
  8
0-HONTAI
 62
     2
420
 16776960
370
    25
100
AcDbLine
 10
449.9449224475443
 20
213.0640984468282
 30
0.0
 11
456.0470184460108
 21
213.0641037300468
 31
0.0
  0
LINE
  5
1F6
330
70
100
AcDbEntity
  8
0-HONTAI
 62
     2
420
 16776960
370
    25
100
AcDbLine
 10
456.2038073857448
 20
198.8258798693514
 30
0.0
 11
452.9959827742922
 21
198.8258770920035
 31
0.0
  0
SPLINE
  5
1F7
330
70
100
AcDbEntity
  8
0-HONTAI
 62
     2
420
 16776960
370
    25
100
AcDbSpline
210
0.0
220
0.0
230
1.0
 70
     8
 71
     3
 72
     8
 73
     4
 74
     0
 42
0.0000000001
 43
0.0000000001
 40
0.0
 40
0.0
 40
0.0
 40
0.0
 40
1.0
 40
1.0
 40
1.0
 40
1.0
 10
447.097281892471
 20
208.1620418960804
 30
0.0
 10
447.0972824444714
 20
207.5244826484366
 30
0.0
 10
447.2471354625723
 20
206.8958489369845
 30
0.0
 10
447.534752596298
 20
206.3268514162136
 30
0.0
  0
SPLINE
  5
1F8
330
70
100
AcDbEntity
  8
0-HONTAI
 62
     2
420
 16776960
370
    25
100
AcDbSpline
210
0.0
220
0.0
230
1.0
 70
     8
 71
     3
 72
     8
 73
     4
 74
     0
 42
0.0000000001
 43
0.0000000001
 40
0.0
 40
0.0
 40
0.0
 40
0.0
 40
1.0
 40
1.0
 40
1.0
 40
1.0
 10
449.9791538323925
 20
201.676215195785
 30
0.0
 10
449.7974266529965
 20
202.2552735435585
 30
0.0
 10
449.5880867822419
 20
202.8253015944573
 30
0.0
 10
449.3518528231397
 20
203.3843426076434
 30
0.0
  0
SPLINE
  5
1F9
330
70
100
AcDbEntity
  8
0-HONTAI
 62
     2
420
 16776960
370
    25
100
AcDbSpline
210
0.0
220
0.0
230
1.0
 70
     8
 71
     3
 72
     8
 73
     4
 74
     0
 42
0.0000000001
 43
0.0000000001
 40
0.0
 40
0.0
 40
0.0
 40
0.0
 40
1.0
 40
1.0
 40
1.0
 40
1.0
 10
449.538115695439
 20
213.4709044945168
 30
0.0
 10
449.5381158899617
 20
213.2462315237195
 30
0.0
 10
449.7202494767541
 20
213.06409825231
 30
0.0
 10
449.9449224475514
 20
213.0640984468327
 30
0.0
  0
SPLINE
  5
1FA
330
70
100
AcDbEntity
  8
0-HONTAI
 62
     2
420
 16776960
370
    25
100
AcDbSpline
210
0.0
220
0.0
230
1.0
 70
     8
 71
     3
 72
     8
 73
     4
 74
     0
 42
0.0000000001
 43
0.0000000001
 40
0.0
 40
0.0
 40
0.0
 40
0.0
 40
1.0
 40
1.0
 40
1.0
 40
1.0
 10
447.5347525963435
 20
206.3268514161328
 30
0.0
 10
448.0557440230199
 20
205.2961658436781
 30
0.0
 10
448.663644663017
 20
204.311766105296
 30
0.0
 10
449.3518528232077
 20
203.3843426075433
 30
0.0
  0
LINE
  5
1FB
330
70
100
AcDbEntity
  8
0-HONTAI
 62
     2
420
 16776960
370
    25
100
AcDbLine
 10
449.7881581628262
 20
198.8258743146614
 30
0.0
 11
452.9959827742922
 21
198.8258770920035
 31
0.0
  0
SPLINE
  5
1FC
330
70
100
AcDbEntity
  8
0-HONTAI
 62
     2
420
 16776960
370
    25
100
AcDbSpline
210
0.0
220
0.0
230
1.0
 70
     8
 71
     3
 72
     8
 73
     4
 74
     0
 42
0.0000000001
 43
0.0000000001
 40
0.0
 40
0.0
 40
0.0
 40
0.0
 40
1.0
 40
1.0
 40
1.0
 40
1.0
 10
449.7881581628262
 20
198.8258743146595
 30
0.0
 10
450.2243042876437
 20
199.7138684085079
 30
0.0
 10
450.2929273292842
 20
200.737970480581
 30
0.0
 10
449.979153832406
 20
201.676215195759
 30
0.0
  0
SPLINE
  5
1FD
330
70
100
AcDbEntity
  8
0-HONTAI
 62
     2
420
 16776960
370
    25
100
AcDbSpline
210
0.0
220
0.0
230
1.0
 70
     8
 71
     3
 72
     8
 73
     4
 74
     0
 42
0.0000000001
 43
0.0000000001
 40
0.0
 40
0.0
 40
0.0
 40
0.0
 40
1.0
 40
1.0
 40
1.0
 40
1.0
 10
456.6401048319633
 20
203.3843489178692
 30
0.0
 10
456.403871840891
 20
202.8253074955986
 30
0.0
 10
456.1945329571933
 20
202.2552790821849
 30
0.0
 10
456.0128067804939
 20
201.6762204197096
 30
0.0
  0
SPLINE
  5
1FE
330
70
100
AcDbEntity
  8
0-HONTAI
 62
     2
420
 16776960
370
    25
100
AcDbSpline
210
0.0
220
0.0
230
1.0
 70
     8
 71
     3
 72
     8
 73
     4
 74
     0
 42
0.0000000001
 43
0.0000000001
 40
0.0
 40
0.0
 40
0.0
 40
0.0
 40
1.0
 40
1.0
 40
1.0
 40
1.0
 10
456.6401048319582
 20
203.3843489178403
 30
0.0
 10
457.3283113862027
 20
204.3117736072939
 30
0.0
 10
457.9362103215949
 20
205.2961743983143
 30
0.0
 10
458.4571999635189
 20
206.3268608729131
 30
0.0
  0
SPLINE
  5
1FF
330
70
100
AcDbEntity
  8
0-HONTAI
 62
     2
420
 16776960
370
    25
100
AcDbSpline
210
0.0
220
0.0
230
1.0
 70
     8
 71
     3
 72
     8
 73
     4
 74
     0
 42
0.0000000001
 43
0.0000000001
 40
0.0
 40
0.0
 40
0.0
 40
0.0
 40
1.0
 40
1.0
 40
1.0
 40
1.0
 10
456.047018446021
 20
213.0641037300423
 30
0.0
 10
456.2716914168177
 20
213.0641039245657
 30
0.0
 10
456.4538246882265
 20
213.246237511358
 30
0.0
 10
456.4538244937044
 20
213.470910482155
 30
0.0
  0
SPLINE
  5
200
330
70
100
AcDbEntity
  8
0-HONTAI
 62
     2
420
 16776960
370
    25
100
AcDbSpline
210
0.0
220
0.0
230
1.0
 70
     8
 71
     3
 72
     8
 73
     4
 74
     0
 42
0.0000000001
 43
0.0000000001
 40
0.0
 40
0.0
 40
0.0
 40
0.0
 40
1.0
 40
1.0
 40
1.0
 40
1.0
 10
458.4571999635324
 20
206.326860872924
 30
0.0
 10
458.7448161119709
 20
206.8958588917278
 30
0.0
 10
458.8946680415223
 20
207.5244928626561
 30
0.0
 10
458.8946674895219
 20
208.1620521102912
 30
0.0
  0
SPLINE
  5
201
330
70
100
AcDbEntity
  8
0-HONTAI
 62
     2
420
 16776960
370
    25
100
AcDbSpline
210
0.0
220
0.0
230
1.0
 70
     8
 71
     3
 72
     8
 73
     4
 74
     0
 42
0.0000000001
 43
0.0000000001
 40
0.0
 40
0.0
 40
0.0
 40
0.0
 40
1.0
 40
1.0
 40
1.0
 40
1.0
 10
456.0128067804996
 20
201.6762204197051
 30
0.0
 10
455.6990349082949
 20
200.7379751611967
 30
0.0
 10
455.7676597232784
 20
199.7138732079547
 30
0.0
 10
456.2038073857524
 20
198.8258798693425
 30
0.0
  0
LINE
  5
203
330
70
100
AcDbEntity
  8
TOUGU
  6
AI-Linetype-0
 62
     3
420
    65280
370
    25
100
AcDbLine
 10
417.6564594732084
 20
157.4111995109148
 30
0.0
 11
417.6564594732084
 21
152.2663643419974
 31
0.0
  0
SPLINE
  5
205
330
70
100
AcDbEntity
  8
TOUGU
  6
AI-Linetype-1
 62
     3
420
    65280
370
    25
100
AcDbSpline
210
0.0
220
0.0
230
1.0
 70
     8
 71
     3
 72
    11
 73
     7
 74
     0
 42
0.0000000001
 43
0.0000000001
 40
0.0
 40
0.0
 40
0.0
 40
0.0
 40
1.0
 40
1.0
 40
1.0
 40
2.0
 40
2.0
 40
2.0
 40
2.0
 10
408.2999122755484
 20
152.194540327118
 30
0.0
 10
409.7602865857314
 20
152.194540327118
 30
0.0
 10
410.9441538748875
 20
153.378407616274
 30
0.0
 10
410.9441538748875
 20
154.8387819264571
 30
0.0
 10
410.9441538748875
 20
156.2991562366401
 30
0.0
 10
409.7602865857314
 20
157.4830235257962
 30
0.0
 10
408.2999122755484
 20
157.4830235257962
 30
0.0
  0
SPLINE
  5
207
330
70
100
AcDbEntity
  8
TOUGU
  6
AI-Linetype-2
 62
     3
420
    65280
370
    25
100
AcDbSpline
210
0.0
220
0.0
230
1.0
 70
     8
 71
     3
 72
    11
 73
     7
 74
     0
 42
0.0000000001
 43
0.0000000001
 40
0.0
 40
0.0
 40
0.0
 40
0.0
 40
1.0
 40
1.0
 40
1.0
 40
2.0
 40
2.0
 40
2.0
 40
2.0
 10
408.2999122755484
 20
152.6013467270165
 30
0.0
 10
409.5356136149341
 20
152.6013467270165
 30
0.0
 10
410.5373474749889
 20
153.6030805870714
 30
0.0
 10
410.5373474749889
 20
154.8387819264571
 30
0.0
 10
410.5373474749889
 20
156.0744832658428
 30
0.0
 10
409.5356136149341
 20
157.0762171258976
 30
0.0
 10
408.2999122755484
 20
157.0762171258976
 30
0.0
  0
SPLINE
  5
209
330
70
100
AcDbEntity
  8
TOUGU
  6
AI-Linetype-3
 62
     3
420
    65280
370
    25
100
AcDbSpline
210
0.0
220
0.0
230
1.0
 70
     8
 71
     3
 72
    11
 73
     7
 74
     0
 42
0.0000000001
 43
0.0000000001
 40
0.0
 40
0.0
 40
0.0
 40
0.0
 40
1.0
 40
1.0
 40
1.0
 40
2.0
 40
2.0
 40
2.0
 40
2.0
 10
408.0965090756071
 20
153.0081531269145
 30
0.0
 10
409.1075374441955
 20
153.0081531269145
 30
0.0
 10
409.9271378751497
 20
153.8277535578687
 30
0.0
 10
409.9271378751497
 20
154.8387819264571
 30
0.0
 10
409.9271378751497
 20
155.8498102950454
 30
0.0
 10
409.1075374441955
 20
156.6694107259997
 30
0.0
 10
408.0965090756071
 20
156.6694107259997
 30
0.0
  0
SPLINE
  5
20B
330
70
100
AcDbEntity
  8
TOUGU
  6
AI-Linetype-4
 62
     3
420
    65280
370
    25
100
AcDbSpline
210
0.0
220
0.0
230
1.0
 70
     8
 71
     3
 72
    11
 73
     7
 74
     0
 42
0.0000000001
 43
0.0000000001
 40
0.0
 40
0.0
 40
0.0
 40
0.0
 40
1.0
 40
1.0
 40
1.0
 40
2.0
 40
2.0
 40
2.0
 40
2.0
 10
400.5705906774928
 20
157.4830235257962
 30
0.0
 10
399.1102163673098
 20
157.4830235257962
 30
0.0
 10
397.9263490781538
 20
156.2991562366401
 30
0.0
 10
397.9263490781538
 20
154.8387819264571
 30
0.0
 10
397.9263490781538
 20
153.378407616274
 30
0.0
 10
399.1102163673098
 20
152.194540327118
 30
0.0
 10
400.5705906774928
 20
152.194540327118
 30
0.0
  0
SPLINE
  5
20D
330
70
100
AcDbEntity
  8
TOUGU
  6
AI-Linetype-5
 62
     3
420
    65280
370
    25
100
AcDbSpline
210
0.0
220
0.0
230
1.0
 70
     8
 71
     3
 72
    11
 73
     7
 74
     0
 42
0.0000000001
 43
0.0000000001
 40
0.0
 40
0.0
 40
0.0
 40
0.0
 40
1.0
 40
1.0
 40
1.0
 40
2.0
 40
2.0
 40
2.0
 40
2.0
 10
400.5705906774928
 20
157.0762171258976
 30
0.0
 10
399.3348893381072
 20
157.0762171258976
 30
0.0
 10
398.3331554780523
 20
156.0744832658428
 30
0.0
 10
398.3331554780523
 20
154.8387819264571
 30
0.0
 10
398.3331554780523
 20
153.6030805870714
 30
0.0
 10
399.3348893381072
 20
152.6013467270165
 30
0.0
 10
400.5705906774928
 20
152.6013467270165
 30
0.0
  0
SPLINE
  5
20F
330
70
100
AcDbEntity
  8
TOUGU
  6
AI-Linetype-6
 62
     3
420
    65280
370
    25
100
AcDbSpline
210
0.0
220
0.0
230
1.0
 70
     8
 71
     3
 72
    11
 73
     7
 74
     0
 42
0.0000000001
 43
0.0000000001
 40
0.0
 40
0.0
 40
0.0
 40
0.0
 40
1.0
 40
1.0
 40
1.0
 40
2.0
 40
2.0
 40
2.0
 40
2.0
 10
402.8080258769295
 20
156.6694107259997
 30
0.0
 10
401.7969975083412
 20
156.6694107259997
 30
0.0
 10
400.9773970773869
 20
155.8498102950454
 30
0.0
 10
400.9773970773869
 20
154.8387819264571
 30
0.0
 10
400.9773970773869
 20
153.8277535578687
 30
0.0
 10
401.7969975083412
 20
153.0081531269145
 30
0.0
 10
402.8080258769295
 20
153.0081531269145
 30
0.0
  0
LINE
  5
211
330
70
100
AcDbEntity
  8
TOUGU
  6
AI-Linetype-7
 62
     3
420
    65280
370
    25
100
AcDbLine
 10
407.2828962758036
 20
156.669410726001
 30
0.0
 11
407.2828962758036
 21
153.0081531269132
 31
0.0
  0
LINE
  5
213
330
70
100
AcDbEntity
  8
TOUGU
  6
AI-Linetype-8
 62
     3
420
    65280
370
    25
100
AcDbLine
 10
403.6216386767164
 20
156.669410726001
 30
0.0
 11
403.6216386767164
 21
153.0081531269132
 31
0.0
  0
LINE
  5
215
330
70
100
AcDbEntity
  8
TOUGU
  6
AI-Linetype-9
 62
     3
420
    65280
370
    25
100
AcDbLine
 10
404.0792958766022
 20
156.669410726001
 30
0.0
 11
404.0792958766022
 21
153.0081531269132
 31
0.0
  0
LINE
  5
217
330
70
100
AcDbEntity
  8
TOUGU
  6
AI-Linetype-10
 62
     3
420
    65280
370
    25
100
AcDbLine
 10
404.5369530764964
 20
156.669410726001
 30
0.0
 11
404.5369530764964
 21
153.0081531269132
 31
0.0
  0
LINE
  5
219
330
70
100
AcDbEntity
  8
TOUGU
  6
AI-Linetype-11
 62
     3
420
    65280
370
    25
100
AcDbLine
 10
404.9946102763796
 20
156.669410726001
 30
0.0
 11
404.9946102763796
 21
153.0081531269132
 31
0.0
  0
LINE
  5
21B
330
70
100
AcDbEntity
  8
TOUGU
  6
AI-Linetype-12
 62
     3
420
    65280
370
    25
100
AcDbLine
 10
405.9099246761461
 20
156.669410726001
 30
0.0
 11
405.9099246761461
 21
153.0081531269132
 31
0.0
  0
LINE
  5
21D
330
70
100
AcDbEntity
  8
TOUGU
  6
AI-Linetype-13
 62
     3
420
    65280
370
    25
100
AcDbLine
 10
406.3675818760403
 20
156.669410726001
 30
0.0
 11
406.3675818760403
 21
153.0081531269132
 31
0.0
  0
LINE
  5
21F
330
70
100
AcDbEntity
  8
TOUGU
  6
AI-Linetype-14
 62
     3
420
    65280
370
    25
100
AcDbLine
 10
406.8252390759229
 20
156.669410726001
 30
0.0
 11
406.8252390759229
 21
153.0081531269132
 31
0.0
  0
LINE
  5
221
330
70
100
AcDbEntity
  8
TOUGU
  6
AI-Linetype-15
 62
     3
420
    65280
370
    25
100
AcDbLine
 10
405.4522674762603
 20
156.669410726001
 30
0.0
 11
405.4522674762603
 21
153.0081531269132
 31
0.0
  0
LINE
  5
223
330
70
100
AcDbEntity
  8
TOUGU
  6
AI-Linetype-16
 62
     3
420
    65280
370
    25
100
AcDbLine
 10
391.2140434798289
 20
157.4111995109148
 30
0.0
 11
391.2140434798289
 21
152.2663643419974
 31
0.0
  0
SPLINE
  5
225
330
70
100
AcDbEntity
  8
TOUGU
  6
AI-Linetype-17
 62
     3
420
    65280
370
    25
100
AcDbSpline
210
0.0
220
0.0
230
1.0
 70
     8
 71
     3
 72
     8
 73
     4
 74
     0
 42
0.0000000001
 43
0.0000000001
 40
0.0
 40
0.0
 40
0.0
 40
0.0
 40
1.0
 40
1.0
 40
1.0
 40
1.0
 10
391.6815207233322
 20
151.6730825959373
 30
0.0
 10
400.0644151255603
 20
149.6563169048495
 30
0.0
 10
408.8060878274783
 20
149.6563169048495
 30
0.0
 10
417.1889822297065
 20
151.6730825959373
 30
0.0
  0
LINE
  5
227
330
70
100
AcDbEntity
  8
TOUGU
  6
AI-Linetype-18
 62
     3
420
    65280
370
    25
100
AcDbLine
 10
400.5705906774928
 20
152.1945403271161
 30
0.0
 11
408.2999122755484
 21
152.1945403271161
 31
0.0
  0
LINE
  5
229
330
70
100
AcDbEntity
  8
TOUGU
  6
AI-Linetype-19
 62
     3
420
    65280
370
    25
100
AcDbLine
 10
400.5705906774928
 20
152.6013467270127
 30
0.0
 11
408.2999122755484
 21
152.6013467270127
 31
0.0
  0
LINE
  5
22B
330
70
100
AcDbEntity
  8
TOUGU
  6
AI-Linetype-20
 62
     3
420
    65280
370
    25
100
AcDbLine
 10
402.8080258769295
 20
153.0081531269132
 30
0.0
 11
408.0965090756071
 21
153.0081531269132
 31
0.0
  0
SPLINE
  5
22D
330
70
100
AcDbEntity
  8
TOUGU
  6
AI-Linetype-21
 62
     3
420
    65280
370
    25
100
AcDbSpline
210
0.0
220
0.0
230
1.0
 70
     8
 71
     3
 72
     8
 73
     4
 74
     0
 42
0.0000000001
 43
0.0000000001
 40
0.0
 40
0.0
 40
0.0
 40
0.0
 40
1.0
 40
1.0
 40
1.0
 40
1.0
 10
391.2140434798296
 20
152.2663643419974
 30
0.0
 10
391.2140434798296
 20
151.9843362179689
 30
0.0
 10
391.407316355071
 20
151.7390509758057
 30
0.0
 10
391.681520723381
 20
151.6730825959341
 30
0.0
  0
SPLINE
  5
22F
330
70
100
AcDbEntity
  8
TOUGU
  6
AI-Linetype-22
 62
     3
420
    65280
370
    25
100
AcDbSpline
210
0.0
220
0.0
230
1.0
 70
     8
 71
     3
 72
     8
 73
     4
 74
     0
 42
0.0000000001
 43
0.0000000001
 40
0.0
 40
0.0
 40
0.0
 40
0.0
 40
1.0
 40
1.0
 40
1.0
 40
1.0
 10
417.1889822296565
 20
151.6730825959341
 30
0.0
 10
417.4631865979657
 20
151.7390509758057
 30
0.0
 10
417.6564594732078
 20
151.9843362179689
 30
0.0
 10
417.6564594732078
 20
152.2663643419974
 30
0.0
  0
SPLINE
  5
231
330
70
100
AcDbEntity
  8
TOUGU
  6
AI-Linetype-23
 62
     3
420
    65280
370
    25
100
AcDbSpline
210
0.0
220
0.0
230
1.0
 70
     8
 71
     3
 72
     8
 73
     4
 74
     0
 42
0.0000000001
 43
0.0000000001
 40
0.0
 40
0.0
 40
0.0
 40
0.0
 40
1.0
 40
1.0
 40
1.0
 40
1.0
 10
417.1889822297065
 20
158.0044812569698
 30
0.0
 10
408.8060878274789
 20
160.021246948057
 30
0.0
 10
400.0644151255603
 20
160.021246948057
 30
0.0
 10
391.6815207233322
 20
158.0044812569698
 30
0.0
  0
LINE
  5
233
330
70
100
AcDbEntity
  8
TOUGU
  6
AI-Linetype-24
 62
     3
420
    65280
370
    25
100
AcDbLine
 10
400.5705906774928
 20
157.4830235257962
 30
0.0
 11
408.2999122755484
 21
157.4830235257962
 31
0.0
  0
LINE
  5
235
330
70
100
AcDbEntity
  8
TOUGU
  6
AI-Linetype-25
 62
     3
420
    65280
370
    25
100
AcDbLine
 10
400.5705906774928
 20
157.0762171258938
 30
0.0
 11
408.2999122755484
 21
157.0762171258938
 31
0.0
  0
LINE
  5
237
330
70
100
AcDbEntity
  8
TOUGU
  6
AI-Linetype-26
 62
     3
420
    65280
370
    25
100
AcDbLine
 10
402.8080258769295
 20
156.669410726001
 30
0.0
 11
408.0965090756071
 21
156.669410726001
 31
0.0
  0
SPLINE
  5
239
330
70
100
AcDbEntity
  8
TOUGU
  6
AI-Linetype-27
 62
     3
420
    65280
370
    25
100
AcDbSpline
210
0.0
220
0.0
230
1.0
 70
     8
 71
     3
 72
     8
 73
     4
 74
     0
 42
0.0000000001
 43
0.0000000001
 40
0.0
 40
0.0
 40
0.0
 40
0.0
 40
1.0
 40
1.0
 40
1.0
 40
1.0
 10
391.681520723381
 20
158.0044812569781
 30
0.0
 10
391.407316355071
 20
157.9385128771065
 30
0.0
 10
391.2140434798296
 20
157.6932276349433
 30
0.0
 10
391.2140434798296
 20
157.4111995109148
 30
0.0
  0
SPLINE
  5
23B
330
70
100
AcDbEntity
  8
TOUGU
  6
AI-Linetype-28
 62
     3
420
    65280
370
    25
100
AcDbSpline
210
0.0
220
0.0
230
1.0
 70
     8
 71
     3
 72
     8
 73
     4
 74
     0
 42
0.0000000001
 43
0.0000000001
 40
0.0
 40
0.0
 40
0.0
 40
0.0
 40
1.0
 40
1.0
 40
1.0
 40
1.0
 10
417.6564594732078
 20
157.4111995109148
 30
0.0
 10
417.6564594732078
 20
157.6932276349433
 30
0.0
 10
417.4631865979657
 20
157.9385128771065
 30
0.0
 10
417.1889822296565
 20
158.0044812569781
 30
0.0
  0
LINE
  5
23E
330
70
100
AcDbEntity
  8
CL
  6
AI-Linetype-29
 62
     9
420
 12632256
370
    25
100
AcDbLine
 10
382.1124003179515
 20
158.7861770062144
 30
0.0
 11
380.0866043895375
 21
150.8913868467049
 31
0.0
  0
LINE
  5
240
330
70
100
AcDbEntity
  8
CL
  6
AI-Linetype-30
 62
     9
420
 12632256
370
    25
100
AcDbLine
 10
379.9034339079004
 20
158.7861770062144
 30
0.0
 11
377.877637979487
 21
150.8913868467049
 31
0.0
  0
LINE
  5
242
330
70
100
AcDbEntity
  8
CL
  6
AI-Linetype-31
 62
     9
420
 12632256
370
    25
100
AcDbLine
 10
432.6819297279151
 20
158.7861770062144
 30
0.0
 11
430.6561337994883
 21
150.8913868467049
 31
0.0
  0
LINE
  5
244
330
70
100
AcDbEntity
  8
CL
  6
AI-Linetype-32
 62
     9
420
 12632256
370
    25
100
AcDbLine
 10
430.4729633178614
 20
158.7861770062144
 30
0.0
 11
428.4471673894223
 21
150.8913868467049
 31
0.0
  0
ENDSEC
  0
SECTION
  2
OBJECTS
  0
DICTIONARY
  5
C
330
0
100
AcDbDictionary
281
     1
  3
ACAD_COLOR
350
63
  3
ACAD_DETAILVIEWSTYLE
350
6A
  3
ACAD_GROUP
350
D
  3
ACAD_LAYOUT
350
62
  3
ACAD_MATERIAL
350
10
  3
ACAD_MLEADERSTYLE
350
66
  3
ACAD_MLINESTYLE
350
5F
  3
ACAD_PLOTSETTINGS
350
61
  3
ACAD_PLOTSTYLENAME
350
E
  3
ACAD_SCALELIST
350
42
  3
ACAD_SECTIONVIEWSTYLE
350
68
  3
ACAD_TABLESTYLE
350
64
  3
ACAD_VISUALSTYLE
350
29
  3
ACDB_RECOMPOSE_DATA
350
24E
  3
AcDbVariableDictionary
350
246
  0
DICTIONARY
  5
63
102
{ACAD_REACTORS
330
C
102
}
330
C
100
AcDbDictionary
281
     1
  0
DICTIONARY
  5
6A
102
{ACAD_REACTORS
330
C
102
}
330
C
100
AcDbDictionary
281
     1
  3
Imperial24
350
6B
  0
DICTIONARY
  5
D
102
{ACAD_REACTORS
330
C
102
}
330
C
100
AcDbDictionary
281
     1
  0
DICTIONARY
  5
62
102
{ACAD_REACTORS
330
C
102
}
330
C
100
AcDbDictionary
281
     1
  3
Layout1
350
6F
  3
Layout2
350
77
  3
Model
350
73
  0
DICTIONARY
  5
10
102
{ACAD_REACTORS
330
C
102
}
330
C
100
AcDbDictionary
281
     1
  3
ByBlock
350
19
  3
ByLayer
350
11
  3
Global
350
21
  0
DICTIONARY
  5
66
102
{ACAD_REACTORS
330
C
102
}
330
C
100
AcDbDictionary
281
     1
  3
Standard
350
67
  0
DICTIONARY
  5
5F
102
{ACAD_REACTORS
330
C
102
}
330
C
100
AcDbDictionary
281
     1
  3
Standard
350
60
  0
DICTIONARY
  5
61
102
{ACAD_REACTORS
330
C
102
}
330
C
100
AcDbDictionary
281
     1
  0
ACDBDICTIONARYWDFLT
  5
E
102
{ACAD_REACTORS
330
C
102
}
330
C
100
AcDbDictionary
281
     1
  3
Normal
350
F
100
AcDbDictionaryWithDefault
340
F
  0
DICTIONARY
  5
42
102
{ACAD_REACTORS
330
C
102
}
330
C
100
AcDbDictionary
281
     1
  3
A0
350
43
  3
A1
350
44
  3
A2
350
45
  3
A3
350
46
  3
A4
350
47
  3
A5
350
48
  3
A6
350
49
  3
A7
350
4A
  3
A8
350
4B
  3
A9
350
4C
  3
B0
350
4D
  3
B1
350
4E
  3
B2
350
4F
  3
B3
350
50
  3
B4
350
51
  3
B5
350
52
  3
B6
350
53
  0
DICTIONARY
  5
68
102
{ACAD_REACTORS
330
C
102
}
330
C
100
AcDbDictionary
281
     1
  3
Imperial24
350
69
  0
DICTIONARY
  5
64
102
{ACAD_REACTORS
330
C
102
}
330
C
100
AcDbDictionary
281
     1
  3
Standard
350
65
  0
DICTIONARY
  5
29
102
{ACAD_REACTORS
330
C
102
}
330
C
100
AcDbDictionary
281
     1
  3
2dWireframe
350
2F
  3
Basic
350
2E
  3
Brighten
350
35
  3
ColorChange
350
39
  3
Conceptual
350
32
  3
Dim
350
34
  3
EdgeColorOff
350
41
  3
Facepattern
350
38
  3
Flat
350
2A
  3
FlatWithEdges
350
2B
  3
Gouraud
350
2C
  3
GouraudWithEdges
350
2D
  3
Hidden
350
31
  3
JitterOff
350
3F
  3
Linepattern
350
37
  3
OverhangOff
350
40
  3
Realistic
350
33
  3
Shaded
350
3E
  3
Shaded with edges
350
3D
  3
Shades of Gray
350
3A
  3
Sketchy
350
3B
  3
Thicken
350
36
  3
Wireframe
350
30
  3
X-Ray
350
3C
  0
XRECORD
  5
24E
102
{ACAD_REACTORS
330
C
102
}
330
C
100
AcDbXrecord
280
     1
 90
        1
330
65
  0
DICTIONARY
  5
246
102
{ACAD_REACTORS
330
C
102
}
330
C
100
AcDbDictionary
281
     1
  3
CANNOSCALE
350
24B
  3
CMLEADERSTYLE
350
248
  3
CTABLESTYLE
350
247
  3
CVIEWDETAILSTYLE
350
249
  3
CVIEWSECTIONSTYLE
350
24A
  0
ACDBDETAILVIEWSTYLE
  5
6B
102
{ACAD_REACTORS
330
6A
102
}
330
6A
100
AcDbModelDocViewStyle
 70
     0
  3
Imperial24
290
     1
300
Imperial24
 90
        0
100
AcDbDetailViewStyle
 70
     0
 71
     0
 90
        3
 71
     1
340
55
 62
   256
 40
0.24
340
0
 62
   256
 40
0.24
300

 40
0.36
280
     3
 71
     2
340
5D
 90
       25
 62
   256
 71
     3
340
55
 62
   256
 40
0.24
 90
        1
 40
0.75
 90
        1
300
%<\AcVar ViewType \f "%tc1">% %<\AcVar ViewDetailId>%\PSCALE %<\AcVar ViewScale \f "%sn">%
 71
     4
340
5D
 90
       25
 62
   256
340
5D
 90
       25
 62
   256
280
     0
  0
LAYOUT
  5
6F
102
{ACAD_REACTORS
330
62
102
}
330
62
100
AcDbPlotSettings
  1

  2

  4

  6

 40
0.0
 41
0.0
 42
0.0
 43
0.0
 44
0.0
 45
0.0
 46
0.0
 47
0.0
 48
0.0
 49
0.0
140
0.0
141
0.0
142
1.0
143
1.0
 70
   688
 72
     0
 73
     0
 74
     5
  7

 75
    16
147
1.0
 76
     0
 77
     2
 78
   300
148
0.0
149
0.0
100
AcDbLayout
  1
Layout1
 70
     1
 71
     1
 10
0.0
 20
0.0
 11
12.0
 21
9.0
 12
0.0
 22
0.0
 32
0.0
 14
0.0
 24
0.0
 34
0.0
 15
0.0
 25
0.0
 35
0.0
146
0.0
 13
0.0
 23
0.0
 33
0.0
 16
1.0
 26
0.0
 36
0.0
 17
0.0
 27
1.0
 37
0.0
 76
     0
330
6C
  0
LAYOUT
  5
77
102
{ACAD_REACTORS
330
62
102
}
330
62
100
AcDbPlotSettings
  1

  2

  4

  6

 40
0.0
 41
0.0
 42
0.0
 43
0.0
 44
0.0
 45
0.0
 46
0.0
 47
0.0
 48
0.0
 49
0.0
140
0.0
141
0.0
142
1.0
143
1.0
 70
   688
 72
     0
 73
     0
 74
     5
  7

 75
    16
147
1.0
 76
     0
 77
     2
 78
   300
148
0.0
149
0.0
100
AcDbLayout
  1
Layout2
 70
     1
 71
     2
 10
0.0
 20
0.0
 11
12.0
 21
9.0
 12
0.0
 22
0.0
 32
0.0
 14
0.0
 24
0.0
 34
0.0
 15
0.0
 25
0.0
 35
0.0
146
0.0
 13
0.0
 23
0.0
 33
0.0
 16
1.0
 26
0.0
 36
0.0
 17
0.0
 27
1.0
 37
0.0
 76
     0
330
74
  0
LAYOUT
  5
73
102
{ACAD_REACTORS
330
62
102
}
330
62
100
AcDbPlotSettings
  1

  2

  4

  6

 40
0.0
 41
0.0
 42
0.0
 43
0.0
 44
0.0
 45
0.0
 46
0.0
 47
0.0
 48
0.0
 49
0.0
140
0.0
141
0.0
142
1.0
143
1.0
 70
  1712
 72
     0
 73
     0
 74
     0
  7

 75
     0
147
1.0
 76
     0
 77
     2
 78
   300
148
0.0
149
0.0
100
AcDbLayout
  1
Model
 70
     1
 71
     0
 10
0.0
 20
0.0
 11
12.0
 21
9.0
 12
0.0
 22
0.0
 32
0.0
 14
0.0
 24
0.0
 34
0.0
 15
0.0
 25
0.0
 35
0.0
146
0.0
 13
0.0
 23
0.0
 33
0.0
 16
1.0
 26
0.0
 36
0.0
 17
0.0
 27
1.0
 37
0.0
 76
     0
330
70
  0
MATERIAL
  5
19
102
{ACAD_XDICTIONARY
360
1A
102
}
102
{ACAD_REACTORS
330
10
102
}
330
10
100
AcDbMaterial
  1
ByBlock
 72
     0
 43
0.0208333333333333
 43
0.0
 43
0.0
 43
0.0
 43
0.0
 43
0.0208333333333333
 43
0.0
 43
0.0
 43
0.0
 43
0.0
 43
1.0
 43
0.0
 43
0.0
 43
0.0
 43
0.0
 43
1.0
 77
     0
 47
0.0208333333333333
 47
0.0
 47
0.0
 47
0.0
 47
0.0
 47
0.0208333333333333
 47
0.0
 47
0.0
 47
0.0
 47
0.0
 47
1.0
 47
0.0
 47
0.0
 47
0.0
 47
0.0
 47
1.0
171
     0
 49
0.0208333333333333
 49
0.0
 49
0.0
 49
0.0
 49
0.0
 49
0.0208333333333333
 49
0.0
 49
0.0
 49
0.0
 49
0.0
 49
1.0
 49
0.0
 49
0.0
 49
0.0
 49
0.0
 49
1.0
175
     0
142
0.0208333333333333
142
0.0
142
0.0
142
0.0
142
0.0
142
0.0208333333333333
142
0.0
142
0.0
142
0.0
142
0.0
142
1.0
142
0.0
142
0.0
142
0.0
142
0.0
142
1.0
179
     0
144
0.0208333333333333
144
0.0
144
0.0
144
0.0
144
0.0
144
0.0208333333333333
144
0.0
144
0.0
144
0.0
144
0.0
144
1.0
144
0.0
144
0.0
144
0.0
144
0.0
144
1.0
147
0.0208333333333333
147
0.0
147
0.0
147
0.0
147
0.0
147
0.0208333333333333
147
0.0
147
0.0
147
0.0
147
0.0
147
1.0
147
0.0
147
0.0
147
0.0
147
0.0
147
1.0
  0
MATERIAL
  5
11
102
{ACAD_XDICTIONARY
360
12
102
}
102
{ACAD_REACTORS
330
10
102
}
330
10
100
AcDbMaterial
  1
ByLayer
 72
     0
 43
0.0208333333333333
 43
0.0
 43
0.0
 43
0.0
 43
0.0
 43
0.0208333333333333
 43
0.0
 43
0.0
 43
0.0
 43
0.0
 43
1.0
 43
0.0
 43
0.0
 43
0.0
 43
0.0
 43
1.0
 77
     0
 47
0.0208333333333333
 47
0.0
 47
0.0
 47
0.0
 47
0.0
 47
0.0208333333333333
 47
0.0
 47
0.0
 47
0.0
 47
0.0
 47
1.0
 47
0.0
 47
0.0
 47
0.0
 47
0.0
 47
1.0
171
     0
 49
0.0208333333333333
 49
0.0
 49
0.0
 49
0.0
 49
0.0
 49
0.0208333333333333
 49
0.0
 49
0.0
 49
0.0
 49
0.0
 49
1.0
 49
0.0
 49
0.0
 49
0.0
 49
0.0
 49
1.0
175
     0
142
0.0208333333333333
142
0.0
142
0.0
142
0.0
142
0.0
142
0.0208333333333333
142
0.0
142
0.0
142
0.0
142
0.0
142
1.0
142
0.0
142
0.0
142
0.0
142
0.0
142
1.0
179
     0
144
0.0208333333333333
144
0.0
144
0.0
144
0.0
144
0.0
144
0.0208333333333333
144
0.0
144
0.0
144
0.0
144
0.0
144
1.0
144
0.0
144
0.0
144
0.0
144
0.0
144
1.0
147
0.0208333333333333
147
0.0
147
0.0
147
0.0
147
0.0
147
0.0208333333333333
147
0.0
147
0.0
147
0.0
147
0.0
147
1.0
147
0.0
147
0.0
147
0.0
147
0.0
147
1.0
  0
MATERIAL
  5
21
102
{ACAD_XDICTIONARY
360
22
102
}
102
{ACAD_REACTORS
330
10
102
}
330
10
100
AcDbMaterial
  1
Global
 72
     0
 43
0.0208333333333333
 43
0.0
 43
0.0
 43
0.0
 43
0.0
 43
0.0208333333333333
 43
0.0
 43
0.0
 43
0.0
 43
0.0
 43
1.0
 43
0.0
 43
0.0
 43
0.0
 43
0.0
 43
1.0
 77
     0
 47
0.0208333333333333
 47
0.0
 47
0.0
 47
0.0
 47
0.0
 47
0.0208333333333333
 47
0.0
 47
0.0
 47
0.0
 47
0.0
 47
1.0
 47
0.0
 47
0.0
 47
0.0
 47
0.0
 47
1.0
171
     0
 49
0.0208333333333333
 49
0.0
 49
0.0
 49
0.0
 49
0.0
 49
0.0208333333333333
 49
0.0
 49
0.0
 49
0.0
 49
0.0
 49
1.0
 49
0.0
 49
0.0
 49
0.0
 49
0.0
 49
1.0
175
     0
142
0.0208333333333333
142
0.0
142
0.0
142
0.0
142
0.0
142
0.0208333333333333
142
0.0
142
0.0
142
0.0
142
0.0
142
1.0
142
0.0
142
0.0
142
0.0
142
0.0
142
1.0
179
     0
144
0.0208333333333333
144
0.0
144
0.0
144
0.0
144
0.0
144
0.0208333333333333
144
0.0
144
0.0
144
0.0
144
0.0
144
1.0
144
0.0
144
0.0
144
0.0
144
0.0
144
1.0
147
0.0208333333333333
147
0.0
147
0.0
147
0.0
147
0.0
147
0.0208333333333333
147
0.0
147
0.0
147
0.0
147
0.0
147
1.0
147
0.0
147
0.0
147
0.0
147
0.0
147
1.0
  0
MLEADERSTYLE
  5
67
102
{ACAD_REACTORS
330
66
102
}
330
66
100
AcDbMLeaderStyle
179
     2
170
     2
171
     1
172
     0
 90
        2
 40
0.0
 41
0.0
173
     1
 91
-1056964608
340
5B
 92
       -2
290
     1
 42
0.09
291
     1
 43
0.36
  3
Standard
 44
0.18
300

342
55
174
     1
178
     6
175
     1
176
     0
 93
-1056964608
 45
0.18
292
     0
297
     0
 46
0.18
 94
-1056964608
 47
1.0
 49
1.0
140
1.0
293
     1
141
0.0
294
     1
177
     0
142
1.0
295
     1
296
     0
143
0.125
271
     0
272
     9
273
     9
298
     1
  0
MLINESTYLE
  5
60
102
{ACAD_REACTORS
330
5F
102
}
330
5F
100
AcDbMlineStyle
  2
STANDARD
 70
     0
  3

 62
   256
 51
90.0
 52
90.0
 71
     2
 49
0.5
 62
   256
  6
BYLAYER
 49
-0.5
 62
   256
  6
BYLAYER
  0
ACDBPLACEHOLDER
  5
F
102
{ACAD_REACTORS
330
E
102
}
330
E
  0
SCALE
  5
43
102
{ACAD_REACTORS
330
42
102
}
330
42
100
AcDbScale
 70
     0
300
1:1
140
1.0
141
1.0
290
     1
  0
SCALE
  5
44
102
{ACAD_REACTORS
330
42
102
}
330
42
100
AcDbScale
 70
     0
300
1/128" = 1'-0"
140
0.0078125
141
12.0
290
     0
  0
SCALE
  5
45
102
{ACAD_REACTORS
330
42
102
}
330
42
100
AcDbScale
 70
     0
300
1/64" = 1'-0"
140
0.015625
141
12.0
290
     0
  0
SCALE
  5
46
102
{ACAD_REACTORS
330
42
102
}
330
42
100
AcDbScale
 70
     0
300
1/32" = 1'-0"
140
0.03125
141
12.0
290
     0
  0
SCALE
  5
47
102
{ACAD_REACTORS
330
42
102
}
330
42
100
AcDbScale
 70
     0
300
1/16" = 1'-0"
140
0.0625
141
12.0
290
     0
  0
SCALE
  5
48
102
{ACAD_REACTORS
330
42
102
}
330
42
100
AcDbScale
 70
     0
300
3/32" = 1'-0"
140
0.09375
141
12.0
290
     0
  0
SCALE
  5
49
102
{ACAD_REACTORS
330
42
102
}
330
42
100
AcDbScale
 70
     0
300
1/8" = 1'-0"
140
0.125
141
12.0
290
     0
  0
SCALE
  5
4A
102
{ACAD_REACTORS
330
42
102
}
330
42
100
AcDbScale
 70
     0
300
3/16" = 1'-0"
140
0.1875
141
12.0
290
     0
  0
SCALE
  5
4B
102
{ACAD_REACTORS
330
42
102
}
330
42
100
AcDbScale
 70
     0
300
1/4" = 1'-0"
140
0.25
141
12.0
290
     0
  0
SCALE
  5
4C
102
{ACAD_REACTORS
330
42
102
}
330
42
100
AcDbScale
 70
     0
300
3/8" = 1'-0"
140
0.375
141
12.0
290
     0
  0
SCALE
  5
4D
102
{ACAD_REACTORS
330
42
102
}
330
42
100
AcDbScale
 70
     0
300
1/2" = 1'-0"
140
0.5
141
12.0
290
     0
  0
SCALE
  5
4E
102
{ACAD_REACTORS
330
42
102
}
330
42
100
AcDbScale
 70
     0
300
3/4" = 1'-0"
140
0.75
141
12.0
290
     0
  0
SCALE
  5
4F
102
{ACAD_REACTORS
330
42
102
}
330
42
100
AcDbScale
 70
     0
300
1" = 1'-0"
140
1.0
141
12.0
290
     0
  0
SCALE
  5
50
102
{ACAD_REACTORS
330
42
102
}
330
42
100
AcDbScale
 70
     0
300
1-1/2" = 1'-0"
140
1.5
141
12.0
290
     0
  0
SCALE
  5
51
102
{ACAD_REACTORS
330
42
102
}
330
42
100
AcDbScale
 70
     0
300
3" = 1'-0"
140
3.0
141
12.0
290
     0
  0
SCALE
  5
52
102
{ACAD_REACTORS
330
42
102
}
330
42
100
AcDbScale
 70
     0
300
6" = 1'-0"
140
6.0
141
12.0
290
     0
  0
SCALE
  5
53
102
{ACAD_REACTORS
330
42
102
}
330
42
100
AcDbScale
 70
     0
300
1'-0" = 1'-0"
140
12.0
141
12.0
290
     0
  0
ACDBSECTIONVIEWSTYLE
  5
69
102
{ACAD_REACTORS
330
68
102
}
330
68
100
AcDbModelDocViewStyle
 70
     0
  3
Imperial24
290
     1
300
Imperial24
 90
        0
100
AcDbSectionViewStyle
 70
     0
 71
     0
 90
       78
 71
     1
340
55
 62
   256
 40
0.24
340
0
340
0
 62
   256
 40
0.24
300
I, O, Q, S, X, Z
 40
0.48
 90
        3
 40
0.18
 90
        1
 71
     2
340
5D
 90
       25
 62
   256
340
5D
 90
       50
 62
   256
 40
0.24
 40
0.0
 40
0.24
 71
     3
340
55
 62
   256
 40
0.24
 90
        1
 40
0.75
 90
        1
300
%<\AcVar ViewType \f "%tc1">% %<\AcVar ViewSectionStartId>%-%<\AcVar ViewSectionEndId>%\PSCALE %<\AcVar ViewScale \f "%sn">%
 71
     4
 62
   256
 62
   257
300
ANSI31
 40
1.0
 90
        0
290
     0
290
     0
 90
        6
 40
0.0
 40
1.570796326794896
 40
0.2617993877991494
 40
1.308996938995747
 40
-0.2617993877991494
 40
1.832595714594046
  0
TABLESTYLE
  5
65
102
{ACAD_XDICTIONARY
360
24C
102
}
102
{ACAD_REACTORS
330
64
102
}
330
64
100
AcDbTableStyle
280
     0
  3
Standard
 70
     0
 71
     0
 40
0.06
 41
0.06
280
     0
281
     0
  7
Standard
140
0.18
170
     2
 62
     0
 63
     7
283
     0
 90
      512
 91
        0
  1

274
    -2
284
     1
 64
     0
275
    -2
285
     1
 65
     0
276
    -2
286
     1
 66
     0
277
    -2
287
     1
 67
     0
278
    -2
288
     1
 68
     0
279
    -2
289
     1
 69
     0
  7
Standard
140
0.25
170
     5
 62
     0
 63
     7
283
     0
 90
      512
 91
        0
  1

274
    -2
284
     1
 64
     0
275
    -2
285
     1
 65
     0
276
    -2
286
     1
 66
     0
277
    -2
287
     1
 67
     0
278
    -2
288
     1
 68
     0
279
    -2
289
     1
 69
     0
  7
Standard
140
0.18
170
     5
 62
     0
 63
     7
283
     0
 90
      512
 91
        0
  1

274
    -2
284
     1
 64
     0
275
    -2
285
     1
 65
     0
276
    -2
286
     1
 66
     0
277
    -2
287
     1
 67
     0
278
    -2
288
     1
 68
     0
279
    -2
289
     1
 69
     0
  0
VISUALSTYLE
  5
2F
102
{ACAD_REACTORS
330
29
102
}
330
29
100
AcDbVisualStyle
  2
2dWireframe
 70
     4
177
     3
291
     0
 70
    58
 90
        0
176
     1
 90
        2
176
     1
 90
        0
176
     1
 90
        0
176
     1
 40
0.6
176
     1
 40
30.0
176
     1
 62
     7
420
 16777215
176
     1
 90
        1
176
     1
 90
        4
176
     1
 62
     7
176
     1
 62
   257
176
     1
 90
        1
176
     1
 90
        1
176
     1
 40
1.0
176
     1
 90
        0
176
     1
 62
   257
176
     1
 40
1.0
176
     1
 90
        1
176
     1
 90
        6
176
     1
 90
        2
176
     1
 62
     7
176
     1
 90
        5
176
     1
 90
        0
176
     1
 90
        0
176
     1
290
     0
176
     1
 90
        1
176
     1
 40
0.0
176
     1
 90
        0
176
     1
290
     1
176
     1
290
     1
176
     1
290
     0
176
     1
290
     0
176
     1
290
     0
176
     1
290
     0
176
     1
290
     0
176
     1
290
     0
176
     1
290
     0
176
     1
 90
       50
176
     1
 40
0.0
176
     1
 40
1.0
176
     1
 90
        0
176
     1
 62
    18
420
        0
176
     1
 90
       50
176
     1
 90
        3
176
     1
 62
     5
420
      255
176
     1
290
     0
176
     1
 90
       50
176
     1
 90
       50
176
     1
 90
       50
176
     1
290
     0
176
     1
 90
       50
176
     1
 62
   256
176
     0
 40
1.0
176
     0
 90
        2
176
     1
  1
strokes_ogs.tif
176
     1
290
     0
176
     1
 40
1.0
176
     1
 40
1.0
176
     1
  0
VISUALSTYLE
  5
2E
102
{ACAD_REACTORS
330
29
102
}
330
29
100
AcDbVisualStyle
  2
Basic
 70
     7
177
     3
291
     1
 70
    58
 90
        1
176
     1
 90
        0
176
     1
 90
        1
176
     1
 90
        0
176
     1
 40
0.6
176
     1
 40
30.0
176
     1
 62
     7
420
 16777215
176
     1
 90
        0
176
     1
 90
        4
176
     1
 62
     7
176
     1
 62
   257
176
     1
 90
        1
176
     1
 90
        1
176
     1
 40
1.0
176
     1
 90
        8
176
     1
 62
     7
176
     1
 40
1.0
176
     1
 90
        1
176
     1
 90
        6
176
     1
 90
        2
176
     1
 62
     7
176
     1
 90
        5
176
     1
 90
        0
176
     1
 90
        0
176
     1
290
     0
176
     1
 90
        1
176
     1
 40
0.0
176
     1
 90
        0
176
     1
290
     0
176
     1
290
     1
176
     1
290
     1
176
     1
290
     0
176
     1
290
     0
176
     1
290
     0
176
     1
290
     0
176
     1
290
     0
176
     1
290
     0
176
     1
 90
       50
176
     1
 40
0.0
176
     1
 40
1.0
176
     1
 90
        0
176
     1
 62
    18
420
        0
176
     1
 90
       50
176
     1
 90
        3
176
     1
 62
     5
420
      255
176
     1
290
     0
176
     1
 90
       50
176
     1
 90
       50
176
     1
 90
       50
176
     1
290
     0
176
     1
 90
       50
176
     1
 62
   256
176
     0
 40
1.0
176
     0
 90
        2
176
     1
  1
strokes_ogs.tif
176
     1
290
     0
176
     1
 40
1.0
176
     1
 40
1.0
176
     1
  0
VISUALSTYLE
  5
35
102
{ACAD_REACTORS
330
29
102
}
330
29
100
AcDbVisualStyle
  2
Brighten
 70
    12
177
     3
291
     1
 70
    58
 90
        2
176
     1
 90
        2
176
     1
 90
        0
176
     1
 90
        0
176
     1
 40
0.6
176
     1
 40
30.0
176
     1
 62
     7
420
 16777215
176
     1
 90
        1
176
     1
 90
        4
176
     1
 62
     7
176
     1
 62
   257
176
     1
 90
        1
176
     1
 90
        1
176
     1
 40
1.0
176
     1
 90
        8
176
     1
 62
     7
176
     1
 40
1.0
176
     1
 90
        1
176
     1
 90
        6
176
     1
 90
        2
176
     1
 62
     7
176
     1
 90
        5
176
     1
 90
        0
176
     1
 90
        0
176
     1
290
     0
176
     1
 90
        1
176
     1
 40
50.0
176
     1
 90
        0
176
     1
290
     0
176
     1
290
     1
176
     1
290
     1
176
     1
290
     0
176
     1
290
     0
176
     1
290
     0
176
     1
290
     0
176
     1
290
     0
176
     1
290
     0
176
     1
 90
       50
176
     1
 40
0.0
176
     1
 40
1.0
176
     1
 90
        0
176
     1
 62
    18
420
        0
176
     1
 90
       50
176
     1
 90
        3
176
     1
 62
     5
420
      255
176
     1
290
     0
176
     1
 90
       50
176
     1
 90
       50
176
     1
 90
       50
176
     1
290
     0
176
     1
 90
       50
176
     1
 62
   256
176
     0
 40
1.0
176
     0
 90
        2
176
     1
  1
strokes_ogs.tif
176
     1
290
     0
176
     1
 40
1.0
176
     1
 40
1.0
176
     1
  0
VISUALSTYLE
  5
39
102
{ACAD_REACTORS
330
29
102
}
330
29
100
AcDbVisualStyle
  2
ColorChange
 70
    16
177
     3
291
     1
 70
    58
 90
        2
176
     1
 90
        2
176
     1
 90
        3
176
     1
 90
        0
176
     1
 40
0.6
176
     1
 40
30.0
176
     1
 62
     8
420
  8421504
176
     1
 90
        1
176
     1
 90
        4
176
     1
 62
     7
176
     1
 62
   257
176
     1
 90
        1
176
     1
 90
        1
176
     1
 40
1.0
176
     1
 90
        8
176
     1
 62
     8
420
  8421504
176
     1
 40
1.0
176
     1
 90
        1
176
     1
 90
        6
176
     1
 90
        2
176
     1
 62
     7
176
     1
 90
        5
176
     1
 90
        0
176
     1
 90
        0
176
     1
290
     0
176
     1
 90
        1
176
     1
 40
0.0
176
     1
 90
        0
176
     1
290
     0
176
     1
290
     1
176
     1
290
     1
176
     1
290
     0
176
     1
290
     0
176
     1
290
     0
176
     1
290
     0
176
     1
290
     0
176
     1
290
     0
176
     1
 90
       50
176
     1
 40
0.0
176
     1
 40
1.0
176
     1
 90
        0
176
     1
 62
    18
420
        0
176
     1
 90
       50
176
     1
 90
        3
176
     1
 62
     5
420
      255
176
     1
290
     0
176
     1
 90
       50
176
     1
 90
       50
176
     1
 90
       50
176
     1
290
     0
176
     1
 90
       50
176
     1
 62
   256
176
     0
 40
1.0
176
     0
 90
        2
176
     1
  1
strokes_ogs.tif
176
     1
290
     0
176
     1
 40
1.0
176
     1
 40
1.0
176
     1
  0
VISUALSTYLE
  5
32
102
{ACAD_REACTORS
330
29
102
}
330
29
100
AcDbVisualStyle
  2
Conceptual
 70
     9
177
     3
291
     0
 70
    58
 90
        3
176
     1
 90
        2
176
     1
 90
        0
176
     1
 90
        0
176
     1
 40
0.6
176
     1
 40
30.0
176
     1
 62
     7
420
 16777215
176
     1
 90
        2
176
     1
 90
        2
176
     1
 62
     7
176
     1
 62
   257
176
     1
 90
        1
176
     1
 90
        1
176
     1
 40
179.0
176
     1
 90
        8
176
     1
 62
     7
176
     1
 40
1.0
176
     1
 90
        1
176
     1
 90
        6
176
     1
 90
        2
176
     1
 62
     7
176
     1
 90
        3
176
     1
 90
        0
176
     1
 90
        0
176
     1
290
     0
176
     1
 90
        1
176
     1
 40
0.0
176
     1
 90
        0
176
     1
290
     0
176
     1
290
     1
176
     1
290
     1
176
     1
290
     0
176
     1
290
     0
176
     1
290
     0
176
     1
290
     0
176
     1
290
     0
176
     1
290
     0
176
     1
 90
       50
176
     1
 40
0.0
176
     1
 40
1.0
176
     1
 90
        0
176
     1
 62
    18
420
        0
176
     1
 90
       50
176
     1
 90
        3
176
     1
 62
     5
420
      255
176
     1
290
     0
176
     1
 90
       50
176
     1
 90
       50
176
     1
 90
       50
176
     1
290
     0
176
     1
 90
       50
176
     1
 62
   256
176
     0
 40
1.0
176
     0
 90
        2
176
     1
  1
strokes_ogs.tif
176
     1
290
     0
176
     1
 40
1.0
176
     1
 40
1.0
176
     1
  0
VISUALSTYLE
  5
34
102
{ACAD_REACTORS
330
29
102
}
330
29
100
AcDbVisualStyle
  2
Dim
 70
    11
177
     3
291
     1
 70
    58
 90
        2
176
     1
 90
        2
176
     1
 90
        0
176
     1
 90
        0
176
     1
 40
0.6
176
     1
 40
30.0
176
     1
 62
     7
420
 16777215
176
     1
 90
        1
176
     1
 90
        4
176
     1
 62
     7
176
     1
 62
   257
176
     1
 90
        1
176
     1
 90
        1
176
     1
 40
1.0
176
     1
 90
        8
176
     1
 62
     7
176
     1
 40
1.0
176
     1
 90
        1
176
     1
 90
        6
176
     1
 90
        2
176
     1
 62
     7
176
     1
 90
        5
176
     1
 90
        0
176
     1
 90
        0
176
     1
290
     0
176
     1
 90
        1
176
     1
 40
-50.0
176
     1
 90
        0
176
     1
290
     0
176
     1
290
     1
176
     1
290
     1
176
     1
290
     0
176
     1
290
     0
176
     1
290
     0
176
     1
290
     0
176
     1
290
     0
176
     1
290
     0
176
     1
 90
       50
176
     1
 40
0.0
176
     1
 40
1.0
176
     1
 90
        0
176
     1
 62
    18
420
        0
176
     1
 90
       50
176
     1
 90
        3
176
     1
 62
     5
420
      255
176
     1
290
     0
176
     1
 90
       50
176
     1
 90
       50
176
     1
 90
       50
176
     1
290
     0
176
     1
 90
       50
176
     1
 62
   256
176
     0
 40
1.0
176
     0
 90
        2
176
     1
  1
strokes_ogs.tif
176
     1
290
     0
176
     1
 40
1.0
176
     1
 40
1.0
176
     1
  0
VISUALSTYLE
  5
41
102
{ACAD_REACTORS
330
29
102
}
330
29
100
AcDbVisualStyle
  2
EdgeColorOff
 70
    22
177
     3
291
     1
 70
    58
 90
        2
176
     0
 90
        2
176
     0
 90
        0
176
     0
 90
        0
176
     0
 40
0.6
176
     0
 40
30.0
176
     0
 62
     7
420
 16777215
176
     0
 90
        1
176
     0
 90
        4
176
     0
 62
     7
176
     0
 62
   257
176
     0
 90
        1
176
     0
 90
        1
176
     0
 40
1.0
176
     0
 90
        8
176
     2
 62
     7
176
     0
 40
1.0
176
     0
 90
        1
176
     0
 90
        6
176
     0
 90
        2
176
     0
 62
     7
176
     0
 90
        5
176
     0
 90
        0
176
     0
 90
        0
176
     0
290
     0
176
     0
 90
        1
176
     0
 40
0.0
176
     0
 90
        0
176
     0
290
     0
176
     0
290
     1
176
     0
290
     1
176
     0
290
     0
176
     0
290
     0
176
     0
290
     0
176
     0
290
     0
176
     0
290
     0
176
     0
290
     0
176
     0
 90
       50
176
     0
 40
0.0
176
     0
 40
1.0
176
     0
 90
        0
176
     0
 62
    18
420
        0
176
     0
 90
       50
176
     0
 90
        3
176
     0
 62
     5
420
      255
176
     0
290
     0
176
     0
 90
       50
176
     0
 90
       50
176
     0
 90
       50
176
     0
290
     0
176
     0
 90
       50
176
     0
 62
   256
176
     0
 40
1.0
176
     0
 90
        2
176
     0
  1
strokes_ogs.tif
176
     0
290
     0
176
     0
 40
1.0
176
     0
 40
1.0
176
     0
  0
VISUALSTYLE
  5
38
102
{ACAD_REACTORS
330
29
102
}
330
29
100
AcDbVisualStyle
  2
Facepattern
 70
    15
177
     3
291
     1
 70
    58
 90
        2
176
     1
 90
        2
176
     1
 90
        0
176
     1
 90
        0
176
     1
 40
0.6
176
     1
 40
30.0
176
     1
 62
     7
420
 16777215
176
     1
 90
        1
176
     1
 90
        4
176
     1
 62
     7
176
     1
 62
   257
176
     1
 90
        1
176
     1
 90
        1
176
     1
 40
1.0
176
     1
 90
        8
176
     1
 62
     7
176
     1
 40
1.0
176
     1
 90
        1
176
     1
 90
        6
176
     1
 90
        2
176
     1
 62
     7
176
     1
 90
        5
176
     1
 90
        0
176
     1
 90
        0
176
     1
290
     0
176
     1
 90
        1
176
     1
 40
0.0
176
     1
 90
        0
176
     1
290
     0
176
     1
290
     1
176
     1
290
     1
176
     1
290
     0
176
     1
290
     0
176
     1
290
     0
176
     1
290
     0
176
     1
290
     0
176
     1
290
     0
176
     1
 90
       50
176
     1
 40
0.0
176
     1
 40
1.0
176
     1
 90
        0
176
     1
 62
    18
420
        0
176
     1
 90
       50
176
     1
 90
        3
176
     1
 62
     5
420
      255
176
     1
290
     0
176
     1
 90
       50
176
     1
 90
       50
176
     1
 90
       50
176
     1
290
     0
176
     1
 90
       50
176
     1
 62
   256
176
     0
 40
1.0
176
     0
 90
        2
176
     1
  1
strokes_ogs.tif
176
     1
290
     0
176
     1
 40
1.0
176
     1
 40
1.0
176
     1
  0
VISUALSTYLE
  5
2A
102
{ACAD_REACTORS
330
29
102
}
330
29
100
AcDbVisualStyle
  2
Flat
 70
     0
177
     3
291
     1
 70
    58
 90
        2
176
     1
 90
        1
176
     1
 90
        1
176
     1
 90
        2
176
     1
 40
0.6
176
     1
 40
30.0
176
     1
 62
     7
420
 16777215
176
     1
 90
        0
176
     1
 90
        0
176
     1
 62
     7
176
     1
 62
   257
176
     1
 90
        1
176
     1
 90
        1
176
     1
 40
1.0
176
     1
 90
        8
176
     1
 62
     7
176
     1
 40
1.0
176
     1
 90
        1
176
     1
 90
        6
176
     1
 90
        2
176
     1
 62
     7
176
     1
 90
        5
176
     1
 90
        0
176
     1
 90
        0
176
     1
290
     0
176
     1
 90
       13
176
     1
 40
0.0
176
     1
 90
        0
176
     1
290
     0
176
     1
290
     1
176
     1
290
     1
176
     1
290
     0
176
     1
290
     0
176
     1
290
     0
176
     1
290
     0
176
     1
290
     0
176
     1
290
     0
176
     1
 90
       50
176
     1
 40
0.0
176
     1
 40
1.0
176
     1
 90
        0
176
     1
 62
    18
420
        0
176
     1
 90
       50
176
     1
 90
        3
176
     1
 62
     5
420
      255
176
     1
290
     0
176
     1
 90
       50
176
     1
 90
       50
176
     1
 90
       50
176
     1
290
     0
176
     1
 90
       50
176
     1
 62
   256
176
     0
 40
1.0
176
     0
 90
        2
176
     1
  1
strokes_ogs.tif
176
     1
290
     0
176
     1
 40
1.0
176
     1
 40
1.0
176
     1
  0
VISUALSTYLE
  5
2B
102
{ACAD_REACTORS
330
29
102
}
330
29
100
AcDbVisualStyle
  2
FlatWithEdges
 70
     1
177
     3
291
     1
 70
    58
 90
        2
176
     1
 90
        1
176
     1
 90
        1
176
     1
 90
        2
176
     1
 40
0.6
176
     1
 40
30.0
176
     1
 62
     7
420
 16777215
176
     1
 90
        1
176
     1
 90
        0
176
     1
 62
     7
176
     1
 62
   257
176
     1
 90
        1
176
     1
 90
        1
176
     1
 40
1.0
176
     1
 90
        0
176
     1
 62
   257
176
     1
 40
1.0
176
     1
 90
        1
176
     1
 90
        6
176
     1
 90
        2
176
     1
 62
     7
176
     1
 90
        5
176
     1
 90
        0
176
     1
 90
        0
176
     1
290
     0
176
     1
 90
       13
176
     1
 40
0.0
176
     1
 90
        0
176
     1
290
     0
176
     1
290
     1
176
     1
290
     1
176
     1
290
     0
176
     1
290
     0
176
     1
290
     0
176
     1
290
     0
176
     1
290
     0
176
     1
290
     0
176
     1
 90
       50
176
     1
 40
0.0
176
     1
 40
1.0
176
     1
 90
        0
176
     1
 62
    18
420
        0
176
     1
 90
       50
176
     1
 90
        3
176
     1
 62
     5
420
      255
176
     1
290
     0
176
     1
 90
       50
176
     1
 90
       50
176
     1
 90
       50
176
     1
290
     0
176
     1
 90
       50
176
     1
 62
   256
176
     0
 40
1.0
176
     0
 90
        2
176
     1
  1
strokes_ogs.tif
176
     1
290
     0
176
     1
 40
1.0
176
     1
 40
1.0
176
     1
  0
VISUALSTYLE
  5
2C
102
{ACAD_REACTORS
330
29
102
}
330
29
100
AcDbVisualStyle
  2
Gouraud
 70
     2
177
     3
291
     1
 70
    58
 90
        2
176
     1
 90
        2
176
     1
 90
        1
176
     1
 90
        2
176
     1
 40
0.6
176
     1
 40
30.0
176
     1
 62
     7
420
 16777215
176
     1
 90
        0
176
     1
 90
        0
176
     1
 62
     7
176
     1
 62
   257
176
     1
 90
        1
176
     1
 90
        1
176
     1
 40
1.0
176
     1
 90
        0
176
     1
 62
     7
176
     1
 40
1.0
176
     1
 90
        1
176
     1
 90
        6
176
     1
 90
        2
176
     1
 62
     7
176
     1
 90
        5
176
     1
 90
        0
176
     1
 90
        0
176
     1
290
     0
176
     1
 90
       13
176
     1
 40
0.0
176
     1
 90
        0
176
     1
290
     0
176
     1
290
     1
176
     1
290
     1
176
     1
290
     0
176
     1
290
     0
176
     1
290
     0
176
     1
290
     0
176
     1
290
     0
176
     1
290
     0
176
     1
 90
       50
176
     1
 40
0.0
176
     1
 40
1.0
176
     1
 90
        0
176
     1
 62
    18
420
        0
176
     1
 90
       50
176
     1
 90
        3
176
     1
 62
     5
420
      255
176
     1
290
     0
176
     1
 90
       50
176
     1
 90
       50
176
     1
 90
       50
176
     1
290
     0
176
     1
 90
       50
176
     1
 62
   256
176
     0
 40
1.0
176
     0
 90
        2
176
     1
  1
strokes_ogs.tif
176
     1
290
     0
176
     1
 40
1.0
176
     1
 40
1.0
176
     1
  0
VISUALSTYLE
  5
2D
102
{ACAD_REACTORS
330
29
102
}
330
29
100
AcDbVisualStyle
  2
GouraudWithEdges
 70
     3
177
     3
291
     1
 70
    58
 90
        2
176
     1
 90
        2
176
     1
 90
        1
176
     1
 90
        2
176
     1
 40
0.6
176
     1
 40
30.0
176
     1
 62
     7
420
 16777215
176
     1
 90
        1
176
     1
 90
        0
176
     1
 62
     7
176
     1
 62
   257
176
     1
 90
        1
176
     1
 90
        1
176
     1
 40
1.0
176
     1
 90
        0
176
     1
 62
   257
176
     1
 40
1.0
176
     1
 90
        1
176
     1
 90
        6
176
     1
 90
        2
176
     1
 62
     7
176
     1
 90
        5
176
     1
 90
        0
176
     1
 90
        0
176
     1
290
     0
176
     1
 90
       13
176
     1
 40
0.0
176
     1
 90
        0
176
     1
290
     0
176
     1
290
     1
176
     1
290
     1
176
     1
290
     0
176
     1
290
     0
176
     1
290
     0
176
     1
290
     0
176
     1
290
     0
176
     1
290
     0
176
     1
 90
       50
176
     1
 40
0.0
176
     1
 40
1.0
176
     1
 90
        0
176
     1
 62
    18
420
        0
176
     1
 90
       50
176
     1
 90
        3
176
     1
 62
     5
420
      255
176
     1
290
     0
176
     1
 90
       50
176
     1
 90
       50
176
     1
 90
       50
176
     1
290
     0
176
     1
 90
       50
176
     1
 62
   256
176
     0
 40
1.0
176
     0
 90
        2
176
     1
  1
strokes_ogs.tif
176
     1
290
     0
176
     1
 40
1.0
176
     1
 40
1.0
176
     1
  0
VISUALSTYLE
  5
31
102
{ACAD_REACTORS
330
29
102
}
330
29
100
AcDbVisualStyle
  2
Hidden
 70
     6
177
     3
291
     0
 70
    58
 90
        1
176
     1
 90
        2
176
     1
 90
        2
176
     1
 90
        0
176
     1
 40
0.6
176
     1
 40
30.0
176
     1
 62
     7
420
 16777215
176
     1
 90
        2
176
     1
 90
        2
176
     1
 62
     7
176
     1
 62
   257
176
     1
 90
        2
176
     1
 90
        1
176
     1
 40
40.0
176
     1
 90
        0
176
     1
 62
   257
176
     1
 40
1.0
176
     1
 90
        1
176
     1
 90
        6
176
     1
 90
        2
176
     1
 62
     7
176
     1
 90
        3
176
     1
 90
        0
176
     1
 90
        0
176
     1
290
     0
176
     1
 90
        1
176
     1
 40
0.0
176
     1
 90
        0
176
     1
290
     0
176
     1
290
     1
176
     1
290
     1
176
     1
290
     0
176
     1
290
     0
176
     1
290
     0
176
     1
290
     0
176
     1
290
     0
176
     1
290
     0
176
     1
 90
       50
176
     1
 40
0.0
176
     1
 40
1.0
176
     1
 90
        0
176
     1
 62
    18
420
        0
176
     1
 90
       50
176
     1
 90
        3
176
     1
 62
     5
420
      255
176
     1
290
     0
176
     1
 90
       50
176
     1
 90
       50
176
     1
 90
       50
176
     1
290
     0
176
     1
 90
       50
176
     1
 62
   256
176
     0
 40
1.0
176
     0
 90
        2
176
     1
  1
strokes_ogs.tif
176
     1
290
     0
176
     1
 40
1.0
176
     1
 40
1.0
176
     1
  0
VISUALSTYLE
  5
3F
102
{ACAD_REACTORS
330
29
102
}
330
29
100
AcDbVisualStyle
  2
JitterOff
 70
    20
177
     3
291
     1
 70
    58
 90
        2
176
     0
 90
        2
176
     0
 90
        0
176
     0
 90
        0
176
     0
 40
0.6
176
     0
 40
30.0
176
     0
 62
     7
420
 16777215
176
     0
 90
        1
176
     0
 90
        4
176
     0
 62
     7
176
     0
 62
   257
176
     0
 90
        1
176
     0
 90
        1
176
     0
 40
1.0
176
     0
 90
       10
176
     2
 62
     7
176
     0
 40
1.0
176
     0
 90
        1
176
     0
 90
        6
176
     0
 90
        2
176
     0
 62
     7
176
     0
 90
        5
176
     0
 90
        0
176
     0
 90
        0
176
     0
290
     0
176
     0
 90
        1
176
     0
 40
0.0
176
     0
 90
        0
176
     0
290
     0
176
     0
290
     1
176
     0
290
     1
176
     0
290
     0
176
     0
290
     0
176
     0
290
     0
176
     0
290
     0
176
     0
290
     0
176
     0
290
     0
176
     0
 90
       50
176
     0
 40
0.0
176
     0
 40
1.0
176
     0
 90
        0
176
     0
 62
    18
420
        0
176
     0
 90
       50
176
     0
 90
        3
176
     0
 62
     5
420
      255
176
     0
290
     0
176
     0
 90
       50
176
     0
 90
       50
176
     0
 90
       50
176
     0
290
     0
176
     0
 90
       50
176
     0
 62
   256
176
     0
 40
1.0
176
     0
 90
        2
176
     0
  1
strokes_ogs.tif
176
     0
290
     0
176
     0
 40
1.0
176
     0
 40
1.0
176
     0
  0
VISUALSTYLE
  5
37
102
{ACAD_REACTORS
330
29
102
}
330
29
100
AcDbVisualStyle
  2
Linepattern
 70
    14
177
     3
291
     1
 70
    58
 90
        2
176
     1
 90
        2
176
     1
 90
        0
176
     1
 90
        0
176
     1
 40
0.6
176
     1
 40
30.0
176
     1
 62
     7
420
 16777215
176
     1
 90
        1
176
     1
 90
        4
176
     1
 62
     7
176
     1
 62
   257
176
     1
 90
        7
176
     1
 90
        7
176
     1
 40
1.0
176
     1
 90
        8
176
     1
 62
     7
176
     1
 40
1.0
176
     1
 90
        1
176
     1
 90
        6
176
     1
 90
        2
176
     1
 62
     7
176
     1
 90
        5
176
     1
 90
        0
176
     1
 90
        0
176
     1
290
     0
176
     1
 90
        1
176
     1
 40
0.0
176
     1
 90
        0
176
     1
290
     0
176
     1
290
     1
176
     1
290
     1
176
     1
290
     0
176
     1
290
     0
176
     1
290
     0
176
     1
290
     0
176
     1
290
     0
176
     1
290
     0
176
     1
 90
       50
176
     1
 40
0.0
176
     1
 40
1.0
176
     1
 90
        0
176
     1
 62
    18
420
        0
176
     1
 90
       50
176
     1
 90
        3
176
     1
 62
     5
420
      255
176
     1
290
     0
176
     1
 90
       50
176
     1
 90
       50
176
     1
 90
       50
176
     1
290
     0
176
     1
 90
       50
176
     1
 62
   256
176
     0
 40
1.0
176
     0
 90
        2
176
     1
  1
strokes_ogs.tif
176
     1
290
     0
176
     1
 40
1.0
176
     1
 40
1.0
176
     1
  0
VISUALSTYLE
  5
40
102
{ACAD_REACTORS
330
29
102
}
330
29
100
AcDbVisualStyle
  2
OverhangOff
 70
    21
177
     3
291
     1
 70
    58
 90
        2
176
     0
 90
        2
176
     0
 90
        0
176
     0
 90
        0
176
     0
 40
0.6
176
     0
 40
30.0
176
     0
 62
     7
420
 16777215
176
     0
 90
        1
176
     0
 90
        4
176
     0
 62
     7
176
     0
 62
   257
176
     0
 90
        1
176
     0
 90
        1
176
     0
 40
1.0
176
     0
 90
        9
176
     2
 62
     7
176
     0
 40
1.0
176
     0
 90
        1
176
     0
 90
        6
176
     0
 90
        2
176
     0
 62
     7
176
     0
 90
        5
176
     0
 90
        0
176
     0
 90
        0
176
     0
290
     0
176
     0
 90
        1
176
     0
 40
0.0
176
     0
 90
        0
176
     0
290
     0
176
     0
290
     1
176
     0
290
     1
176
     0
290
     0
176
     0
290
     0
176
     0
290
     0
176
     0
290
     0
176
     0
290
     0
176
     0
290
     0
176
     0
 90
       50
176
     0
 40
0.0
176
     0
 40
1.0
176
     0
 90
        0
176
     0
 62
    18
420
        0
176
     0
 90
       50
176
     0
 90
        3
176
     0
 62
     5
420
      255
176
     0
290
     0
176
     0
 90
       50
176
     0
 90
       50
176
     0
 90
       50
176
     0
290
     0
176
     0
 90
       50
176
     0
 62
   256
176
     0
 40
1.0
176
     0
 90
        2
176
     0
  1
strokes_ogs.tif
176
     0
290
     0
176
     0
 40
1.0
176
     0
 40
1.0
176
     0
  0
VISUALSTYLE
  5
33
102
{ACAD_REACTORS
330
29
102
}
330
29
100
AcDbVisualStyle
  2
Realistic
 70
     8
177
     3
291
     0
 70
    58
 90
        2
176
     1
 90
        3
176
     1
 90
        0
176
     1
 90
        2
176
     1
 40
0.6
176
     1
 40
30.0
176
     1
 62
     7
420
 16777215
176
     1
 90
        0
176
     1
 90
        0
176
     1
 62
     7
176
     1
 62
   257
176
     1
 90
        1
176
     1
 90
        1
176
     1
 40
1.0
176
     1
 90
        8
176
     1
 62
   257
176
     1
 40
1.0
176
     1
 90
        1
176
     1
 90
        6
176
     1
 90
        2
176
     1
 62
     7
176
     1
 90
        3
176
     1
 90
        0
176
     1
 90
        0
176
     1
290
     0
176
     1
 90
       13
176
     1
 40
0.0
176
     1
 90
        0
176
     1
290
     0
176
     1
290
     1
176
     1
290
     1
176
     1
290
     0
176
     1
290
     0
176
     1
290
     0
176
     1
290
     0
176
     1
290
     0
176
     1
290
     0
176
     1
 90
       50
176
     1
 40
0.0
176
     1
 40
1.0
176
     1
 90
        0
176
     1
 62
    18
420
        0
176
     1
 90
       50
176
     1
 90
        3
176
     1
 62
     5
420
      255
176
     1
290
     0
176
     1
 90
       50
176
     1
 90
       50
176
     1
 90
       50
176
     1
290
     0
176
     1
 90
       50
176
     1
 62
   256
176
     0
 40
1.0
176
     0
 90
        2
176
     1
  1
strokes_ogs.tif
176
     1
290
     0
176
     1
 40
1.0
176
     1
 40
1.0
176
     1
  0
VISUALSTYLE
  5
3E
102
{ACAD_REACTORS
330
29
102
}
330
29
100
AcDbVisualStyle
  2
Shaded
 70
    27
177
     3
291
     0
 70
    58
 90
        2
176
     1
 90
        2
176
     1
 90
        1
176
     1
 90
        2
176
     1
 40
0.6
176
     1
 40
30.0
176
     1
 62
     7
420
 16777215
176
     1
 90
        0
176
     1
 90
        4
176
     1
 62
     7
176
     1
 62
   257
176
     1
 90
        1
176
     1
 90
        1
176
     1
 40
1.0
176
     1
 90
        8
176
     1
 62
   257
176
     1
 40
1.0
176
     1
 90
        1
176
     1
 90
        6
176
     1
 90
        2
176
     1
 62
     8
420
  7895160
176
     1
 90
        3
176
     1
 90
        0
176
     1
 90
        0
176
     1
290
     0
176
     1
 90
        5
176
     1
 40
0.0
176
     1
 90
        0
176
     1
290
     0
176
     1
290
     1
176
     1
290
     1
176
     1
290
     0
176
     1
290
     0
176
     1
290
     0
176
     1
290
     0
176
     1
290
     0
176
     1
290
     0
176
     1
 90
       50
176
     1
 40
0.0
176
     1
 40
1.0
176
     1
 90
        0
176
     1
 62
    18
420
        0
176
     1
 90
       50
176
     1
 90
        3
176
     1
 62
     5
420
      255
176
     1
290
     0
176
     1
 90
       50
176
     1
 90
       50
176
     1
 90
       50
176
     1
290
     0
176
     1
 90
       50
176
     1
 62
   256
176
     0
 40
1.0
176
     0
 90
        2
176
     1
  1
strokes_ogs.tif
176
     1
290
     0
176
     1
 40
1.0
176
     1
 40
1.0
176
     1
  0
VISUALSTYLE
  5
3D
102
{ACAD_REACTORS
330
29
102
}
330
29
100
AcDbVisualStyle
  2
Shaded with edges
 70
    26
177
     3
291
     0
 70
    58
 90
        2
176
     1
 90
        2
176
     1
 90
        1
176
     1
 90
        2
176
     1
 40
0.6
176
     1
 40
30.0
176
     1
 62
     7
420
 16777215
176
     1
 90
        1
176
     1
 90
        2
176
     1
 62
     7
176
     1
 62
   257
176
     1
 90
        2
176
     1
 90
        1
176
     1
 40
1.0
176
     1
 90
        8
176
     1
 62
   257
176
     1
 40
1.0
176
     1
 90
        1
176
     1
 90
        6
176
     1
 90
        2
176
     1
 62
     7
176
     1
 90
        3
176
     1
 90
        0
176
     1
 90
        0
176
     1
290
     0
176
     1
 90
        5
176
     1
 40
0.0
176
     1
 90
        0
176
     1
290
     0
176
     1
290
     1
176
     1
290
     1
176
     1
290
     0
176
     1
290
     0
176
     1
290
     0
176
     1
290
     0
176
     1
290
     0
176
     1
290
     0
176
     1
 90
       50
176
     1
 40
0.0
176
     1
 40
1.0
176
     1
 90
        0
176
     1
 62
    18
420
        0
176
     1
 90
       50
176
     1
 90
        3
176
     1
 62
     5
420
      255
176
     1
290
     0
176
     1
 90
       50
176
     1
 90
       50
176
     1
 90
       50
176
     1
290
     0
176
     1
 90
       50
176
     1
 62
   256
176
     0
 40
1.0
176
     0
 90
        2
176
     1
  1
strokes_ogs.tif
176
     1
290
     0
176
     1
 40
1.0
176
     1
 40
1.0
176
     1
  0
VISUALSTYLE
  5
3A
102
{ACAD_REACTORS
330
29
102
}
330
29
100
AcDbVisualStyle
  2
Shades of Gray
 70
    23
177
     3
291
     0
 70
    58
 90
        2
176
     1
 90
        2
176
     1
 90
        3
176
     1
 90
        0
176
     1
 40
0.6
176
     1
 40
30.0
176
     1
 62
     7
420
 16777215
176
     1
 90
        2
176
     1
 90
        2
176
     1
 62
     7
176
     1
 62
     7
176
     1
 90
        1
176
     1
 90
        1
176
     1
 40
40.0
176
     1
 90
        8
176
     1
 62
     7
176
     1
 40
1.0
176
     1
 90
        1
176
     1
 90
        6
176
     1
 90
        2
176
     1
 62
     7
176
     1
 90
        3
176
     1
 90
        0
176
     1
 90
        0
176
     1
290
     0
176
     1
 90
        1
176
     1
 40
0.0
176
     1
 90
        0
176
     1
290
     0
176
     1
290
     1
176
     1
290
     1
176
     1
290
     0
176
     1
290
     0
176
     1
290
     0
176
     1
290
     0
176
     1
290
     0
176
     1
290
     0
176
     1
 90
       50
176
     1
 40
0.0
176
     1
 40
1.0
176
     1
 90
        0
176
     1
 62
    18
420
        0
176
     1
 90
       50
176
     1
 90
        3
176
     1
 62
     5
420
      255
176
     1
290
     0
176
     1
 90
       50
176
     1
 90
       50
176
     1
 90
       50
176
     1
290
     0
176
     1
 90
       50
176
     1
 62
   256
176
     0
 40
1.0
176
     0
 90
        2
176
     1
  1
strokes_ogs.tif
176
     1
290
     0
176
     1
 40
1.0
176
     1
 40
1.0
176
     1
  0
VISUALSTYLE
  5
3B
102
{ACAD_REACTORS
330
29
102
}
330
29
100
AcDbVisualStyle
  2
Sketchy
 70
    24
177
     3
291
     0
 70
    58
 90
        1
176
     1
 90
        2
176
     1
 90
        2
176
     1
 90
        0
176
     1
 40
0.6
176
     1
 40
30.0
176
     1
 62
     7
420
 16777215
176
     1
 90
        2
176
     1
 90
        2
176
     1
 62
     7
176
     1
 62
     7
176
     1
 90
        1
176
     1
 90
        1
176
     1
 40
40.0
176
     1
 90
       11
176
     1
 62
     7
176
     1
 40
1.0
176
     1
 90
        1
176
     1
 90
        6
176
     1
 90
        2
176
     1
 62
     7
176
     1
 90
        6
176
     1
 90
        0
176
     1
 90
        0
176
     1
290
     0
176
     1
 90
        1
176
     1
 40
0.0
176
     1
 90
        0
176
     1
290
     0
176
     1
290
     1
176
     1
290
     1
176
     1
290
     0
176
     1
290
     0
176
     1
290
     0
176
     1
290
     0
176
     1
290
     0
176
     1
290
     0
176
     1
 90
       50
176
     1
 40
0.0
176
     1
 40
1.0
176
     1
 90
        0
176
     1
 62
    18
420
        0
176
     1
 90
       50
176
     1
 90
        3
176
     1
 62
     5
420
      255
176
     1
290
     0
176
     1
 90
       50
176
     1
 90
       50
176
     1
 90
       50
176
     1
290
     0
176
     1
 90
       50
176
     1
 62
   256
176
     0
 40
1.0
176
     0
 90
        2
176
     1
  1
strokes_ogs.tif
176
     1
290
     0
176
     1
 40
1.0
176
     1
 40
1.0
176
     1
  0
VISUALSTYLE
  5
36
102
{ACAD_REACTORS
330
29
102
}
330
29
100
AcDbVisualStyle
  2
Thicken
 70
    13
177
     3
291
     1
 70
    58
 90
        2
176
     1
 90
        2
176
     1
 90
        0
176
     1
 90
        0
176
     1
 40
0.6
176
     1
 40
30.0
176
     1
 62
     7
420
 16777215
176
     1
 90
        1
176
     1
 90
        4
176
     1
 62
     7
176
     1
 62
   257
176
     1
 90
        1
176
     1
 90
        1
176
     1
 40
1.0
176
     1
 90
       12
176
     1
 62
     7
176
     1
 40
1.0
176
     1
 90
        1
176
     1
 90
        6
176
     1
 90
        2
176
     1
 62
     7
176
     1
 90
        5
176
     1
 90
        0
176
     1
 90
        0
176
     1
290
     0
176
     1
 90
        1
176
     1
 40
0.0
176
     1
 90
        0
176
     1
290
     0
176
     1
290
     1
176
     1
290
     1
176
     1
290
     0
176
     1
290
     0
176
     1
290
     0
176
     1
290
     0
176
     1
290
     0
176
     1
290
     0
176
     1
 90
       50
176
     1
 40
0.0
176
     1
 40
1.0
176
     1
 90
        0
176
     1
 62
    18
420
        0
176
     1
 90
       50
176
     1
 90
        3
176
     1
 62
     5
420
      255
176
     1
290
     0
176
     1
 90
       50
176
     1
 90
       50
176
     1
 90
       50
176
     1
290
     0
176
     1
 90
       50
176
     1
 62
   256
176
     0
 40
1.0
176
     0
 90
        2
176
     1
  1
strokes_ogs.tif
176
     1
290
     0
176
     1
 40
1.0
176
     1
 40
1.0
176
     1
  0
VISUALSTYLE
  5
30
102
{ACAD_REACTORS
330
29
102
}
330
29
100
AcDbVisualStyle
  2
Wireframe
 70
     5
177
     3
291
     0
 70
    58
 90
        0
176
     1
 90
        2
176
     1
 90
        0
176
     1
 90
        0
176
     1
 40
0.6
176
     1
 40
30.0
176
     1
 62
     7
420
 16777215
176
     1
 90
        1
176
     1
 90
        4
176
     1
 62
     7
176
     1
 62
   257
176
     1
 90
        1
176
     1
 90
        1
176
     1
 40
1.0
176
     1
 90
        0
176
     1
 62
   257
176
     1
 40
1.0
176
     1
 90
        1
176
     1
 90
        6
176
     1
 90
        2
176
     1
 62
     7
176
     1
 90
        3
176
     1
 90
        0
176
     1
 90
        0
176
     1
290
     0
176
     1
 90
        1
176
     1
 40
0.0
176
     1
 90
        0
176
     1
290
     0
176
     1
290
     1
176
     1
290
     1
176
     1
290
     0
176
     1
290
     0
176
     1
290
     0
176
     1
290
     0
176
     1
290
     0
176
     1
290
     0
176
     1
 90
       50
176
     1
 40
0.0
176
     1
 40
1.0
176
     1
 90
        0
176
     1
 62
    18
420
        0
176
     1
 90
       50
176
     1
 90
        3
176
     1
 62
     5
420
      255
176
     1
290
     0
176
     1
 90
       50
176
     1
 90
       50
176
     1
 90
       50
176
     1
290
     0
176
     1
 90
       50
176
     1
 62
   256
176
     0
 40
1.0
176
     0
 90
        2
176
     1
  1
strokes_ogs.tif
176
     1
290
     0
176
     1
 40
1.0
176
     1
 40
1.0
176
     1
  0
VISUALSTYLE
  5
3C
102
{ACAD_REACTORS
330
29
102
}
330
29
100
AcDbVisualStyle
  2
X-Ray
 70
    25
177
     3
291
     0
 70
    58
 90
        2
176
     1
 90
        2
176
     1
 90
        1
176
     1
 90
        1
176
     1
 40
0.5
176
     1
 40
30.0
176
     1
 62
     7
420
 16777215
176
     1
 90
        1
176
     1
 90
        0
176
     1
 62
     7
176
     1
 62
   257
176
     1
 90
        1
176
     1
 90
        1
176
     1
 40
1.0
176
     1
 90
        8
176
     1
 62
     7
176
     1
 40
1.0
176
     1
 90
        1
176
     1
 90
        6
176
     1
 90
        2
176
     1
 62
     7
176
     1
 90
        3
176
     1
 90
        0
176
     1
 90
        0
176
     1
290
     0
176
     1
 90
       13
176
     1
 40
0.0
176
     1
 90
        0
176
     1
290
     0
176
     1
290
     1
176
     1
290
     1
176
     1
290
     0
176
     1
290
     0
176
     1
290
     0
176
     1
290
     0
176
     1
290
     0
176
     1
290
     0
176
     1
 90
       50
176
     1
 40
0.0
176
     1
 40
1.0
176
     1
 90
        0
176
     1
 62
    18
420
        0
176
     1
 90
       50
176
     1
 90
        3
176
     1
 62
     5
420
      255
176
     1
290
     0
176
     1
 90
       50
176
     1
 90
       50
176
     1
 90
       50
176
     1
290
     0
176
     1
 90
       50
176
     1
 62
   256
176
     0
 40
1.0
176
     0
 90
        2
176
     1
  1
strokes_ogs.tif
176
     1
290
     0
176
     1
 40
1.0
176
     1
 40
1.0
176
     1
  0
DICTIONARYVAR
  5
24B
102
{ACAD_REACTORS
330
246
102
}
330
246
100
DictionaryVariables
280
     0
  1
1:1
  0
DICTIONARYVAR
  5
248
102
{ACAD_REACTORS
330
246
102
}
330
246
100
DictionaryVariables
280
     0
  1
STANDARD
  0
DICTIONARYVAR
  5
247
102
{ACAD_REACTORS
330
246
102
}
330
246
100
DictionaryVariables
280
     0
  1
STANDARD
  0
DICTIONARYVAR
  5
249
102
{ACAD_REACTORS
330
246
102
}
330
246
100
DictionaryVariables
280
     0
  1
Imperial24
  0
DICTIONARYVAR
  5
24A
102
{ACAD_REACTORS
330
246
102
}
330
246
100
DictionaryVariables
280
     0
  1
Imperial24
  0
DICTIONARY
  5
1A
330
19
100
AcDbDictionary
280
     1
281
     1
  3
BUMPTILE
360
1C
  3
DIFFUSETILE
360
1B
  3
OPACITYTILE
360
1F
  3
REFLECTIONTILE
360
1E
  3
REFRACTIONTILE
360
20
  3
SPECULARTILE
360
1D
  0
DICTIONARY
  5
12
330
11
100
AcDbDictionary
280
     1
281
     1
  3
BUMPTILE
360
14
  3
DIFFUSETILE
360
13
  3
OPACITYTILE
360
17
  3
REFLECTIONTILE
360
16
  3
REFRACTIONTILE
360
18
  3
SPECULARTILE
360
15
  0
DICTIONARY
  5
22
330
21
100
AcDbDictionary
280
     1
281
     1
  3
BUMPTILE
360
24
  3
DIFFUSETILE
360
23
  3
OPACITYTILE
360
27
  3
REFLECTIONTILE
360
26
  3
REFRACTIONTILE
360
28
  3
SPECULARTILE
360
25
  0
DICTIONARY
  5
24C
330
65
100
AcDbDictionary
280
     1
281
     1
  3
ACAD_ROUNDTRIP_2008_TABLESTYLE_CELLSTYLEMAP
360
24D
  0
XRECORD
  5
1C
102
{ACAD_REACTORS
330
1A
102
}
330
1A
100
AcDbXrecord
280
     1
270
     1
271
     1
  0
XRECORD
  5
1B
102
{ACAD_REACTORS
330
1A
102
}
330
1A
100
AcDbXrecord
280
     1
270
     1
271
     1
  0
XRECORD
  5
1F
102
{ACAD_REACTORS
330
1A
102
}
330
1A
100
AcDbXrecord
280
     1
270
     1
271
     1
  0
XRECORD
  5
1E
102
{ACAD_REACTORS
330
1A
102
}
330
1A
100
AcDbXrecord
280
     1
270
     1
271
     1
  0
XRECORD
  5
20
102
{ACAD_REACTORS
330
1A
102
}
330
1A
100
AcDbXrecord
280
     1
270
     1
271
     1
  0
XRECORD
  5
1D
102
{ACAD_REACTORS
330
1A
102
}
330
1A
100
AcDbXrecord
280
     1
270
     1
271
     1
  0
XRECORD
  5
14
102
{ACAD_REACTORS
330
12
102
}
330
12
100
AcDbXrecord
280
     1
270
     1
271
     1
  0
XRECORD
  5
13
102
{ACAD_REACTORS
330
12
102
}
330
12
100
AcDbXrecord
280
     1
270
     1
271
     1
  0
XRECORD
  5
17
102
{ACAD_REACTORS
330
12
102
}
330
12
100
AcDbXrecord
280
     1
270
     1
271
     1
  0
XRECORD
  5
16
102
{ACAD_REACTORS
330
12
102
}
330
12
100
AcDbXrecord
280
     1
270
     1
271
     1
  0
XRECORD
  5
18
102
{ACAD_REACTORS
330
12
102
}
330
12
100
AcDbXrecord
280
     1
270
     1
271
     1
  0
XRECORD
  5
15
102
{ACAD_REACTORS
330
12
102
}
330
12
100
AcDbXrecord
280
     1
270
     1
271
     1
  0
XRECORD
  5
24
102
{ACAD_REACTORS
330
22
102
}
330
22
100
AcDbXrecord
280
     1
270
     1
271
     1
  0
XRECORD
  5
23
102
{ACAD_REACTORS
330
22
102
}
330
22
100
AcDbXrecord
280
     1
270
     1
271
     1
  0
XRECORD
  5
27
102
{ACAD_REACTORS
330
22
102
}
330
22
100
AcDbXrecord
280
     1
270
     1
271
     1
  0
XRECORD
  5
26
102
{ACAD_REACTORS
330
22
102
}
330
22
100
AcDbXrecord
280
     1
270
     1
271
     1
  0
XRECORD
  5
28
102
{ACAD_REACTORS
330
22
102
}
330
22
100
AcDbXrecord
280
     1
270
     1
271
     1
  0
XRECORD
  5
25
102
{ACAD_REACTORS
330
22
102
}
330
22
100
AcDbXrecord
280
     1
270
     1
271
     1
  0
CELLSTYLEMAP
  5
24D
102
{ACAD_REACTORS
330
24C
102
}
330
24C
100
AcDbCellStyleMap
 90
        3
300
CELLSTYLE
  1
TABLEFORMAT_BEGIN
 90
        5
170
     1
 91
        0
 92
    32768
 62
   257
 93
        1
300
CONTENTFORMAT
  1
CONTENTFORMAT_BEGIN
 90
        0
 91
        0
 92
      512
 93
        0
300

 40
0.0
140
1.0
 94
        5
 62
     0
340
55
144
0.25
309
CONTENTFORMAT_END
171
     0
 94
        0
309
TABLEFORMAT_END
  1
CELLSTYLE_BEGIN
 90
        1
 91
        1
300
_TITLE
309
CELLSTYLE_END
300
CELLSTYLE
  1
TABLEFORMAT_BEGIN
 90
        5
170
     1
 91
        0
 92
        0
 62
   257
 93
        1
300
CONTENTFORMAT
  1
CONTENTFORMAT_BEGIN
 90
        0
 91
        0
 92
      512
 93
        0
300

 40
0.0
140
1.0
 94
        5
 62
     0
340
55
144
0.18
309
CONTENTFORMAT_END
171
     0
 94
        0
309
TABLEFORMAT_END
  1
CELLSTYLE_BEGIN
 90
        2
 91
        1
300
_HEADER
309
CELLSTYLE_END
300
CELLSTYLE
  1
TABLEFORMAT_BEGIN
 90
        5
170
     1
 91
        0
 92
        0
 62
   257
 93
        1
300
CONTENTFORMAT
  1
CONTENTFORMAT_BEGIN
 90
        0
 91
        0
 92
      512
 93
        0
300

 40
0.0
140
1.0
 94
        2
 62
     0
340
55
144
0.18
309
CONTENTFORMAT_END
171
     0
 94
        0
309
TABLEFORMAT_END
  1
CELLSTYLE_BEGIN
 90
        3
 91
        2
300
_DATA
309
CELLSTYLE_END
  0
ENDSEC
  0
EOF
