  0
SECTION
  2
HEADER
  9
$ACADVER
  1
AC1032
  9
$ACADMAINTVER
 90
      228
  9
$DWGCODEPAGE
  3
ANSI_932
  9
$REQUIREDVERSIONS
160
                 0
  9
$INSBASE
 10
0.0
 20
0.0
 30
0.0
  9
$EXTMIN
 10
1.000000000000000E+20
 20
1.000000000000000E+20
 30
1.000000000000000E+20
  9
$EXTMAX
 10
-1.000000000000000E+20
 20
-1.000000000000000E+20
 30
-1.000000000000000E+20
  9
$LIMMIN
 10
0.0
 20
0.0
  9
$LIMMAX
 10
12.0
 20
9.0
  9
$ORTHOMODE
 70
     0
  9
$REGENMODE
 70
     1
  9
$FILLMODE
 70
     1
  9
$QTEXTMODE
 70
     0
  9
$MIRRTEXT
 70
     0
  9
$LTSCALE
 40
1.0
  9
$ATTMODE
 70
     1
  9
$TEXTSIZE
 40
0.2
  9
$TRACEWID
 40
0.05
  9
$TEXTSTYLE
  7
Standard
  9
$CLAYER
  8
0
  9
$CELTYPE
  6
ByLayer
  9
$CECOLOR
 62
   256
  9
$CELTSCALE
 40
1.0
  9
$DISPSILH
 70
     0
  9
$DIMSCALE
 40
1.0
  9
$DIMASZ
 40
0.18
  9
$DIMEXO
 40
0.0625
  9
$DIMDLI
 40
0.38
  9
$DIMRND
 40
0.0
  9
$DIMDLE
 40
0.0
  9
$DIMEXE
 40
0.18
  9
$DIMTP
 40
0.0
  9
$DIMTM
 40
0.0
  9
$DIMTXT
 40
0.18
  9
$DIMCEN
 40
0.09
  9
$DIMTSZ
 40
0.0
  9
$DIMTOL
 70
     0
  9
$DIMLIM
 70
     0
  9
$DIMTIH
 70
     1
  9
$DIMTOH
 70
     1
  9
$DIMSE1
 70
     0
  9
$DIMSE2
 70
     0
  9
$DIMTAD
 70
     0
  9
$DIMZIN
 70
     0
  9
$DIMBLK
  1

  9
$DIMASO
 70
     1
  9
$DIMSHO
 70
     1
  9
$DIMPOST
  1

  9
$DIMAPOST
  1

  9
$DIMALT
 70
     0
  9
$DIMALTD
 70
     2
  9
$DIMALTF
 40
25.4
  9
$DIMLFAC
 40
1.0
  9
$DIMTOFL
 70
     0
  9
$DIMTVP
 40
0.0
  9
$DIMTIX
 70
     0
  9
$DIMSOXD
 70
     0
  9
$DIMSAH
 70
     0
  9
$DIMBLK1
  1

  9
$DIMBLK2
  1

  9
$DIMSTYLE
  2
Standard
  9
$DIMCLRD
 70
     0
  9
$DIMCLRE
 70
     0
  9
$DIMCLRT
 70
     0
  9
$DIMTFAC
 40
1.0
  9
$DIMGAP
 40
0.09
  9
$DIMJUST
 70
     0
  9
$DIMSD1
 70
     0
  9
$DIMSD2
 70
     0
  9
$DIMTOLJ
 70
     1
  9
$DIMTZIN
 70
     0
  9
$DIMALTZ
 70
     0
  9
$DIMALTTZ
 70
     0
  9
$DIMUPT
 70
     0
  9
$DIMDEC
 70
     4
  9
$DIMTDEC
 70
     4
  9
$DIMALTU
 70
     2
  9
$DIMALTTD
 70
     2
  9
$DIMTXSTY
  7
Standard
  9
$DIMAUNIT
 70
     0
  9
$DIMADEC
 70
     0
  9
$DIMALTRND
 40
0.0
  9
$DIMAZIN
 70
     0
  9
$DIMDSEP
 70
    46
  9
$DIMATFIT
 70
     3
  9
$DIMFRAC
 70
     0
  9
$DIMLDRBLK
  1

  9
$DIMLUNIT
 70
     2
  9
$DIMLWD
 70
    -2
  9
$DIMLWE
 70
    -2
  9
$DIMTMOVE
 70
     0
  9
$DIMFXL
 40
1.0
  9
$DIMFXLON
 70
     0
  9
$DIMJOGANG
 40
0.7853981633974483
  9
$DIMTFILL
 70
     0
  9
$DIMTFILLCLR
 70
     0
  9
$DIMARCSYM
 70
     0
  9
$DIMLTYPE
  6

  9
$DIMLTEX1
  6

  9
$DIMLTEX2
  6

  9
$DIMTXTDIRECTION
 70
     0
  9
$LUNITS
 70
     2
  9
$LUPREC
 70
     4
  9
$SKETCHINC
 40
0.1
  9
$FILLETRAD
 40
0.0
  9
$AUNITS
 70
     0
  9
$AUPREC
 70
     0
  9
$MENU
  1
.
  9
$ELEVATION
 40
0.0
  9
$PELEVATION
 40
0.0
  9
$THICKNESS
 40
0.0
  9
$LIMCHECK
 70
     0
  9
$CHAMFERA
 40
0.0
  9
$CHAMFERB
 40
0.0
  9
$CHAMFERC
 40
0.0
  9
$CHAMFERD
 40
0.0
  9
$SKPOLY
 70
     0
  9
$TDCREATE
 40
2460062.573993056
  9
$TDUCREATE
 40
2460062.198993056
  9
$TDUPDATE
 40
2460062.573993056
  9
$TDUUPDATE
 40
2460062.198993056
  9
$TDINDWG
 40
0.0000115741
  9
$TDUSRTIMER
 40
0.0000115741
  9
$USRTIMER
 70
     1
  9
$ANGBASE
 50
0.0
  9
$ANGDIR
 70
     0
  9
$PDMODE
 70
     0
  9
$PDSIZE
 40
0.0
  9
$PLINEWID
 40
0.0
  9
$SPLFRAME
 70
     0
  9
$SPLINETYPE
 70
     6
  9
$SPLINESEGS
 70
     8
  9
$HANDSEED
  5
250
  9
$SURFTAB1
 70
     6
  9
$SURFTAB2
 70
     6
  9
$SURFTYPE
 70
     6
  9
$SURFU
 70
     6
  9
$SURFV
 70
     6
  9
$UCSBASE
  2

  9
$UCSNAME
  2

  9
$UCSORG
 10
0.0
 20
0.0
 30
0.0
  9
$UCSXDIR
 10
1.0
 20
0.0
 30
0.0
  9
$UCSYDIR
 10
0.0
 20
1.0
 30
0.0
  9
$UCSORTHOREF
  2

  9
$UCSORTHOVIEW
 70
     0
  9
$UCSORGTOP
 10
0.0
 20
0.0
 30
0.0
  9
$UCSORGBOTTOM
 10
0.0
 20
0.0
 30
0.0
  9
$UCSORGLEFT
 10
0.0
 20
0.0
 30
0.0
  9
$UCSORGRIGHT
 10
0.0
 20
0.0
 30
0.0
  9
$UCSORGFRONT
 10
0.0
 20
0.0
 30
0.0
  9
$UCSORGBACK
 10
0.0
 20
0.0
 30
0.0
  9
$PUCSBASE
  2

  9
$PUCSNAME
  2

  9
$PUCSORG
 10
0.0
 20
0.0
 30
0.0
  9
$PUCSXDIR
 10
1.0
 20
0.0
 30
0.0
  9
$PUCSYDIR
 10
0.0
 20
1.0
 30
0.0
  9
$PUCSORTHOREF
  2

  9
$PUCSORTHOVIEW
 70
     0
  9
$PUCSORGTOP
 10
0.0
 20
0.0
 30
0.0
  9
$PUCSORGBOTTOM
 10
0.0
 20
0.0
 30
0.0
  9
$PUCSORGLEFT
 10
0.0
 20
0.0
 30
0.0
  9
$PUCSORGRIGHT
 10
0.0
 20
0.0
 30
0.0
  9
$PUCSORGFRONT
 10
0.0
 20
0.0
 30
0.0
  9
$PUCSORGBACK
 10
0.0
 20
0.0
 30
0.0
  9
$USERI1
 70
     0
  9
$USERI2
 70
     0
  9
$USERI3
 70
     0
  9
$USERI4
 70
     0
  9
$USERI5
 70
     0
  9
$USERR1
 40
0.0
  9
$USERR2
 40
0.0
  9
$USERR3
 40
0.0
  9
$USERR4
 40
0.0
  9
$USERR5
 40
0.0
  9
$WORLDVIEW
 70
     1
  9
$SHADEDGE
 70
     3
  9
$SHADEDIF
 70
    70
  9
$TILEMODE
 70
     1
  9
$MAXACTVP
 70
    64
  9
$PINSBASE
 10
0.0
 20
0.0
 30
0.0
  9
$PLIMCHECK
 70
     0
  9
$PEXTMIN
 10
1.000000000000000E+20
 20
1.000000000000000E+20
 30
1.000000000000000E+20
  9
$PEXTMAX
 10
-1.000000000000000E+20
 20
-1.000000000000000E+20
 30
-1.000000000000000E+20
  9
$PLIMMIN
 10
0.0
 20
0.0
  9
$PLIMMAX
 10
12.0
 20
9.0
  9
$UNITMODE
 70
     0
  9
$VISRETAIN
 70
     1
  9
$PLINEGEN
 70
     0
  9
$PSLTSCALE
 70
     1
  9
$TREEDEPTH
 70
  3020
  9
$CMLSTYLE
  2
Standard
  9
$CMLJUST
 70
     0
  9
$CMLSCALE
 40
1.0
  9
$PROXYGRAPHICS
 70
     1
  9
$MEASUREMENT
 70
     0
  9
$CELWEIGHT
370
    -1
  9
$ENDCAPS
280
     0
  9
$JOINSTYLE
280
     0
  9
$LWDISPLAY
290
     1
  9
$INSUNITS
 70
     4
  9
$HYPERLINKBASE
  1

  9
$STYLESHEET
  1

  9
$XEDIT
290
     1
  9
$CEPSNTYPE
380
     0
  9
$PSTYLEMODE
290
     1
  9
$FINGERPRINTGUID
  2
{C22533DD-203E-8445-BDD2-0F5F015FA61B}
  9
$VERSIONGUID
  2
{0941B924-B1B9-6144-B442-5B638A92AC63}
  9
$EXTNAMES
290
     1
  9
$PSVPSCALE
 40
0.0
  9
$OLESTARTUP
290
     0
  9
$SORTENTS
280
   127
  9
$INDEXCTL
280
     0
  9
$HIDETEXT
280
     1
  9
$XCLIPFRAME
280
     2
  9
$HALOGAP
280
     0
  9
$OBSCOLOR
 70
   257
  9
$OBSLTYPE
280
     0
  9
$INTERSECTIONDISPLAY
280
     0
  9
$INTERSECTIONCOLOR
 70
   257
  9
$DIMASSOC
280
     2
  9
$PROJECTNAME
  1

  9
$CAMERADISPLAY
290
     0
  9
$LENSLENGTH
 40
50.0
  9
$CAMERAHEIGHT
 40
0.0
  9
$STEPSPERSEC
 40
2.0
  9
$STEPSIZE
 40
6.0
  9
$3DDWFPREC
 40
2.0
  9
$PSOLWIDTH
 40
0.25
  9
$PSOLHEIGHT
 40
4.0
  9
$LOFTANG1
 40
1.570796326794896
  9
$LOFTANG2
 40
1.570796326794896
  9
$LOFTMAG1
 40
0.0
  9
$LOFTMAG2
 40
0.0
  9
$LOFTPARAM
 70
     7
  9
$LOFTNORMALS
280
     1
  9
$LATITUDE
 40
37.795
  9
$LONGITUDE
 40
-122.394
  9
$NORTHDIRECTION
 40
0.0
  9
$TIMEZONE
 70
 -8000
  9
$LIGHTGLYPHDISPLAY
280
     1
  9
$TILEMODELIGHTSYNCH
280
     1
  9
$CMATERIAL
347
11
  9
$SOLIDHIST
280
     0
  9
$SHOWHIST
280
     1
  9
$DWFFRAME
280
     2
  9
$DGNFRAME
280
     0
  9
$REALWORLDSCALE
290
     1
  9
$INTERFERECOLOR
 62
     1
  9
$INTERFEREOBJVS
345
33
  9
$INTERFEREVPVS
346
30
  9
$CSHADOW
280
     0
  9
$SHADOWPLANELOCATION
 40
0.0
  0
ENDSEC
  0
SECTION
  2
CLASSES
  0
CLASS
  1
ACDBDICTIONARYWDFLT
  2
AcDbDictionaryWithDefault
  3
ObjectDBX Classes
 90
        0
 91
        1
280
     0
281
     0
  0
CLASS
  1
MATERIAL
  2
AcDbMaterial
  3
ObjectDBX Classes
 90
     1153
 91
        3
280
     0
281
     0
  0
CLASS
  1
VISUALSTYLE
  2
AcDbVisualStyle
  3
ObjectDBX Classes
 90
     4095
 91
       24
280
     0
281
     0
  0
CLASS
  1
SCALE
  2
AcDbScale
  3
ObjectDBX Classes
 90
     1153
 91
       17
280
     0
281
     0
  0
CLASS
  1
TABLESTYLE
  2
AcDbTableStyle
  3
ObjectDBX Classes
 90
     4095
 91
        1
280
     0
281
     0
  0
CLASS
  1
MLEADERSTYLE
  2
AcDbMLeaderStyle
  3
ACDB_MLEADERSTYLE_CLASS
 90
     4095
 91
        1
280
     0
281
     0
  0
CLASS
  1
ACDBSECTIONVIEWSTYLE
  2
AcDbSectionViewStyle
  3
ObjectDBX Classes
 90
     1025
 91
        1
280
     0
281
     0
  0
CLASS
  1
ACDBDETAILVIEWSTYLE
  2
AcDbDetailViewStyle
  3
ObjectDBX Classes
 90
     1025
 91
        1
280
     0
281
     0
  0
CLASS
  1
DICTIONARYVAR
  2
AcDbDictionaryVar
  3
ObjectDBX Classes
 90
        0
 91
        5
280
     0
281
     0
  0
CLASS
  1
CELLSTYLEMAP
  2
AcDbCellStyleMap
  3
ObjectDBX Classes
 90
     1152
 91
        1
280
     0
281
     0
  0
ENDSEC
  0
SECTION
  2
TABLES
  0
TABLE
  2
VPORT
  5
8
330
0
100
AcDbSymbolTable
 70
     1
  0
VPORT
  5
57
330
8
100
AcDbSymbolTableRecord
100
AcDbViewportTableRecord
  2
*Active
 70
     0
 10
0.0
 20
0.0
 11
1.0
 21
1.0
 12
0.0
 22
0.0
 13
0.0
 23
0.0
 14
1.0
 24
1.0
 15
0.0
 25
0.0
 16
0.0
 26
0.0
 36
1.0
 17
338.666666582
 27
190.4999999523751
 37
0.0
 40
388.8749999028449
 41
1.776612021857632
 42
50.0
 43
0.0
 44
0.0
 50
0.0
 51
0.0
 71
     0
 72
   100
 73
     1
 74
     1
 75
     0
 76
     0
 77
     0
 78
     0
281
     0
 65
     1
110
0.0
120
0.0
130
0.0
111
1.0
121
0.0
131
0.0
112
0.0
122
1.0
132
0.0
 79
     0
146
0.0
 60
     3
 61
     5
292
     1
282
     1
141
0.0
142
0.0
 63
   250
421
  3355443
  0
ENDTAB
  0
TABLE
  2
LTYPE
  5
5
330
0
100
AcDbSymbolTable
 70
    34
  0
LTYPE
  5
5B
330
5
100
AcDbSymbolTableRecord
100
AcDbLinetypeTableRecord
  2
ByBlock
 70
     0
  3

 72
    65
 73
     0
 40
0.0
  0
LTYPE
  5
5C
330
5
100
AcDbSymbolTableRecord
100
AcDbLinetypeTableRecord
  2
ByLayer
 70
     0
  3

 72
    65
 73
     0
 40
0.0
  0
LTYPE
  5
5D
330
5
100
AcDbSymbolTableRecord
100
AcDbLinetypeTableRecord
  2
Continuous
 70
     0
  3
Solid line
 72
    65
 73
     0
 40
0.0
  0
LTYPE
  5
205
330
5
100
AcDbSymbolTableRecord
100
AcDbLinetypeTableRecord
  2
AI-Linetype-0
 70
     0
  3
Adobe Illustrator Linetype No. 0
 72
    65
 73
     6
 40
28.83309416579927
 49
14.41654708289963
 74
     0
 49
-3.604136770724908
 74
     0
 49
1.802068385362454
 74
     0
 49
-3.604136770724908
 74
     0
 49
1.802068385362454
 74
     0
 49
-3.604136770724908
 74
     0
  0
LTYPE
  5
207
330
5
100
AcDbSymbolTableRecord
100
AcDbLinetypeTableRecord
  2
AI-Linetype-1
 70
     0
  3
Adobe Illustrator Linetype No. 1
 72
    65
 73
     6
 40
28.83309416579927
 49
14.41654708289963
 74
     0
 49
-3.604136770724908
 74
     0
 49
1.802068385362454
 74
     0
 49
-3.604136770724908
 74
     0
 49
1.802068385362454
 74
     0
 49
-3.604136770724908
 74
     0
  0
LTYPE
  5
209
330
5
100
AcDbSymbolTableRecord
100
AcDbLinetypeTableRecord
  2
AI-Linetype-2
 70
     0
  3
Adobe Illustrator Linetype No. 2
 72
    65
 73
     6
 40
28.83309416579927
 49
14.41654708289963
 74
     0
 49
-3.604136770724908
 74
     0
 49
1.802068385362454
 74
     0
 49
-3.604136770724908
 74
     0
 49
1.802068385362454
 74
     0
 49
-3.604136770724908
 74
     0
  0
LTYPE
  5
20B
330
5
100
AcDbSymbolTableRecord
100
AcDbLinetypeTableRecord
  2
AI-Linetype-3
 70
     0
  3
Adobe Illustrator Linetype No. 3
 72
    65
 73
     6
 40
28.83309416579927
 49
14.41654708289963
 74
     0
 49
-3.604136770724908
 74
     0
 49
1.802068385362454
 74
     0
 49
-3.604136770724908
 74
     0
 49
1.802068385362454
 74
     0
 49
-3.604136770724908
 74
     0
  0
LTYPE
  5
20D
330
5
100
AcDbSymbolTableRecord
100
AcDbLinetypeTableRecord
  2
AI-Linetype-4
 70
     0
  3
Adobe Illustrator Linetype No. 4
 72
    65
 73
     6
 40
28.83309416579927
 49
14.41654708289963
 74
     0
 49
-3.604136770724908
 74
     0
 49
1.802068385362454
 74
     0
 49
-3.604136770724908
 74
     0
 49
1.802068385362454
 74
     0
 49
-3.604136770724908
 74
     0
  0
LTYPE
  5
20F
330
5
100
AcDbSymbolTableRecord
100
AcDbLinetypeTableRecord
  2
AI-Linetype-5
 70
     0
  3
Adobe Illustrator Linetype No. 5
 72
    65
 73
     6
 40
28.83309416579927
 49
14.41654708289963
 74
     0
 49
-3.604136770724908
 74
     0
 49
1.802068385362454
 74
     0
 49
-3.604136770724908
 74
     0
 49
1.802068385362454
 74
     0
 49
-3.604136770724908
 74
     0
  0
LTYPE
  5
211
330
5
100
AcDbSymbolTableRecord
100
AcDbLinetypeTableRecord
  2
AI-Linetype-6
 70
     0
  3
Adobe Illustrator Linetype No. 6
 72
    65
 73
     6
 40
28.83309416579927
 49
14.41654708289963
 74
     0
 49
-3.604136770724908
 74
     0
 49
1.802068385362454
 74
     0
 49
-3.604136770724908
 74
     0
 49
1.802068385362454
 74
     0
 49
-3.604136770724908
 74
     0
  0
LTYPE
  5
213
330
5
100
AcDbSymbolTableRecord
100
AcDbLinetypeTableRecord
  2
AI-Linetype-7
 70
     0
  3
Adobe Illustrator Linetype No. 7
 72
    65
 73
     6
 40
28.83309416579927
 49
14.41654708289963
 74
     0
 49
-3.604136770724908
 74
     0
 49
1.802068385362454
 74
     0
 49
-3.604136770724908
 74
     0
 49
1.802068385362454
 74
     0
 49
-3.604136770724908
 74
     0
  0
LTYPE
  5
215
330
5
100
AcDbSymbolTableRecord
100
AcDbLinetypeTableRecord
  2
AI-Linetype-8
 70
     0
  3
Adobe Illustrator Linetype No. 8
 72
    65
 73
     6
 40
28.83309416579927
 49
14.41654708289963
 74
     0
 49
-3.604136770724908
 74
     0
 49
1.802068385362454
 74
     0
 49
-3.604136770724908
 74
     0
 49
1.802068385362454
 74
     0
 49
-3.604136770724908
 74
     0
  0
LTYPE
  5
217
330
5
100
AcDbSymbolTableRecord
100
AcDbLinetypeTableRecord
  2
AI-Linetype-9
 70
     0
  3
Adobe Illustrator Linetype No. 9
 72
    65
 73
     6
 40
28.83309416579927
 49
14.41654708289963
 74
     0
 49
-3.604136770724908
 74
     0
 49
1.802068385362454
 74
     0
 49
-3.604136770724908
 74
     0
 49
1.802068385362454
 74
     0
 49
-3.604136770724908
 74
     0
  0
LTYPE
  5
219
330
5
100
AcDbSymbolTableRecord
100
AcDbLinetypeTableRecord
  2
AI-Linetype-10
 70
     0
  3
Adobe Illustrator Linetype No. 10
 72
    65
 73
     6
 40
28.83309416579927
 49
14.41654708289963
 74
     0
 49
-3.604136770724908
 74
     0
 49
1.802068385362454
 74
     0
 49
-3.604136770724908
 74
     0
 49
1.802068385362454
 74
     0
 49
-3.604136770724908
 74
     0
  0
LTYPE
  5
21B
330
5
100
AcDbSymbolTableRecord
100
AcDbLinetypeTableRecord
  2
AI-Linetype-11
 70
     0
  3
Adobe Illustrator Linetype No. 11
 72
    65
 73
     6
 40
28.83309416579927
 49
14.41654708289963
 74
     0
 49
-3.604136770724908
 74
     0
 49
1.802068385362454
 74
     0
 49
-3.604136770724908
 74
     0
 49
1.802068385362454
 74
     0
 49
-3.604136770724908
 74
     0
  0
LTYPE
  5
21D
330
5
100
AcDbSymbolTableRecord
100
AcDbLinetypeTableRecord
  2
AI-Linetype-12
 70
     0
  3
Adobe Illustrator Linetype No. 12
 72
    65
 73
     6
 40
28.83309416579927
 49
14.41654708289963
 74
     0
 49
-3.604136770724908
 74
     0
 49
1.802068385362454
 74
     0
 49
-3.604136770724908
 74
     0
 49
1.802068385362454
 74
     0
 49
-3.604136770724908
 74
     0
  0
LTYPE
  5
21F
330
5
100
AcDbSymbolTableRecord
100
AcDbLinetypeTableRecord
  2
AI-Linetype-13
 70
     0
  3
Adobe Illustrator Linetype No. 13
 72
    65
 73
     6
 40
28.83309416579927
 49
14.41654708289963
 74
     0
 49
-3.604136770724908
 74
     0
 49
1.802068385362454
 74
     0
 49
-3.604136770724908
 74
     0
 49
1.802068385362454
 74
     0
 49
-3.604136770724908
 74
     0
  0
LTYPE
  5
221
330
5
100
AcDbSymbolTableRecord
100
AcDbLinetypeTableRecord
  2
AI-Linetype-14
 70
     0
  3
Adobe Illustrator Linetype No. 14
 72
    65
 73
     6
 40
28.83309416579927
 49
14.41654708289963
 74
     0
 49
-3.604136770724908
 74
     0
 49
1.802068385362454
 74
     0
 49
-3.604136770724908
 74
     0
 49
1.802068385362454
 74
     0
 49
-3.604136770724908
 74
     0
  0
LTYPE
  5
223
330
5
100
AcDbSymbolTableRecord
100
AcDbLinetypeTableRecord
  2
AI-Linetype-15
 70
     0
  3
Adobe Illustrator Linetype No. 15
 72
    65
 73
     6
 40
28.83309416579927
 49
14.41654708289963
 74
     0
 49
-3.604136770724908
 74
     0
 49
1.802068385362454
 74
     0
 49
-3.604136770724908
 74
     0
 49
1.802068385362454
 74
     0
 49
-3.604136770724908
 74
     0
  0
LTYPE
  5
225
330
5
100
AcDbSymbolTableRecord
100
AcDbLinetypeTableRecord
  2
AI-Linetype-16
 70
     0
  3
Adobe Illustrator Linetype No. 16
 72
    65
 73
     6
 40
28.83309416579927
 49
14.41654708289963
 74
     0
 49
-3.604136770724908
 74
     0
 49
1.802068385362454
 74
     0
 49
-3.604136770724908
 74
     0
 49
1.802068385362454
 74
     0
 49
-3.604136770724908
 74
     0
  0
LTYPE
  5
227
330
5
100
AcDbSymbolTableRecord
100
AcDbLinetypeTableRecord
  2
AI-Linetype-17
 70
     0
  3
Adobe Illustrator Linetype No. 17
 72
    65
 73
     6
 40
28.83309416579927
 49
14.41654708289963
 74
     0
 49
-3.604136770724908
 74
     0
 49
1.802068385362454
 74
     0
 49
-3.604136770724908
 74
     0
 49
1.802068385362454
 74
     0
 49
-3.604136770724908
 74
     0
  0
LTYPE
  5
229
330
5
100
AcDbSymbolTableRecord
100
AcDbLinetypeTableRecord
  2
AI-Linetype-18
 70
     0
  3
Adobe Illustrator Linetype No. 18
 72
    65
 73
     6
 40
28.83309416579927
 49
14.41654708289963
 74
     0
 49
-3.604136770724908
 74
     0
 49
1.802068385362454
 74
     0
 49
-3.604136770724908
 74
     0
 49
1.802068385362454
 74
     0
 49
-3.604136770724908
 74
     0
  0
LTYPE
  5
22B
330
5
100
AcDbSymbolTableRecord
100
AcDbLinetypeTableRecord
  2
AI-Linetype-19
 70
     0
  3
Adobe Illustrator Linetype No. 19
 72
    65
 73
     6
 40
28.83309416579927
 49
14.41654708289963
 74
     0
 49
-3.604136770724908
 74
     0
 49
1.802068385362454
 74
     0
 49
-3.604136770724908
 74
     0
 49
1.802068385362454
 74
     0
 49
-3.604136770724908
 74
     0
  0
LTYPE
  5
22D
330
5
100
AcDbSymbolTableRecord
100
AcDbLinetypeTableRecord
  2
AI-Linetype-20
 70
     0
  3
Adobe Illustrator Linetype No. 20
 72
    65
 73
     6
 40
28.83309416579927
 49
14.41654708289963
 74
     0
 49
-3.604136770724908
 74
     0
 49
1.802068385362454
 74
     0
 49
-3.604136770724908
 74
     0
 49
1.802068385362454
 74
     0
 49
-3.604136770724908
 74
     0
  0
LTYPE
  5
22F
330
5
100
AcDbSymbolTableRecord
100
AcDbLinetypeTableRecord
  2
AI-Linetype-21
 70
     0
  3
Adobe Illustrator Linetype No. 21
 72
    65
 73
     6
 40
28.83309416579927
 49
14.41654708289963
 74
     0
 49
-3.604136770724908
 74
     0
 49
1.802068385362454
 74
     0
 49
-3.604136770724908
 74
     0
 49
1.802068385362454
 74
     0
 49
-3.604136770724908
 74
     0
  0
LTYPE
  5
231
330
5
100
AcDbSymbolTableRecord
100
AcDbLinetypeTableRecord
  2
AI-Linetype-22
 70
     0
  3
Adobe Illustrator Linetype No. 22
 72
    65
 73
     6
 40
28.83309416579927
 49
14.41654708289963
 74
     0
 49
-3.604136770724908
 74
     0
 49
1.802068385362454
 74
     0
 49
-3.604136770724908
 74
     0
 49
1.802068385362454
 74
     0
 49
-3.604136770724908
 74
     0
  0
LTYPE
  5
233
330
5
100
AcDbSymbolTableRecord
100
AcDbLinetypeTableRecord
  2
AI-Linetype-23
 70
     0
  3
Adobe Illustrator Linetype No. 23
 72
    65
 73
     6
 40
28.83309416579927
 49
14.41654708289963
 74
     0
 49
-3.604136770724908
 74
     0
 49
1.802068385362454
 74
     0
 49
-3.604136770724908
 74
     0
 49
1.802068385362454
 74
     0
 49
-3.604136770724908
 74
     0
  0
LTYPE
  5
235
330
5
100
AcDbSymbolTableRecord
100
AcDbLinetypeTableRecord
  2
AI-Linetype-24
 70
     0
  3
Adobe Illustrator Linetype No. 24
 72
    65
 73
     6
 40
28.83309416579927
 49
14.41654708289963
 74
     0
 49
-3.604136770724908
 74
     0
 49
1.802068385362454
 74
     0
 49
-3.604136770724908
 74
     0
 49
1.802068385362454
 74
     0
 49
-3.604136770724908
 74
     0
  0
LTYPE
  5
237
330
5
100
AcDbSymbolTableRecord
100
AcDbLinetypeTableRecord
  2
AI-Linetype-25
 70
     0
  3
Adobe Illustrator Linetype No. 25
 72
    65
 73
     6
 40
28.83309416579927
 49
14.41654708289963
 74
     0
 49
-3.604136770724908
 74
     0
 49
1.802068385362454
 74
     0
 49
-3.604136770724908
 74
     0
 49
1.802068385362454
 74
     0
 49
-3.604136770724908
 74
     0
  0
LTYPE
  5
239
330
5
100
AcDbSymbolTableRecord
100
AcDbLinetypeTableRecord
  2
AI-Linetype-26
 70
     0
  3
Adobe Illustrator Linetype No. 26
 72
    65
 73
     6
 40
28.83309416579927
 49
14.41654708289963
 74
     0
 49
-3.604136770724908
 74
     0
 49
1.802068385362454
 74
     0
 49
-3.604136770724908
 74
     0
 49
1.802068385362454
 74
     0
 49
-3.604136770724908
 74
     0
  0
LTYPE
  5
23B
330
5
100
AcDbSymbolTableRecord
100
AcDbLinetypeTableRecord
  2
AI-Linetype-27
 70
     0
  3
Adobe Illustrator Linetype No. 27
 72
    65
 73
     6
 40
28.83309416579927
 49
14.41654708289963
 74
     0
 49
-3.604136770724908
 74
     0
 49
1.802068385362454
 74
     0
 49
-3.604136770724908
 74
     0
 49
1.802068385362454
 74
     0
 49
-3.604136770724908
 74
     0
  0
LTYPE
  5
23D
330
5
100
AcDbSymbolTableRecord
100
AcDbLinetypeTableRecord
  2
AI-Linetype-28
 70
     0
  3
Adobe Illustrator Linetype No. 28
 72
    65
 73
     6
 40
28.83309416579927
 49
14.41654708289963
 74
     0
 49
-3.604136770724908
 74
     0
 49
1.802068385362454
 74
     0
 49
-3.604136770724908
 74
     0
 49
1.802068385362454
 74
     0
 49
-3.604136770724908
 74
     0
  0
LTYPE
  5
240
330
5
100
AcDbSymbolTableRecord
100
AcDbLinetypeTableRecord
  2
AI-Linetype-29
 70
     0
  3
Adobe Illustrator Linetype No. 29
 72
    65
 73
     4
 40
19.1019245484069
 49
18.02068351718943
 74
     0
 49
-0.3604136770724909
 74
     0
 49
0.3604136770724909
 74
     0
 49
-0.3604136770724909
 74
     0
  0
LTYPE
  5
242
330
5
100
AcDbSymbolTableRecord
100
AcDbLinetypeTableRecord
  2
AI-Linetype-30
 70
     0
  3
Adobe Illustrator Linetype No. 30
 72
    65
 73
     4
 40
19.1019245484069
 49
18.02068351718943
 74
     0
 49
-0.3604136770724909
 74
     0
 49
0.3604136770724909
 74
     0
 49
-0.3604136770724909
 74
     0
  0
LTYPE
  5
244
330
5
100
AcDbSymbolTableRecord
100
AcDbLinetypeTableRecord
  2
AI-Linetype-31
 70
     0
  3
Adobe Illustrator Linetype No. 31
 72
    65
 73
     4
 40
19.1019245484069
 49
18.02068351718943
 74
     0
 49
-0.3604136770724909
 74
     0
 49
0.3604136770724909
 74
     0
 49
-0.3604136770724909
 74
     0
  0
LTYPE
  5
246
330
5
100
AcDbSymbolTableRecord
100
AcDbLinetypeTableRecord
  2
AI-Linetype-32
 70
     0
  3
Adobe Illustrator Linetype No. 32
 72
    65
 73
     4
 40
19.1019245484069
 49
18.02068351718943
 74
     0
 49
-0.3604136770724909
 74
     0
 49
0.3604136770724909
 74
     0
 49
-0.3604136770724909
 74
     0
  0
ENDTAB
  0
TABLE
  2
LAYER
  5
2
330
0
100
AcDbSymbolTable
 70
     7
  0
LAYER
  5
54
330
2
100
AcDbSymbolTableRecord
100
AcDbLayerTableRecord
  2
0
 70
     0
 62
     7
  6
Continuous
370
    -3
390
F
347
21
348
0
  0
LAYER
  5
78
330
2
100
AcDbSymbolTableRecord
100
AcDbLayerTableRecord
  2
FLAME
 70
     0
 62
     7
  6
Continuous
370
     0
390
F
347
21
348
0
  0
LAYER
  5
80
330
2
100
AcDbSymbolTableRecord
100
AcDbLayerTableRecord
  2
SPEC
 70
     0
 62
     7
  6
Continuous
370
     0
390
F
347
21
348
0
  0
LAYER
  5
8D
330
2
100
AcDbSymbolTableRecord
100
AcDbLayerTableRecord
  2
HONTAI
 70
     0
 62
     7
  6
Continuous
370
     0
390
F
347
21
348
0
  0
LAYER
  5
1E4
330
2
100
AcDbSymbolTableRecord
100
AcDbLayerTableRecord
  2
0-HONTAI
 70
     0
 62
     7
  6
Continuous
370
     0
390
F
347
21
348
0
  0
LAYER
  5
203
330
2
100
AcDbSymbolTableRecord
100
AcDbLayerTableRecord
  2
TOUGU
 70
     0
 62
     7
  6
Continuous
370
     0
390
F
347
21
348
0
  0
LAYER
  5
23E
330
2
100
AcDbSymbolTableRecord
100
AcDbLayerTableRecord
  2
CL
 70
     0
 62
     7
  6
Continuous
370
     0
390
F
347
21
348
0
  0
ENDTAB
  0
TABLE
  2
STYLE
  5
3
330
0
100
AcDbSymbolTable
 70
     2
  0
STYLE
  5
55
330
3
100
AcDbSymbolTableRecord
100
AcDbTextStyleTableRecord
  2
Standard
 70
     0
 40
0.0
 41
1.0
 50
0.0
 71
     0
 42
0.2
  3
txt
  4

  0
STYLE
  5
5A
330
3
100
AcDbSymbolTableRecord
100
AcDbTextStyleTableRecord
  2
Annotative
 70
     0
 40
0.0
 41
1.0
 50
0.0
 71
     0
 42
0.2
  3
txt
  4

1001
AcadAnnotative
1000
AnnotativeData
1002
{
1070
     1
1070
     1
1002
}
  0
ENDTAB
  0
TABLE
  2
VIEW
  5
6
330
0
100
AcDbSymbolTable
 70
     0
  0
ENDTAB
  0
TABLE
  2
UCS
  5
7
330
0
100
AcDbSymbolTable
 70
     0
  0
ENDTAB
  0
TABLE
  2
APPID
  5
9
330
0
100
AcDbSymbolTable
 70
     2
  0
APPID
  5
56
330
9
100
AcDbSymbolTableRecord
100
AcDbRegAppTableRecord
  2
ACAD
 70
     0
  0
APPID
  5
5E
330
9
100
AcDbSymbolTableRecord
100
AcDbRegAppTableRecord
  2
AcadAnnotative
 70
     0
  0
ENDTAB
  0
TABLE
  2
DIMSTYLE
  5
A
330
0
100
AcDbSymbolTable
 70
     2
100
AcDbDimStyleTable
 71
     0
  0
DIMSTYLE
105
58
330
A
100
AcDbSymbolTableRecord
100
AcDbDimStyleTableRecord
  2
Standard
 70
     0
340
55
  0
DIMSTYLE
105
59
330
A
100
AcDbSymbolTableRecord
100
AcDbDimStyleTableRecord
  2
Annotative
 70
     0
340
55
1001
AcadAnnotative
1000
AnnotativeData
1002
{
1070
     1
1070
     1
1002
}
  0
ENDTAB
  0
TABLE
  2
BLOCK_RECORD
  5
1
330
0
100
AcDbSymbolTable
 70
     2
  0
BLOCK_RECORD
  5
70
330
1
100
AcDbSymbolTableRecord
100
AcDbBlockTableRecord
  2
*Model_Space
340
73
 70
     0
280
     1
281
     0
  0
BLOCK_RECORD
  5
6C
330
1
100
AcDbSymbolTableRecord
100
AcDbBlockTableRecord
  2
*Paper_Space
340
6F
 70
     0
280
     1
281
     0
  0
BLOCK_RECORD
  5
74
330
1
100
AcDbSymbolTableRecord
100
AcDbBlockTableRecord
  2
*Paper_Space0
340
77
 70
     0
280
     1
281
     0
  0
BLOCK_RECORD
  5
81
330
1
100
AcDbSymbolTableRecord
100
AcDbBlockTableRecord
  2
Block_0
340
0
102
{BLKREFS
331
82
102
}
 70
     0
280
     1
281
     0
  0
ENDTAB
  0
ENDSEC
  0
SECTION
  2
BLOCKS
  0
BLOCK
  5
71
330
70
100
AcDbEntity
  8
0
100
AcDbBlockBegin
  2
*Model_Space
 70
     0
 10
0.0
 20
0.0
 30
0.0
  3
*Model_Space
  1

  0
ENDBLK
  5
72
330
70
100
AcDbEntity
  8
0
100
AcDbBlockEnd
  0
BLOCK
  5
6D
330
6C
100
AcDbEntity
 67
     1
  8
0
100
AcDbBlockBegin
  2
*Paper_Space
 70
     0
 10
0.0
 20
0.0
 30
0.0
  3
*Paper_Space
  1

  0
ENDBLK
  5
6E
330
6C
100
AcDbEntity
 67
     1
  8
0
100
AcDbBlockEnd
  0
BLOCK
  5
75
330
74
100
AcDbEntity
 67
     1
  8
0
100
AcDbBlockBegin
  2
*Paper_Space0
 70
     0
 10
0.0
 20
0.0
 30
0.0
  3
*Paper_Space0
  1

  0
ENDBLK
  5
76
330
74
100
AcDbEntity
 67
     1
  8
0
100
AcDbBlockEnd
  0
BLOCK
  5
83
330
81
100
AcDbEntity
  8
0
100
AcDbBlockBegin
  2
Block_0
 70
     0
 10
0.0
 20
0.0
 30
0.0
  3
Block_0
  1

  0
MTEXT
  5
85
330
81
100
AcDbEntity
  8
SPEC
100
AcDbMText
 10
182.7893594920631
 20
23.09140113677137
 30
0.0
 40
0.2
 41
0.0
 46
0.0
 71
     7
 72
     1
  1
\C9;\c12632256;\FKozuka Gothic Pr6N R|b0|i0|c128;\H7.992533;\W1.000000;E17 LED
 73
     1
 44
1.0
  0
MTEXT
  5
86
330
81
100
AcDbEntity
  8
SPEC
100
AcDbMText
 10
224.4312406190767
 20
23.09140113677137
 30
0.0
 40
0.2
 41
0.0
 46
0.0
 71
     7
 72
     1
  1
\C9;\c12632256;\FMS PGothic|b0|i0|c128;\H7.992533;\W1.000000;電球（
 73
     1
 44
1.0
  0
MTEXT
  5
87
330
81
100
AcDbEntity
  8
SPEC
100
AcDbMText
 10
253.4950135339027
 20
23.09140113677137
 30
0.0
 40
0.2
 41
0.0
 46
0.0
 71
     7
 72
     1
  1
\C9;\c12632256;\FKozuka Gothic Pr6N R|b0|i0|c128;\H7.992533;\W1.000000;60W
 73
     1
 44
1.0
  0
MTEXT
  5
88
330
81
100
AcDbEntity
  8
SPEC
100
AcDbMText
 10
278.8046874302988
 20
23.09140113677137
 30
0.0
 40
0.2
 41
0.0
 46
0.0
 71
     7
 72
     1
  1
\C9;\c12632256;\FMS PGothic|b0|i0|c128;\H7.992533;\W1.000000;相当 電球色 全方向
 73
     1
 44
1.0
  0
MTEXT
  5
89
330
81
100
AcDbEntity
  8
SPEC
100
AcDbMText
 10
378.8930225696648
 20
23.09140113677137
 30
0.0
 40
0.2
 41
0.0
 46
0.0
 71
     7
 72
     1
  1
\C9;\c12632256;\FKozuka Gothic Pr6N R|b0|i0|c128;\H7.992533;\W1.000000;/
 73
     1
 44
1.0
  0
MTEXT
  5
8A
330
81
100
AcDbEntity
  8
SPEC
100
AcDbMText
 10
386.8855579680573
 20
23.09140113677137
 30
0.0
 40
0.2
 41
0.0
 46
0.0
 71
     7
 72
     1
  1
\C9;\c12632256;\FMS PGothic|b0|i0|c128;\H7.992533;\W1.000000;広配光タイプ
 73
     1
 44
1.0
  0
MTEXT
  5
8B
330
81
100
AcDbEntity
  8
SPEC
100
AcDbMText
 10
450.5079019056022
 20
23.09140113677137
 30
0.0
 40
0.2
 41
0.0
 46
0.0
 71
     7
 72
     1
  1
\C9;\c12632256;\FKozuka Gothic Pr6N R|b0|i0|c128;\H7.992533;\W1.000000;)
 73
     1
 44
1.0
  0
ENDBLK
  5
84
330
81
100
AcDbEntity
  8
0
100
AcDbBlockEnd
  0
ENDSEC
  0
SECTION
  2
ENTITIES
  0
LINE
  5
79
330
70
100
AcDbEntity
  8
FLAME
 62
     2
420
 16776960
370
    25
100
AcDbLine
 10
501.9523808268929
 20
380.9999999047501
 30
0.0
 11
501.9523808268929
 21
0.0
 31
0.0
  0
LINE
  5
7A
330
70
100
AcDbEntity
  8
FLAME
 62
     2
420
 16776960
370
    25
100
AcDbLine
 10
175.380952337107
 20
0.0
 30
0.0
 11
175.380952337107
 21
380.9999999047501
 31
0.0
  0
LINE
  5
7B
330
70
100
AcDbEntity
  8
FLAME
 62
     2
420
 16776960
370
    25
100
AcDbLine
 10
501.9523808268929
 20
0.0
 30
0.0
 11
175.380952337107
 21
0.0
 31
0.0
  0
LINE
  5
7C
330
70
100
AcDbEntity
  8
FLAME
 62
     2
420
 16776960
370
    25
100
AcDbLine
 10
501.9523808268929
 20
18.1428571383218
 30
0.0
 11
175.380952337107
 21
18.1428571383218
 31
0.0
  0
LINE
  5
7D
330
70
100
AcDbEntity
  8
FLAME
 62
     2
420
 16776960
370
    25
100
AcDbLine
 10
501.9523808268929
 20
36.28571427664295
 30
0.0
 11
175.380952337107
 21
36.28571427664295
 31
0.0
  0
LINE
  5
7E
330
70
100
AcDbEntity
  8
FLAME
 62
     2
420
 16776960
370
    25
100
AcDbLine
 10
501.9523808268929
 20
54.42857141496411
 30
0.0
 11
175.380952337107
 21
54.42857141496411
 31
0.0
  0
LINE
  5
7F
330
70
100
AcDbEntity
  8
FLAME
 62
     2
420
 16776960
370
    25
100
AcDbLine
 10
501.9523808268929
 20
380.9999999047501
 30
0.0
 11
175.380952337107
 21
380.9999999047501
 31
0.0
  0
INSERT
  5
82
330
70
100
AcDbEntity
  8
SPEC
100
AcDbBlockReference
  2
Block_0
 10
0.0
 20
0.0
 30
0.0
  0
MTEXT
  5
8C
330
70
100
AcDbEntity
  8
SPEC
100
AcDbMText
 10
183.0583783857675
 20
40.69478669738653
 30
0.0
 40
0.2
 41
0.0
 46
0.0
 71
     7
 72
     1
  1
\C9;\c12632256;\FKozuka Gothic Pr6N R|b0|i0|c128;\H9.071429;\W1.000000;KT 375XS LO
 73
     1
 44
1.0
  0
LINE
  5
8E
330
70
100
AcDbEntity
  8
HONTAI
 62
     2
420
 16776960
370
    25
100
AcDbLine
 10
305.7001382171734
 20
151.5843307272679
 30
0.0
 11
305.700138217167
 21
170.6519098942821
 31
0.0
  0
LINE
  5
8F
330
70
100
AcDbEntity
  8
HONTAI
 62
     2
420
 16776960
370
    25
100
AcDbLine
 10
342.3127142080133
 20
151.5843307272679
 30
0.0
 11
342.3127142080089
 21
170.6519098942757
 31
0.0
  0
LINE
  5
90
330
70
100
AcDbEntity
  8
HONTAI
 62
     2
420
 16776960
370
    25
100
AcDbLine
 10
451.7755635745959
 20
198.8258770920029
 30
0.0
 11
451.7755635745959
 21
165.0089419239117
 31
0.0
  0
LINE
  5
91
330
70
100
AcDbEntity
  8
HONTAI
 62
     2
420
 16776960
370
    25
100
AcDbLine
 10
454.2164019739886
 20
198.8258770920029
 30
0.0
 11
454.2164019739886
 21
165.0089419239117
 31
0.0
  0
LINE
  5
92
330
70
100
AcDbEntity
  8
HONTAI
 62
     2
420
 16776960
370
    25
100
AcDbLine
 10
342.3127142080133
 20
153.6183627267601
 30
0.0
 11
378.5773774941676
 21
153.6183627267601
 31
0.0
  0
LINE
  5
93
330
70
100
AcDbEntity
  8
HONTAI
 62
     2
420
 16776960
370
    25
100
AcDbLine
 10
380.7863439042181
 20
153.6183627267601
 30
0.0
 11
391.2140434798289
 21
153.6183627267601
 31
0.0
  0
LINE
  5
94
330
70
100
AcDbEntity
  8
HONTAI
 62
     2
420
 16776960
370
    25
100
AcDbLine
 10
417.6564594732084
 20
153.6183627267601
 30
0.0
 11
429.1469069041164
 21
153.6183627267601
 31
0.0
  0
LINE
  5
95
330
70
100
AcDbEntity
  8
HONTAI
 62
     2
420
 16776960
370
    25
100
AcDbLine
 10
431.3558733141689
 20
153.6183627267601
 30
0.0
 11
442.8258227768286
 21
153.6183627267601
 31
0.0
  0
LINE
  5
96
330
70
100
AcDbEntity
  8
HONTAI
 62
     2
420
 16776960
370
    25
100
AcDbLine
 10
342.3127142080133
 20
156.0592011261451
 30
0.0
 11
379.2036943932204
 21
156.0592011261451
 31
0.0
  0
LINE
  5
97
330
70
100
AcDbEntity
  8
HONTAI
 62
     2
420
 16776960
370
    25
100
AcDbLine
 10
381.4126608032824
 20
156.0592011261451
 30
0.0
 11
391.2140434798289
 21
156.0592011261451
 31
0.0
  0
LINE
  5
98
330
70
100
AcDbEntity
  8
HONTAI
 62
     2
420
 16776960
370
    25
100
AcDbLine
 10
417.6564594732084
 20
156.0592011261451
 30
0.0
 11
429.7732238031692
 21
156.0592011261451
 31
0.0
  0
LINE
  5
99
330
70
100
AcDbEntity
  8
HONTAI
 62
     2
420
 16776960
370
    25
100
AcDbLine
 10
431.9821902132217
 20
156.0592011261451
 30
0.0
 11
442.8258227768286
 21
156.0592011261451
 31
0.0
  0
SPLINE
  5
9A
330
70
100
AcDbEntity
  8
HONTAI
 62
     2
420
 16776960
370
    25
100
AcDbSpline
210
0.0
220
0.0
230
1.0
 70
     8
 71
     3
 72
     8
 73
     4
 74
     0
 42
0.0000000001
 43
0.0000000001
 40
0.0
 40
0.0
 40
0.0
 40
0.0
 40
1.0
 40
1.0
 40
1.0
 40
1.0
 10
442.8258227768286
 20
156.0592011261489
 30
0.0
 10
447.7686281343708
 20
156.0592011261489
 30
0.0
 10
451.7755635745907
 20
160.0661365663689
 30
0.0
 10
451.7755635745907
 20
165.0089419239117
 30
0.0
  0
SPLINE
  5
9B
330
70
100
AcDbEntity
  8
HONTAI
 62
     2
420
 16776960
370
    25
100
AcDbSpline
210
0.0
220
0.0
230
1.0
 70
     8
 71
     3
 72
     8
 73
     4
 74
     0
 42
0.0000000001
 43
0.0000000001
 40
0.0
 40
0.0
 40
0.0
 40
0.0
 40
1.0
 40
1.0
 40
1.0
 40
1.0
 10
442.8258227768286
 20
153.6183627267595
 30
0.0
 10
449.1166659591555
 20
153.6183627267595
 30
0.0
 10
454.2164019739809
 20
158.7180987415847
 30
0.0
 10
454.2164019739809
 20
165.0089419239117
 30
0.0
  0
SPLINE
  5
9C
330
70
100
AcDbEntity
  8
HONTAI
 62
     2
420
 16776960
370
    25
100
AcDbSpline
210
0.0
220
0.0
230
1.0
 70
     8
 71
     3
 72
    11
 73
     7
 74
     0
 42
0.0000000001
 43
0.0000000001
 40
0.0
 40
0.0
 40
0.0
 40
0.0
 40
1.0
 40
1.0
 40
1.0
 40
2.0
 40
2.0
 40
2.0
 40
2.0
 10
305.7001382171785
 20
151.584330727282
 30
0.0
 10
305.7001382171785
 20
149.5414330689003
 30
0.0
 10
313.8961425267189
 20
147.8853373022284
 30
0.0
 10
324.006426212602
 20
147.8853373022284
 30
0.0
 10
334.1167098984848
 20
147.8853373022284
 30
0.0
 10
342.3127142080255
 20
149.5414330689003
 30
0.0
 10
342.3127142080255
 20
151.584330727282
 30
0.0
  0
SPLINE
  5
9D
330
70
100
AcDbEntity
  8
HONTAI
 62
     2
420
 16776960
370
    25
100
AcDbSpline
210
0.0
220
0.0
230
1.0
 70
     8
 71
     3
 72
    11
 73
     7
 74
     0
 42
0.0000000001
 43
0.0000000001
 40
0.0
 40
0.0
 40
0.0
 40
0.0
 40
1.0
 40
1.0
 40
1.0
 40
2.0
 40
2.0
 40
2.0
 40
2.0
 10
306.0614312712316
 20
149.3965520685799
 30
0.0
 10
306.0614312712316
 20
147.3536544101982
 30
0.0
 10
314.0956791706924
 20
145.6975586435263
 30
0.0
 10
324.006426212602
 20
145.6975586435263
 30
0.0
 10
333.9171732545113
 20
145.6975586435263
 30
0.0
 10
341.9514211539722
 20
147.3536544101982
 30
0.0
 10
341.9514211539722
 20
149.3965520685799
 30
0.0
  0
LINE
  5
9E
330
70
100
AcDbEntity
  8
HONTAI
 62
     2
420
 16776960
370
    25
100
AcDbLine
 10
306.0614312712254
 20
149.3965520685523
 30
0.0
 11
306.0614312712254
 21
150.8530657644749
 31
0.0
  0
LINE
  5
9F
330
70
100
AcDbEntity
  8
HONTAI
 62
     2
420
 16776960
370
    25
100
AcDbLine
 10
341.9502524305585
 20
149.3543362040015
 30
0.0
 11
341.9502524305585
 21
150.8518957656574
 31
0.0
  0
LINE
  5
A0
330
70
100
AcDbEntity
  8
HONTAI
 62
     8
420
  8421504
370
    25
100
AcDbLine
 10
309.4601637162295
 20
253.8227537408396
 30
0.0
 11
294.8723701137931
 21
245.4512729664272
 31
0.0
  0
LINE
  5
A1
330
70
100
AcDbEntity
  8
HONTAI
 62
     8
420
  8421504
370
    25
100
AcDbLine
 10
294.8723701137931
 20
245.4512729664272
 30
0.0
 11
285.618936732874
 21
234.4376742191784
 31
0.0
  0
LINE
  5
A2
330
70
100
AcDbEntity
  8
HONTAI
 62
     8
420
  8421504
370
    25
100
AcDbLine
 10
285.618936732874
 20
234.4376742191784
 30
0.0
 11
280.1086525477865
 21
219.8914117228142
 31
0.0
  0
LINE
  5
A3
330
70
100
AcDbEntity
  8
HONTAI
 62
     8
420
  8421504
370
    25
100
AcDbLine
 10
280.1086525477865
 20
219.8914117228142
 30
0.0
 11
280.1086525477865
 21
203.2671117269697
 31
0.0
  0
LINE
  5
A4
330
70
100
AcDbEntity
  8
HONTAI
 62
     8
420
  8421504
370
    25
100
AcDbLine
 10
320.2036688060967
 20
245.4512729664272
 30
0.0
 11
321.4957642773272
 21
234.4376742191784
 31
0.0
  0
LINE
  5
A5
330
70
100
AcDbEntity
  8
HONTAI
 62
     8
420
  8421504
370
    25
100
AcDbLine
 10
324.0047331154658
 20
245.4512729664272
 30
0.0
 11
322.1649900570855
 21
251.4771938266678
 31
0.0
  0
LINE
  5
A6
330
70
100
AcDbEntity
  8
HONTAI
 62
     8
420
  8421504
370
    25
100
AcDbLine
 10
322.1649900570855
 20
251.4771938266678
 30
0.0
 11
320.2036688060967
 21
245.4512729664272
 31
0.0
  0
LINE
  5
A7
330
70
100
AcDbEntity
  8
HONTAI
 62
     8
420
  8421504
370
    25
100
AcDbLine
 10
324.0047331154658
 20
245.4512729664272
 30
0.0
 11
321.4957642773272
 21
234.4376742191784
 31
0.0
  0
LINE
  5
A8
330
70
100
AcDbEntity
  8
HONTAI
 62
     8
420
  8421504
370
    25
100
AcDbLine
 10
321.4957642773272
 20
234.4376742191784
 30
0.0
 11
324.0047331154658
 21
219.8914117228142
 31
0.0
  0
LINE
  5
A9
330
70
100
AcDbEntity
  8
HONTAI
 62
     8
420
  8421504
370
    25
100
AcDbLine
 10
321.4957642773272
 20
234.4376742191784
 30
0.0
 11
318.2766169691934
 21
219.8914117228142
 31
0.0
  0
LINE
  5
AA
330
70
100
AcDbEntity
  8
HONTAI
 62
     8
420
  8421504
370
    25
100
AcDbLine
 10
318.2766169691934
 20
219.8914117228142
 30
0.0
 11
318.2766169691934
 21
203.2671117269697
 31
0.0
  0
LINE
  5
AB
330
70
100
AcDbEntity
  8
HONTAI
 62
     8
420
  8421504
370
    25
100
AcDbLine
 10
312.6448463505491
 20
219.8914117228142
 30
0.0
 11
312.6448463505491
 21
203.2671117269697
 31
0.0
  0
LINE
  5
AC
330
70
100
AcDbEntity
  8
HONTAI
 62
     8
420
  8421504
370
    25
100
AcDbLine
 10
307.2074755133637
 20
219.8914117228142
 30
0.0
 11
307.2074755133637
 21
203.2671117269697
 31
0.0
  0
LINE
  5
AD
330
70
100
AcDbEntity
  8
HONTAI
 62
     8
420
  8421504
370
    25
100
AcDbLine
 10
302.0575393801893
 20
219.8914117228142
 30
0.0
 11
302.0575393801893
 21
203.2671117269697
 31
0.0
  0
LINE
  5
AE
330
70
100
AcDbEntity
  8
HONTAI
 62
     8
420
  8421504
370
    25
100
AcDbLine
 10
297.2831547861007
 20
219.8914117228142
 30
0.0
 11
297.2831547861007
 21
203.2671117269697
 31
0.0
  0
LINE
  5
AF
330
70
100
AcDbEntity
  8
HONTAI
 62
     8
420
  8421504
370
    25
100
AcDbLine
 10
292.9660127752221
 20
219.8914117228142
 30
0.0
 11
292.9660127752221
 21
203.2671117269697
 31
0.0
  0
LINE
  5
B0
330
70
100
AcDbEntity
  8
HONTAI
 62
     8
420
  8421504
370
    25
100
AcDbLine
 10
289.1799808442761
 20
219.8914117228142
 30
0.0
 11
289.1799808442761
 21
203.2671117269697
 31
0.0
  0
LINE
  5
B1
330
70
100
AcDbEntity
  8
HONTAI
 62
     8
420
  8421504
370
    25
100
AcDbLine
 10
285.9898390492931
 20
219.8914117228142
 30
0.0
 11
285.9898390492931
 21
203.2671117269697
 31
0.0
  0
LINE
  5
B2
330
70
100
AcDbEntity
  8
HONTAI
 62
     8
420
  8421504
370
    25
100
AcDbLine
 10
283.4501716008649
 20
219.8914117228142
 30
0.0
 11
283.4501716008649
 21
203.2671117269697
 31
0.0
  0
LINE
  5
B3
330
70
100
AcDbEntity
  8
HONTAI
 62
     8
420
  8421504
370
    25
100
AcDbLine
 10
281.6044329131691
 20
219.8914117228142
 30
0.0
 11
281.6044329131691
 21
203.2671117269697
 31
0.0
  0
LINE
  5
B4
330
70
100
AcDbEntity
  8
HONTAI
 62
     8
420
  8421504
370
    25
100
AcDbLine
 10
280.4842040868678
 20
219.8914117228142
 30
0.0
 11
280.4842040868678
 21
203.2671117269697
 31
0.0
  0
LINE
  5
B5
330
70
100
AcDbEntity
  8
HONTAI
 62
     8
420
  8421504
370
    25
100
AcDbLine
 10
318.2766169691934
 20
219.8914117228142
 30
0.0
 11
316.5173985286025
 21
234.4376742191784
 31
0.0
  0
LINE
  5
B6
330
70
100
AcDbEntity
  8
HONTAI
 62
     8
420
  8421504
370
    25
100
AcDbLine
 10
316.5173985286025
 20
234.4376742191784
 30
0.0
 11
312.6448463505491
 21
219.8914117228142
 31
0.0
  0
LINE
  5
B7
330
70
100
AcDbEntity
  8
HONTAI
 62
     8
420
  8421504
370
    25
100
AcDbLine
 10
312.6448463505491
 20
219.8914117228142
 30
0.0
 11
311.6671721199011
 21
234.4376742191784
 31
0.0
  0
LINE
  5
B8
330
70
100
AcDbEntity
  8
HONTAI
 62
     8
420
  8421504
370
    25
100
AcDbLine
 10
311.6671721199011
 20
234.4376742191784
 30
0.0
 11
307.2074755133637
 21
219.8914117228142
 31
0.0
  0
LINE
  5
B9
330
70
100
AcDbEntity
  8
HONTAI
 62
     8
420
  8421504
370
    25
100
AcDbLine
 10
307.2074755133637
 20
219.8914117228142
 30
0.0
 11
307.0280737698229
 21
234.4376742191784
 31
0.0
  0
LINE
  5
BA
330
70
100
AcDbEntity
  8
HONTAI
 62
     8
420
  8421504
370
    25
100
AcDbLine
 10
307.0280737698229
 20
234.4376742191784
 30
0.0
 11
302.0575393801893
 21
219.8914117228142
 31
0.0
  0
LINE
  5
BB
330
70
100
AcDbEntity
  8
HONTAI
 62
     8
420
  8421504
370
    25
100
AcDbLine
 10
302.0575393801893
 20
219.8914117228142
 30
0.0
 11
302.679479737316
 21
234.4376742191784
 31
0.0
  0
LINE
  5
BC
330
70
100
AcDbEntity
  8
HONTAI
 62
     8
420
  8421504
370
    25
100
AcDbLine
 10
302.679479737316
 20
234.4376742191784
 30
0.0
 11
297.2831547861007
 21
219.8914117228142
 31
0.0
  0
LINE
  5
BD
330
70
100
AcDbEntity
  8
HONTAI
 62
     8
420
  8421504
370
    25
100
AcDbLine
 10
297.2831547861007
 20
219.8914117228142
 30
0.0
 11
298.695795671946
 21
234.4376742191784
 31
0.0
  0
LINE
  5
BE
330
70
100
AcDbEntity
  8
HONTAI
 62
     8
420
  8421504
370
    25
100
AcDbLine
 10
298.695795671946
 20
234.4376742191784
 30
0.0
 11
292.9660127752221
 21
219.8914117228142
 31
0.0
  0
LINE
  5
BF
330
70
100
AcDbEntity
  8
HONTAI
 62
     8
420
  8421504
370
    25
100
AcDbLine
 10
292.9660127752221
 20
219.8914117228142
 30
0.0
 11
295.1451835125618
 21
234.4376742191784
 31
0.0
  0
LINE
  5
C0
330
70
100
AcDbEntity
  8
HONTAI
 62
     8
420
  8421504
370
    25
100
AcDbLine
 10
295.1451835125618
 20
234.4376742191784
 30
0.0
 11
289.1799808442761
 21
219.8914117228142
 31
0.0
  0
LINE
  5
C1
330
70
100
AcDbEntity
  8
HONTAI
 62
     8
420
  8421504
370
    25
100
AcDbLine
 10
289.1799808442761
 20
219.8914117228142
 30
0.0
 11
292.08839521763
 21
234.4376742191784
 31
0.0
  0
LINE
  5
C2
330
70
100
AcDbEntity
  8
HONTAI
 62
     8
420
  8421504
370
    25
100
AcDbLine
 10
292.08839521763
 20
234.4376742191784
 30
0.0
 11
285.9898390492931
 21
219.8914117228142
 31
0.0
  0
LINE
  5
C3
330
70
100
AcDbEntity
  8
HONTAI
 62
     8
420
  8421504
370
    25
100
AcDbLine
 10
285.9898390492931
 20
219.8914117228142
 30
0.0
 11
289.5777332823674
 21
234.4376742191784
 31
0.0
  0
LINE
  5
C4
330
70
100
AcDbEntity
  8
HONTAI
 62
     8
420
  8421504
370
    25
100
AcDbLine
 10
289.5777332823674
 20
234.4376742191784
 30
0.0
 11
283.4501716008649
 21
219.8914117228142
 31
0.0
  0
LINE
  5
C5
330
70
100
AcDbEntity
  8
HONTAI
 62
     8
420
  8421504
370
    25
100
AcDbLine
 10
283.4501716008649
 20
219.8914117228142
 30
0.0
 11
287.6561558285791
 21
234.4376742191784
 31
0.0
  0
LINE
  5
C6
330
70
100
AcDbEntity
  8
HONTAI
 62
     8
420
  8421504
370
    25
100
AcDbLine
 10
287.6561558285791
 20
234.4376742191784
 30
0.0
 11
281.6044329131691
 21
219.8914117228142
 31
0.0
  0
LINE
  5
C7
330
70
100
AcDbEntity
  8
HONTAI
 62
     8
420
  8421504
370
    25
100
AcDbLine
 10
281.6044329131691
 20
219.8914117228142
 30
0.0
 11
286.3565415792595
 21
234.4376742191784
 31
0.0
  0
LINE
  5
C8
330
70
100
AcDbEntity
  8
HONTAI
 62
     8
420
  8421504
370
    25
100
AcDbLine
 10
286.3565415792595
 20
234.4376742191784
 30
0.0
 11
280.4842040868678
 21
219.8914117228142
 31
0.0
  0
LINE
  5
C9
330
70
100
AcDbEntity
  8
HONTAI
 62
     8
420
  8421504
370
    25
100
AcDbLine
 10
280.4842040868678
 20
219.8914117228142
 30
0.0
 11
285.7011272945326
 21
234.4376742191784
 31
0.0
  0
LINE
  5
CA
330
70
100
AcDbEntity
  8
HONTAI
 62
     8
420
  8421504
370
    25
100
AcDbLine
 10
285.7011272945326
 20
234.4376742191784
 30
0.0
 11
280.1086525477865
 21
219.8914117228142
 31
0.0
  0
LINE
  5
CB
330
70
100
AcDbEntity
  8
HONTAI
 62
     8
420
  8421504
370
    25
100
AcDbLine
 10
320.2036688060967
 20
245.4512729664272
 30
0.0
 11
316.5173985286025
 21
234.4376742191784
 31
0.0
  0
LINE
  5
CC
330
70
100
AcDbEntity
  8
HONTAI
 62
     8
420
  8421504
370
    25
100
AcDbLine
 10
316.5173985286025
 20
234.4376742191784
 30
0.0
 11
316.4601923829542
 21
245.4512729664272
 31
0.0
  0
LINE
  5
CD
330
70
100
AcDbEntity
  8
HONTAI
 62
     8
420
  8421504
370
    25
100
AcDbLine
 10
316.4601923829542
 20
245.4512729664272
 30
0.0
 11
311.6671721199011
 21
234.4376742191784
 31
0.0
  0
LINE
  5
CE
330
70
100
AcDbEntity
  8
HONTAI
 62
     8
420
  8421504
370
    25
100
AcDbLine
 10
311.6671721199011
 20
234.4376742191784
 30
0.0
 11
312.8573056259933
 21
245.4512729664272
 31
0.0
  0
LINE
  5
CF
330
70
100
AcDbEntity
  8
HONTAI
 62
     8
420
  8421504
370
    25
100
AcDbLine
 10
312.8573056259933
 20
245.4512729664272
 30
0.0
 11
307.0280737698229
 21
234.4376742191784
 31
0.0
  0
LINE
  5
D0
330
70
100
AcDbEntity
  8
HONTAI
 62
     8
420
  8421504
370
    25
100
AcDbLine
 10
307.0280737698229
 20
234.4376742191784
 30
0.0
 11
309.4393981632056
 21
245.4512729664272
 31
0.0
  0
LINE
  5
D1
330
70
100
AcDbEntity
  8
HONTAI
 62
     8
420
  8421504
370
    25
100
AcDbLine
 10
309.4393981632056
 20
245.4512729664272
 30
0.0
 11
302.679479737316
 21
234.4376742191784
 31
0.0
  0
LINE
  5
D2
330
70
100
AcDbEntity
  8
HONTAI
 62
     8
420
  8421504
370
    25
100
AcDbLine
 10
302.679479737316
 20
234.4376742191784
 30
0.0
 11
306.2707365890779
 21
245.4512729664272
 31
0.0
  0
LINE
  5
D3
330
70
100
AcDbEntity
  8
HONTAI
 62
     8
420
  8421504
370
    25
100
AcDbLine
 10
306.2707365890779
 20
245.4512729664272
 30
0.0
 11
298.695795671946
 21
234.4376742191784
 31
0.0
  0
LINE
  5
D4
330
70
100
AcDbEntity
  8
HONTAI
 62
     8
420
  8421504
370
    25
100
AcDbLine
 10
298.695795671946
 20
234.4376742191784
 30
0.0
 11
303.405537581661
 21
245.4512729664272
 31
0.0
  0
LINE
  5
D5
330
70
100
AcDbEntity
  8
HONTAI
 62
     8
420
  8421504
370
    25
100
AcDbLine
 10
303.405537581661
 20
245.4512729664272
 30
0.0
 11
295.1451835125618
 21
234.4376742191784
 31
0.0
  0
LINE
  5
D6
330
70
100
AcDbEntity
  8
HONTAI
 62
     8
420
  8421504
370
    25
100
AcDbLine
 10
295.1451835125618
 20
234.4376742191784
 30
0.0
 11
300.8928254903645
 21
245.4512729664272
 31
0.0
  0
LINE
  5
D7
330
70
100
AcDbEntity
  8
HONTAI
 62
     8
420
  8421504
370
    25
100
AcDbLine
 10
300.8928254903645
 20
245.4512729664272
 30
0.0
 11
292.08839521763
 21
234.4376742191784
 31
0.0
  0
LINE
  5
D8
330
70
100
AcDbEntity
  8
HONTAI
 62
     8
420
  8421504
370
    25
100
AcDbLine
 10
292.08839521763
 20
234.4376742191784
 30
0.0
 11
298.7755935157514
 21
245.4512729664272
 31
0.0
  0
LINE
  5
D9
330
70
100
AcDbEntity
  8
HONTAI
 62
     8
420
  8421504
370
    25
100
AcDbLine
 10
298.7755935157514
 20
245.4512729664272
 30
0.0
 11
289.5777332823674
 21
234.4376742191784
 31
0.0
  0
LINE
  5
DA
330
70
100
AcDbEntity
  8
HONTAI
 62
     8
420
  8421504
370
    25
100
AcDbLine
 10
289.5777332823674
 20
234.4376742191784
 30
0.0
 11
297.0900680838727
 21
245.4512729664272
 31
0.0
  0
LINE
  5
DB
330
70
100
AcDbEntity
  8
HONTAI
 62
     8
420
  8421504
370
    25
100
AcDbLine
 10
297.0900680838727
 20
245.4512729664272
 30
0.0
 11
287.6561558285791
 21
234.4376742191784
 31
0.0
  0
LINE
  5
DC
330
70
100
AcDbEntity
  8
HONTAI
 62
     8
420
  8421504
370
    25
100
AcDbLine
 10
287.6561558285791
 20
234.4376742191784
 30
0.0
 11
295.8650890022117
 21
245.4512729664272
 31
0.0
  0
LINE
  5
DD
330
70
100
AcDbEntity
  8
HONTAI
 62
     8
420
  8421504
370
    25
100
AcDbLine
 10
295.8650890022117
 20
245.4512729664272
 30
0.0
 11
286.3565415792595
 21
234.4376742191784
 31
0.0
  0
LINE
  5
DE
330
70
100
AcDbEntity
  8
HONTAI
 62
     8
420
  8421504
370
    25
100
AcDbLine
 10
286.3565415792595
 20
234.4376742191784
 30
0.0
 11
295.1216160024692
 21
245.4512729664272
 31
0.0
  0
LINE
  5
DF
330
70
100
AcDbEntity
  8
HONTAI
 62
     8
420
  8421504
370
    25
100
AcDbLine
 10
295.1216160024692
 20
245.4512729664272
 30
0.0
 11
285.7011272945326
 21
234.4376742191784
 31
0.0
  0
LINE
  5
E0
330
70
100
AcDbEntity
  8
HONTAI
 62
     8
420
  8421504
370
    25
100
AcDbLine
 10
285.7011272945326
 20
234.4376742191784
 30
0.0
 11
294.8723701137931
 21
245.4512729664272
 31
0.0
  0
LINE
  5
E1
330
70
100
AcDbEntity
  8
HONTAI
 62
     8
420
  8421504
370
    25
100
AcDbLine
 10
320.2036688061955
 20
245.4512729667567
 30
0.0
 11
319.7987507314556
 21
251.5482693737038
 31
0.0
  0
LINE
  5
E2
330
70
100
AcDbEntity
  8
HONTAI
 62
     8
420
  8421504
370
    25
100
AcDbLine
 10
319.7987507314556
 20
251.5482693737038
 30
0.0
 11
316.4601923829542
 21
245.4512729664272
 31
0.0
  0
LINE
  5
E3
330
70
100
AcDbEntity
  8
HONTAI
 62
     8
420
  8421504
370
    25
100
AcDbLine
 10
316.4601923829542
 20
245.4512729664272
 30
0.0
 11
317.5780547383745
 21
251.6715561341944
 31
0.0
  0
LINE
  5
E4
330
70
100
AcDbEntity
  8
HONTAI
 62
     8
420
  8421504
370
    25
100
AcDbLine
 10
317.5780547383745
 20
251.6715561341944
 30
0.0
 11
312.8573056259933
 21
245.4512729664272
 31
0.0
  0
LINE
  5
E5
330
70
100
AcDbEntity
  8
HONTAI
 62
     8
420
  8421504
370
    25
100
AcDbLine
 10
312.8573056259933
 20
245.4512729664272
 30
0.0
 11
315.5609224020921
 21
251.8412531658532
 31
0.0
  0
LINE
  5
E6
330
70
100
AcDbEntity
  8
HONTAI
 62
     8
420
  8421504
370
    25
100
AcDbLine
 10
315.5609224020921
 20
251.8412531658532
 30
0.0
 11
309.4393981632056
 21
245.4512729664272
 31
0.0
  0
LINE
  5
E7
330
70
100
AcDbEntity
  8
HONTAI
 62
     8
420
  8421504
370
    25
100
AcDbLine
 10
309.4393981632056
 20
245.4512729664272
 30
0.0
 11
313.7974280751733
 21
252.0498357197301
 31
0.0
  0
LINE
  5
E8
330
70
100
AcDbEntity
  8
HONTAI
 62
     8
420
  8421504
370
    25
100
AcDbLine
 10
313.7974280751733
 20
252.0498357197301
 30
0.0
 11
306.2707365890779
 21
245.4512729664272
 31
0.0
  0
LINE
  5
E9
330
70
100
AcDbEntity
  8
HONTAI
 62
     8
420
  8421504
370
    25
100
AcDbLine
 10
306.2707365890779
 20
245.4512729664272
 30
0.0
 11
312.3207556887658
 21
252.28910627177
 31
0.0
  0
LINE
  5
EA
330
70
100
AcDbEntity
  8
HONTAI
 62
     8
420
  8421504
370
    25
100
AcDbLine
 10
312.3207556887658
 20
252.28910627177
 30
0.0
 11
303.405537581661
 21
245.4512729664272
 31
0.0
  0
LINE
  5
EB
330
70
100
AcDbEntity
  8
HONTAI
 62
     8
420
  8421504
370
    25
100
AcDbLine
 10
303.405537581661
 20
245.4512729664272
 30
0.0
 11
311.1492336410739
 21
252.5508517840631
 31
0.0
  0
LINE
  5
EC
330
70
100
AcDbEntity
  8
HONTAI
 62
     8
420
  8421504
370
    25
100
AcDbLine
 10
311.1492336410739
 20
252.5508517840631
 30
0.0
 11
300.8928254903645
 21
245.4512729664272
 31
0.0
  0
LINE
  5
ED
330
70
100
AcDbEntity
  8
HONTAI
 62
     8
420
  8421504
370
    25
100
AcDbLine
 10
300.8928254903645
 20
245.4512729664272
 30
0.0
 11
310.288307782619
 21
252.8275552914283
 31
0.0
  0
LINE
  5
EE
330
70
100
AcDbEntity
  8
HONTAI
 62
     8
420
  8421504
370
    25
100
AcDbLine
 10
310.288307782619
 20
252.8275552914283
 30
0.0
 11
298.7755935157514
 21
245.4512729664272
 31
0.0
  0
LINE
  5
EF
330
70
100
AcDbEntity
  8
HONTAI
 62
     8
420
  8421504
370
    25
100
AcDbLine
 10
298.7755935157514
 20
245.4512729664272
 30
0.0
 11
309.7338812397142
 21
253.113290403113
 31
0.0
  0
LINE
  5
F0
330
70
100
AcDbEntity
  8
HONTAI
 62
     8
420
  8421504
370
    25
100
AcDbLine
 10
309.7338812397142
 20
253.113290403113
 30
0.0
 11
297.0900680838727
 21
245.4512729664272
 31
0.0
  0
LINE
  5
F1
330
70
100
AcDbEntity
  8
HONTAI
 62
     8
420
  8421504
370
    25
100
AcDbLine
 10
297.0900680838727
 20
245.4512729664272
 30
0.0
 11
309.491178592085
 21
253.3750524709622
 31
0.0
  0
LINE
  5
F2
330
70
100
AcDbEntity
  8
HONTAI
 62
     8
420
  8421504
370
    25
100
AcDbLine
 10
309.491178592085
 20
253.3750524709622
 30
0.0
 11
295.8650890022117
 21
245.4512729664272
 31
0.0
  0
LINE
  5
F3
330
70
100
AcDbEntity
  8
HONTAI
 62
     8
420
  8421504
370
    25
100
AcDbLine
 10
295.8650890022117
 20
245.4512729664272
 30
0.0
 11
309.5388540902441
 21
253.7214557152587
 31
0.0
  0
LINE
  5
F4
330
70
100
AcDbEntity
  8
HONTAI
 62
     8
420
  8421504
370
    25
100
AcDbLine
 10
309.5388540902441
 20
253.7214557152587
 30
0.0
 11
295.1216160024692
 21
245.4512729664272
 31
0.0
  0
LINE
  5
F5
330
70
100
AcDbEntity
  8
HONTAI
 62
     8
420
  8421504
370
    25
100
AcDbLine
 10
295.1216160024692
 20
245.4512729664272
 30
0.0
 11
309.4835588984904
 21
253.8227537408396
 31
0.0
  0
LINE
  5
F6
330
70
100
AcDbEntity
  8
HONTAI
 62
     8
420
  8421504
370
    25
100
AcDbLine
 10
309.262030223761
 20
168.3309919536488
 30
0.0
 11
294.8723701137931
 21
177.7072504833624
 31
0.0
  0
LINE
  5
F7
330
70
100
AcDbEntity
  8
HONTAI
 62
     8
420
  8421504
370
    25
100
AcDbLine
 10
294.8723701137931
 20
177.7072504833624
 30
0.0
 11
285.618936732874
 21
188.7208492306055
 31
0.0
  0
LINE
  5
F8
330
70
100
AcDbEntity
  8
HONTAI
 62
     8
420
  8421504
370
    25
100
AcDbLine
 10
285.618936732874
 20
188.7208492306055
 30
0.0
 11
280.1086525477865
 21
203.2671117269697
 31
0.0
  0
LINE
  5
F9
330
70
100
AcDbEntity
  8
HONTAI
 62
     8
420
  8421504
370
    25
100
AcDbLine
 10
320.2036688060967
 20
177.7072504833624
 30
0.0
 11
321.4957642773272
 21
188.7208492306055
 31
0.0
  0
LINE
  5
FA
330
70
100
AcDbEntity
  8
HONTAI
 62
     8
420
  8421504
370
    25
100
AcDbLine
 10
324.0047331154658
 20
177.7072504833624
 30
0.0
 11
322.8825376477868
 21
166.1998372814767
 31
0.0
  0
LINE
  5
FB
330
70
100
AcDbEntity
  8
HONTAI
 62
     8
420
  8421504
370
    25
100
AcDbLine
 10
322.8825376477868
 20
166.1998372814767
 30
0.0
 11
320.2036688060967
 21
177.7072504833624
 31
0.0
  0
LINE
  5
FC
330
70
100
AcDbEntity
  8
HONTAI
 62
     8
420
  8421504
370
    25
100
AcDbLine
 10
324.0047331154658
 20
177.7072504833624
 30
0.0
 11
321.4957642773272
 21
188.7208492306055
 31
0.0
  0
LINE
  5
FD
330
70
100
AcDbEntity
  8
HONTAI
 62
     8
420
  8421504
370
    25
100
AcDbLine
 10
321.4957642773272
 20
188.7208492306055
 30
0.0
 11
324.0047331154658
 21
203.2671117269697
 31
0.0
  0
LINE
  5
FE
330
70
100
AcDbEntity
  8
HONTAI
 62
     8
420
  8421504
370
    25
100
AcDbLine
 10
321.4957642773272
 20
188.7208492306055
 30
0.0
 11
318.2766169691934
 21
203.2671117269697
 31
0.0
  0
LINE
  5
FF
330
70
100
AcDbEntity
  8
HONTAI
 62
     8
420
  8421504
370
    25
100
AcDbLine
 10
318.2766169691934
 20
203.2671117269697
 30
0.0
 11
316.5173985286025
 21
188.7208492306055
 31
0.0
  0
LINE
  5
100
330
70
100
AcDbEntity
  8
HONTAI
 62
     8
420
  8421504
370
    25
100
AcDbLine
 10
316.5173985286025
 20
188.7208492306055
 30
0.0
 11
312.6448463505491
 21
203.2671117269697
 31
0.0
  0
LINE
  5
101
330
70
100
AcDbEntity
  8
HONTAI
 62
     8
420
  8421504
370
    25
100
AcDbLine
 10
312.6448463505491
 20
203.2671117269697
 30
0.0
 11
311.6671721199011
 21
188.7208492306055
 31
0.0
  0
LINE
  5
102
330
70
100
AcDbEntity
  8
HONTAI
 62
     8
420
  8421504
370
    25
100
AcDbLine
 10
311.6671721199011
 20
188.7208492306055
 30
0.0
 11
307.2074755133637
 21
203.2671117269697
 31
0.0
  0
LINE
  5
103
330
70
100
AcDbEntity
  8
HONTAI
 62
     8
420
  8421504
370
    25
100
AcDbLine
 10
307.2074755133637
 20
203.2671117269697
 30
0.0
 11
307.0280737698229
 21
188.7208492306055
 31
0.0
  0
LINE
  5
104
330
70
100
AcDbEntity
  8
HONTAI
 62
     8
420
  8421504
370
    25
100
AcDbLine
 10
307.0280737698229
 20
188.7208492306055
 30
0.0
 11
302.0575393801893
 21
203.2671117269697
 31
0.0
  0
LINE
  5
105
330
70
100
AcDbEntity
  8
HONTAI
 62
     8
420
  8421504
370
    25
100
AcDbLine
 10
302.0575393801893
 20
203.2671117269697
 30
0.0
 11
302.679479737316
 21
188.7208492306055
 31
0.0
  0
LINE
  5
106
330
70
100
AcDbEntity
  8
HONTAI
 62
     8
420
  8421504
370
    25
100
AcDbLine
 10
302.679479737316
 20
188.7208492306055
 30
0.0
 11
297.2831547861007
 21
203.2671117269697
 31
0.0
  0
LINE
  5
107
330
70
100
AcDbEntity
  8
HONTAI
 62
     8
420
  8421504
370
    25
100
AcDbLine
 10
297.2831547861007
 20
203.2671117269697
 30
0.0
 11
298.695795671946
 21
188.7208492306055
 31
0.0
  0
LINE
  5
108
330
70
100
AcDbEntity
  8
HONTAI
 62
     8
420
  8421504
370
    25
100
AcDbLine
 10
298.695795671946
 20
188.7208492306055
 30
0.0
 11
292.9660127752221
 21
203.2671117269697
 31
0.0
  0
LINE
  5
109
330
70
100
AcDbEntity
  8
HONTAI
 62
     8
420
  8421504
370
    25
100
AcDbLine
 10
292.9660127752221
 20
203.2671117269697
 30
0.0
 11
295.1451835125618
 21
188.7208492306055
 31
0.0
  0
LINE
  5
10A
330
70
100
AcDbEntity
  8
HONTAI
 62
     8
420
  8421504
370
    25
100
AcDbLine
 10
295.1451835125618
 20
188.7208492306055
 30
0.0
 11
289.1799808442761
 21
203.2671117269697
 31
0.0
  0
LINE
  5
10B
330
70
100
AcDbEntity
  8
HONTAI
 62
     8
420
  8421504
370
    25
100
AcDbLine
 10
289.1799808442761
 20
203.2671117269697
 30
0.0
 11
292.08839521763
 21
188.7208492306055
 31
0.0
  0
LINE
  5
10C
330
70
100
AcDbEntity
  8
HONTAI
 62
     8
420
  8421504
370
    25
100
AcDbLine
 10
292.08839521763
 20
188.7208492306055
 30
0.0
 11
285.9898390492931
 21
203.2671117269697
 31
0.0
  0
LINE
  5
10D
330
70
100
AcDbEntity
  8
HONTAI
 62
     8
420
  8421504
370
    25
100
AcDbLine
 10
285.9898390492931
 20
203.2671117269697
 30
0.0
 11
289.5777332823674
 21
188.7208492306055
 31
0.0
  0
LINE
  5
10E
330
70
100
AcDbEntity
  8
HONTAI
 62
     8
420
  8421504
370
    25
100
AcDbLine
 10
289.5777332823674
 20
188.7208492306055
 30
0.0
 11
283.4501716008649
 21
203.2671117269697
 31
0.0
  0
LINE
  5
10F
330
70
100
AcDbEntity
  8
HONTAI
 62
     8
420
  8421504
370
    25
100
AcDbLine
 10
283.4501716008649
 20
203.2671117269697
 30
0.0
 11
287.6561558285791
 21
188.7208492306055
 31
0.0
  0
LINE
  5
110
330
70
100
AcDbEntity
  8
HONTAI
 62
     8
420
  8421504
370
    25
100
AcDbLine
 10
287.6561558285791
 20
188.7208492306055
 30
0.0
 11
281.6044329131691
 21
203.2671117269697
 31
0.0
  0
LINE
  5
111
330
70
100
AcDbEntity
  8
HONTAI
 62
     8
420
  8421504
370
    25
100
AcDbLine
 10
281.6044329131691
 20
203.2671117269697
 30
0.0
 11
286.3565415792595
 21
188.7208492306055
 31
0.0
  0
LINE
  5
112
330
70
100
AcDbEntity
  8
HONTAI
 62
     8
420
  8421504
370
    25
100
AcDbLine
 10
286.3565415792595
 20
188.7208492306055
 30
0.0
 11
280.4842040868678
 21
203.2671117269697
 31
0.0
  0
LINE
  5
113
330
70
100
AcDbEntity
  8
HONTAI
 62
     8
420
  8421504
370
    25
100
AcDbLine
 10
280.4842040868678
 20
203.2671117269697
 30
0.0
 11
285.7011272945326
 21
188.7208492306055
 31
0.0
  0
LINE
  5
114
330
70
100
AcDbEntity
  8
HONTAI
 62
     8
420
  8421504
370
    25
100
AcDbLine
 10
285.7011272945326
 20
188.7208492306055
 30
0.0
 11
280.1086525477865
 21
203.2671117269697
 31
0.0
  0
LINE
  5
115
330
70
100
AcDbEntity
  8
HONTAI
 62
     8
420
  8421504
370
    25
100
AcDbLine
 10
320.2036688060967
 20
177.7072504833567
 30
0.0
 11
316.5173985286025
 21
188.7208492306055
 31
0.0
  0
LINE
  5
116
330
70
100
AcDbEntity
  8
HONTAI
 62
     8
420
  8421504
370
    25
100
AcDbLine
 10
316.5173985286025
 20
188.7208492306055
 30
0.0
 11
316.4601923829542
 21
177.7072504833624
 31
0.0
  0
LINE
  5
117
330
70
100
AcDbEntity
  8
HONTAI
 62
     8
420
  8421504
370
    25
100
AcDbLine
 10
316.4601923829542
 20
177.7072504833624
 30
0.0
 11
311.6671721199011
 21
188.7208492306055
 31
0.0
  0
LINE
  5
118
330
70
100
AcDbEntity
  8
HONTAI
 62
     8
420
  8421504
370
    25
100
AcDbLine
 10
311.6671721199011
 20
188.7208492306055
 30
0.0
 11
312.8573056259933
 21
177.7072504833624
 31
0.0
  0
LINE
  5
119
330
70
100
AcDbEntity
  8
HONTAI
 62
     8
420
  8421504
370
    25
100
AcDbLine
 10
312.8573056259933
 20
177.7072504833624
 30
0.0
 11
307.0280737698229
 21
188.7208492306055
 31
0.0
  0
LINE
  5
11A
330
70
100
AcDbEntity
  8
HONTAI
 62
     8
420
  8421504
370
    25
100
AcDbLine
 10
307.0280737698229
 20
188.7208492306055
 30
0.0
 11
309.4393981632056
 21
177.7072504833624
 31
0.0
  0
LINE
  5
11B
330
70
100
AcDbEntity
  8
HONTAI
 62
     8
420
  8421504
370
    25
100
AcDbLine
 10
309.4393981632056
 20
177.7072504833624
 30
0.0
 11
302.679479737316
 21
188.7208492306055
 31
0.0
  0
LINE
  5
11C
330
70
100
AcDbEntity
  8
HONTAI
 62
     8
420
  8421504
370
    25
100
AcDbLine
 10
302.679479737316
 20
188.7208492306055
 30
0.0
 11
306.2707365890779
 21
177.7072504833624
 31
0.0
  0
LINE
  5
11D
330
70
100
AcDbEntity
  8
HONTAI
 62
     8
420
  8421504
370
    25
100
AcDbLine
 10
306.2707365890779
 20
177.7072504833624
 30
0.0
 11
298.695795671946
 21
188.7208492306055
 31
0.0
  0
LINE
  5
11E
330
70
100
AcDbEntity
  8
HONTAI
 62
     8
420
  8421504
370
    25
100
AcDbLine
 10
298.695795671946
 20
188.7208492306055
 30
0.0
 11
303.405537581661
 21
177.7072504833624
 31
0.0
  0
LINE
  5
11F
330
70
100
AcDbEntity
  8
HONTAI
 62
     8
420
  8421504
370
    25
100
AcDbLine
 10
303.405537581661
 20
177.7072504833624
 30
0.0
 11
295.1451835125618
 21
188.7208492306055
 31
0.0
  0
LINE
  5
120
330
70
100
AcDbEntity
  8
HONTAI
 62
     8
420
  8421504
370
    25
100
AcDbLine
 10
295.1451835125618
 20
188.7208492306055
 30
0.0
 11
300.8928254903645
 21
177.7072504833624
 31
0.0
  0
LINE
  5
121
330
70
100
AcDbEntity
  8
HONTAI
 62
     8
420
  8421504
370
    25
100
AcDbLine
 10
300.8928254903645
 20
177.7072504833624
 30
0.0
 11
292.08839521763
 21
188.7208492306055
 31
0.0
  0
LINE
  5
122
330
70
100
AcDbEntity
  8
HONTAI
 62
     8
420
  8421504
370
    25
100
AcDbLine
 10
292.08839521763
 20
188.7208492306055
 30
0.0
 11
298.7755935157514
 21
177.7072504833624
 31
0.0
  0
LINE
  5
123
330
70
100
AcDbEntity
  8
HONTAI
 62
     8
420
  8421504
370
    25
100
AcDbLine
 10
298.7755935157514
 20
177.7072504833624
 30
0.0
 11
289.5777332823674
 21
188.7208492306055
 31
0.0
  0
LINE
  5
124
330
70
100
AcDbEntity
  8
HONTAI
 62
     8
420
  8421504
370
    25
100
AcDbLine
 10
289.5777332823674
 20
188.7208492306055
 30
0.0
 11
297.0900680838727
 21
177.7072504833624
 31
0.0
  0
LINE
  5
125
330
70
100
AcDbEntity
  8
HONTAI
 62
     8
420
  8421504
370
    25
100
AcDbLine
 10
297.0900680838727
 20
177.7072504833624
 30
0.0
 11
287.6561558285791
 21
188.7208492306055
 31
0.0
  0
LINE
  5
126
330
70
100
AcDbEntity
  8
HONTAI
 62
     8
420
  8421504
370
    25
100
AcDbLine
 10
287.6561558285791
 20
188.7208492306055
 30
0.0
 11
295.8650890022117
 21
177.7072504833624
 31
0.0
  0
LINE
  5
127
330
70
100
AcDbEntity
  8
HONTAI
 62
     8
420
  8421504
370
    25
100
AcDbLine
 10
295.8650890022117
 20
177.7072504833624
 30
0.0
 11
286.3565415792595
 21
188.7208492306055
 31
0.0
  0
LINE
  5
128
330
70
100
AcDbEntity
  8
HONTAI
 62
     8
420
  8421504
370
    25
100
AcDbLine
 10
286.3565415792595
 20
188.7208492306055
 30
0.0
 11
295.1216160024692
 21
177.7072504833624
 31
0.0
  0
LINE
  5
129
330
70
100
AcDbEntity
  8
HONTAI
 62
     8
420
  8421504
370
    25
100
AcDbLine
 10
295.1216160024692
 20
177.7072504833624
 30
0.0
 11
285.7011272945326
 21
188.7208492306055
 31
0.0
  0
LINE
  5
12A
330
70
100
AcDbEntity
  8
HONTAI
 62
     8
420
  8421504
370
    25
100
AcDbLine
 10
285.7011272945326
 20
188.7208492306055
 30
0.0
 11
294.8723701137931
 21
177.7072504833624
 31
0.0
  0
LINE
  5
12B
330
70
100
AcDbEntity
  8
HONTAI
 62
     8
420
  8421504
370
    25
100
AcDbLine
 10
320.2036688061955
 20
177.7072504830268
 30
0.0
 11
320.9181075217345
 21
166.2541742131934
 31
0.0
  0
LINE
  5
12C
330
70
100
AcDbEntity
  8
HONTAI
 62
     8
420
  8421504
370
    25
100
AcDbLine
 10
320.9181075217345
 20
166.2541742131934
 30
0.0
 11
316.4601923829542
 21
177.7072504833624
 31
0.0
  0
LINE
  5
12D
330
70
100
AcDbEntity
  8
HONTAI
 62
     8
420
  8421504
370
    25
100
AcDbLine
 10
316.4601923829542
 20
177.7072504833624
 30
0.0
 11
319.0287453064733
 21
166.3568409518034
 31
0.0
  0
LINE
  5
12E
330
70
100
AcDbEntity
  8
HONTAI
 62
     8
420
  8421504
370
    25
100
AcDbLine
 10
319.0287453064733
 20
166.3568409518034
 30
0.0
 11
312.8573056259933
 21
177.7072504833624
 31
0.0
  0
LINE
  5
12F
330
70
100
AcDbEntity
  8
HONTAI
 62
     8
420
  8421504
370
    25
100
AcDbLine
 10
312.8573056259933
 20
177.7072504833624
 30
0.0
 11
317.2350867100403
 21
166.5049391722377
 31
0.0
  0
LINE
  5
130
330
70
100
AcDbEntity
  8
HONTAI
 62
     8
420
  8421504
370
    25
100
AcDbLine
 10
317.2350867100403
 20
166.5049391722377
 30
0.0
 11
309.4393981632056
 21
177.7072504833624
 31
0.0
  0
LINE
  5
131
330
70
100
AcDbEntity
  8
HONTAI
 62
     8
420
  8421504
370
    25
100
AcDbLine
 10
309.4393981632056
 20
177.7072504833624
 30
0.0
 11
315.6829009258292
 21
166.7103889839967
 31
0.0
  0
LINE
  5
132
330
70
100
AcDbEntity
  8
HONTAI
 62
     8
420
  8421504
370
    25
100
AcDbLine
 10
315.6829009258292
 20
166.7103889839967
 30
0.0
 11
306.2707365890779
 21
177.7072504833624
 31
0.0
  0
LINE
  5
133
330
70
100
AcDbEntity
  8
HONTAI
 62
     8
420
  8421504
370
    25
100
AcDbLine
 10
306.2707365890779
 20
177.7072504833624
 30
0.0
 11
314.2951114513998
 21
166.879126558443
 31
0.0
  0
LINE
  5
134
330
70
100
AcDbEntity
  8
HONTAI
 62
     8
420
  8421504
370
    25
100
AcDbLine
 10
314.2951114513998
 20
166.879126558443
 30
0.0
 11
303.405537581661
 21
177.7072504833624
 31
0.0
  0
LINE
  5
135
330
70
100
AcDbEntity
  8
HONTAI
 62
     8
420
  8421504
370
    25
100
AcDbLine
 10
303.405537581661
 20
177.7072504833624
 30
0.0
 11
313.0319921854703
 21
167.1068018558349
 31
0.0
  0
LINE
  5
136
330
70
100
AcDbEntity
  8
HONTAI
 62
     8
420
  8421504
370
    25
100
AcDbLine
 10
313.0319921854703
 20
167.1068018558349
 30
0.0
 11
300.8928254903645
 21
177.7072504833624
 31
0.0
  0
LINE
  5
137
330
70
100
AcDbEntity
  8
HONTAI
 62
     8
420
  8421504
370
    25
100
AcDbLine
 10
300.8928254903645
 20
177.7072504833624
 30
0.0
 11
311.9826025515429
 21
167.3400417293214
 31
0.0
  0
LINE
  5
138
330
70
100
AcDbEntity
  8
HONTAI
 62
     8
420
  8421504
370
    25
100
AcDbLine
 10
311.9826025515429
 20
167.3400417293214
 30
0.0
 11
298.7755935157514
 21
177.7072504833624
 31
0.0
  0
LINE
  5
139
330
70
100
AcDbEntity
  8
HONTAI
 62
     8
420
  8421504
370
    25
100
AcDbLine
 10
298.7755935157514
 20
177.7072504833624
 30
0.0
 11
311.1642864602119
 21
167.5603438459297
 31
0.0
  0
LINE
  5
13A
330
70
100
AcDbEntity
  8
HONTAI
 62
     8
420
  8421504
370
    25
100
AcDbLine
 10
311.1642864602119
 20
167.5603438459297
 30
0.0
 11
297.0900680838727
 21
177.7072504833624
 31
0.0
  0
LINE
  5
13B
330
70
100
AcDbEntity
  8
HONTAI
 62
     8
420
  8421504
370
    25
100
AcDbLine
 10
297.0900680838727
 20
177.7072504833624
 30
0.0
 11
310.5804487944433
 21
167.7464384911198
 31
0.0
  0
LINE
  5
13C
330
70
100
AcDbEntity
  8
HONTAI
 62
     8
420
  8421504
370
    25
100
AcDbLine
 10
310.5804487944433
 20
167.7464384911198
 30
0.0
 11
295.8650890022117
 21
177.7072504833624
 31
0.0
  0
LINE
  5
13D
330
70
100
AcDbEntity
  8
HONTAI
 62
     8
420
  8421504
370
    25
100
AcDbLine
 10
295.8650890022117
 20
177.7072504833624
 30
0.0
 11
310.2172380260165
 21
167.8789280609117
 31
0.0
  0
LINE
  5
13E
330
70
100
AcDbEntity
  8
HONTAI
 62
     8
420
  8421504
370
    25
100
AcDbLine
 10
310.2172380260165
 20
167.8789280609117
 30
0.0
 11
295.1216160024692
 21
177.7072504833624
 31
0.0
  0
LINE
  5
13F
330
70
100
AcDbEntity
  8
HONTAI
 62
     8
420
  8421504
370
    25
100
AcDbLine
 10
295.1216160024692
 20
177.7072504833624
 30
0.0
 11
309.262030223761
 21
168.3309919536488
 31
0.0
  0
LINE
  5
140
330
70
100
AcDbEntity
  8
HONTAI
 62
     8
420
  8421504
370
    25
100
AcDbLine
 10
338.5526887089572
 20
253.8227537408396
 30
0.0
 11
353.1404823113859
 21
245.4512729664272
 31
0.0
  0
LINE
  5
141
330
70
100
AcDbEntity
  8
HONTAI
 62
     8
420
  8421504
370
    25
100
AcDbLine
 10
353.1404823113859
 20
245.4512729664272
 30
0.0
 11
362.3939156923124
 21
234.4376742191784
 31
0.0
  0
LINE
  5
142
330
70
100
AcDbEntity
  8
HONTAI
 62
     8
420
  8421504
370
    25
100
AcDbLine
 10
362.3939156923124
 20
234.4376742191784
 30
0.0
 11
367.9041998774006
 21
219.8914117228142
 31
0.0
  0
LINE
  5
143
330
70
100
AcDbEntity
  8
HONTAI
 62
     8
420
  8421504
370
    25
100
AcDbLine
 10
367.9041998774006
 20
219.8914117228142
 30
0.0
 11
367.9041998774006
 21
203.2671117269697
 31
0.0
  0
LINE
  5
144
330
70
100
AcDbEntity
  8
HONTAI
 62
     8
420
  8421504
370
    25
100
AcDbLine
 10
327.80918361909
 20
245.4512729664272
 30
0.0
 11
326.5170881478598
 21
234.4376742191784
 31
0.0
  0
LINE
  5
145
330
70
100
AcDbEntity
  8
HONTAI
 62
     8
420
  8421504
370
    25
100
AcDbLine
 10
324.0081193097209
 20
245.4512729664272
 30
0.0
 11
325.8478623680948
 21
251.4771938266678
 31
0.0
  0
LINE
  5
146
330
70
100
AcDbEntity
  8
HONTAI
 62
     8
420
  8421504
370
    25
100
AcDbLine
 10
325.8478623680948
 20
251.4771938266678
 30
0.0
 11
327.80918361909
 21
245.4512729664272
 31
0.0
  0
LINE
  5
147
330
70
100
AcDbEntity
  8
HONTAI
 62
     8
420
  8421504
370
    25
100
AcDbLine
 10
324.0081193097209
 20
245.4512729664272
 30
0.0
 11
326.5170881478598
 21
234.4376742191784
 31
0.0
  0
LINE
  5
148
330
70
100
AcDbEntity
  8
HONTAI
 62
     8
420
  8421504
370
    25
100
AcDbLine
 10
326.5170881478598
 20
234.4376742191784
 30
0.0
 11
324.0081193097209
 21
219.8914117228142
 31
0.0
  0
LINE
  5
149
330
70
100
AcDbEntity
  8
HONTAI
 62
     8
420
  8421504
370
    25
100
AcDbLine
 10
326.5170881478598
 20
234.4376742191784
 30
0.0
 11
329.7362354559933
 21
219.8914117228142
 31
0.0
  0
LINE
  5
14A
330
70
100
AcDbEntity
  8
HONTAI
 62
     8
420
  8421504
370
    25
100
AcDbLine
 10
329.7362354559933
 20
219.8914117228142
 30
0.0
 11
329.7362354559933
 21
203.2671117269697
 31
0.0
  0
LINE
  5
14B
330
70
100
AcDbEntity
  8
HONTAI
 62
     8
420
  8421504
370
    25
100
AcDbLine
 10
335.3680060746379
 20
219.8914117228142
 30
0.0
 11
335.3680060746379
 21
203.2671117269697
 31
0.0
  0
LINE
  5
14C
330
70
100
AcDbEntity
  8
HONTAI
 62
     8
420
  8421504
370
    25
100
AcDbLine
 10
340.8053769118231
 20
219.8914117228142
 30
0.0
 11
340.8053769118231
 21
203.2671117269697
 31
0.0
  0
LINE
  5
14D
330
70
100
AcDbEntity
  8
HONTAI
 62
     8
420
  8421504
370
    25
100
AcDbLine
 10
345.9553130449981
 20
219.8914117228142
 30
0.0
 11
345.9553130449981
 21
203.2671117269697
 31
0.0
  0
LINE
  5
14E
330
70
100
AcDbEntity
  8
HONTAI
 62
     8
420
  8421504
370
    25
100
AcDbLine
 10
350.7296976390732
 20
219.8914117228142
 30
0.0
 11
350.7296976390732
 21
203.2671117269697
 31
0.0
  0
LINE
  5
14F
330
70
100
AcDbEntity
  8
HONTAI
 62
     8
420
  8421504
370
    25
100
AcDbLine
 10
355.0468396499647
 20
219.8914117228142
 30
0.0
 11
355.0468396499647
 21
203.2671117269697
 31
0.0
  0
LINE
  5
150
330
70
100
AcDbEntity
  8
HONTAI
 62
     8
420
  8421504
370
    25
100
AcDbLine
 10
358.8328715809106
 20
219.8914117228142
 30
0.0
 11
358.8328715809106
 21
203.2671117269697
 31
0.0
  0
LINE
  5
151
330
70
100
AcDbEntity
  8
HONTAI
 62
     8
420
  8421504
370
    25
100
AcDbLine
 10
362.0230133758942
 20
219.8914117228142
 30
0.0
 11
362.0230133758942
 21
203.2671117269697
 31
0.0
  0
LINE
  5
152
330
70
100
AcDbEntity
  8
HONTAI
 62
     8
420
  8421504
370
    25
100
AcDbLine
 10
364.5626808243225
 20
219.8914117228142
 30
0.0
 11
364.5626808243225
 21
203.2671117269697
 31
0.0
  0
LINE
  5
153
330
70
100
AcDbEntity
  8
HONTAI
 62
     8
420
  8421504
370
    25
100
AcDbLine
 10
366.4084195120176
 20
219.8914117228142
 30
0.0
 11
366.4084195120176
 21
203.2671117269697
 31
0.0
  0
LINE
  5
154
330
70
100
AcDbEntity
  8
HONTAI
 62
     8
420
  8421504
370
    25
100
AcDbLine
 10
367.5286483383193
 20
219.8914117228142
 30
0.0
 11
367.5286483383193
 21
203.2671117269697
 31
0.0
  0
LINE
  5
155
330
70
100
AcDbEntity
  8
HONTAI
 62
     8
420
  8421504
370
    25
100
AcDbLine
 10
329.7362354559933
 20
219.8914117228142
 30
0.0
 11
331.4954538965787
 21
234.4376742191784
 31
0.0
  0
LINE
  5
156
330
70
100
AcDbEntity
  8
HONTAI
 62
     8
420
  8421504
370
    25
100
AcDbLine
 10
331.4954538965787
 20
234.4376742191784
 30
0.0
 11
335.3680060746379
 21
219.8914117228142
 31
0.0
  0
LINE
  5
157
330
70
100
AcDbEntity
  8
HONTAI
 62
     8
420
  8421504
370
    25
100
AcDbLine
 10
335.3680060746379
 20
219.8914117228142
 30
0.0
 11
336.3456803052747
 21
234.4376742191784
 31
0.0
  0
LINE
  5
158
330
70
100
AcDbEntity
  8
HONTAI
 62
     8
420
  8421504
370
    25
100
AcDbLine
 10
336.3456803052747
 20
234.4376742191784
 30
0.0
 11
340.8053769118231
 21
219.8914117228142
 31
0.0
  0
LINE
  5
159
330
70
100
AcDbEntity
  8
HONTAI
 62
     8
420
  8421504
370
    25
100
AcDbLine
 10
340.8053769118231
 20
219.8914117228142
 30
0.0
 11
340.9847786553639
 21
234.4376742191784
 31
0.0
  0
LINE
  5
15A
330
70
100
AcDbEntity
  8
HONTAI
 62
     8
420
  8421504
370
    25
100
AcDbLine
 10
340.9847786553639
 20
234.4376742191784
 30
0.0
 11
345.9553130449981
 21
219.8914117228142
 31
0.0
  0
LINE
  5
15B
330
70
100
AcDbEntity
  8
HONTAI
 62
     8
420
  8421504
370
    25
100
AcDbLine
 10
345.9553130449981
 20
219.8914117228142
 30
0.0
 11
345.3333726878704
 21
234.4376742191784
 31
0.0
  0
LINE
  5
15C
330
70
100
AcDbEntity
  8
HONTAI
 62
     8
420
  8421504
370
    25
100
AcDbLine
 10
345.3333726878704
 20
234.4376742191784
 30
0.0
 11
350.7296976390732
 21
219.8914117228142
 31
0.0
  0
LINE
  5
15D
330
70
100
AcDbEntity
  8
HONTAI
 62
     8
420
  8421504
370
    25
100
AcDbLine
 10
350.7296976390732
 20
219.8914117228142
 30
0.0
 11
349.3170567532299
 21
234.4376742191784
 31
0.0
  0
LINE
  5
15E
330
70
100
AcDbEntity
  8
HONTAI
 62
     8
420
  8421504
370
    25
100
AcDbLine
 10
349.3170567532299
 20
234.4376742191784
 30
0.0
 11
355.0468396499647
 21
219.8914117228142
 31
0.0
  0
LINE
  5
15F
330
70
100
AcDbEntity
  8
HONTAI
 62
     8
420
  8421504
370
    25
100
AcDbLine
 10
355.0468396499647
 20
219.8914117228142
 30
0.0
 11
352.8676689126249
 21
234.4376742191784
 31
0.0
  0
LINE
  5
160
330
70
100
AcDbEntity
  8
HONTAI
 62
     8
420
  8421504
370
    25
100
AcDbLine
 10
352.8676689126249
 20
234.4376742191784
 30
0.0
 11
358.8328715809106
 21
219.8914117228142
 31
0.0
  0
LINE
  5
161
330
70
100
AcDbEntity
  8
HONTAI
 62
     8
420
  8421504
370
    25
100
AcDbLine
 10
358.8328715809106
 20
219.8914117228142
 30
0.0
 11
355.9244572075564
 21
234.4376742191784
 31
0.0
  0
LINE
  5
162
330
70
100
AcDbEntity
  8
HONTAI
 62
     8
420
  8421504
370
    25
100
AcDbLine
 10
355.9244572075564
 20
234.4376742191784
 30
0.0
 11
362.0230133758942
 21
219.8914117228142
 31
0.0
  0
LINE
  5
163
330
70
100
AcDbEntity
  8
HONTAI
 62
     8
420
  8421504
370
    25
100
AcDbLine
 10
362.0230133758942
 20
219.8914117228142
 30
0.0
 11
358.4351191428193
 21
234.4376742191784
 31
0.0
  0
LINE
  5
164
330
70
100
AcDbEntity
  8
HONTAI
 62
     8
420
  8421504
370
    25
100
AcDbLine
 10
358.4351191428193
 20
234.4376742191784
 30
0.0
 11
364.5626808243225
 21
219.8914117228142
 31
0.0
  0
LINE
  5
165
330
70
100
AcDbEntity
  8
HONTAI
 62
     8
420
  8421504
370
    25
100
AcDbLine
 10
364.5626808243225
 20
219.8914117228142
 30
0.0
 11
360.3566965966073
 21
234.4376742191784
 31
0.0
  0
LINE
  5
166
330
70
100
AcDbEntity
  8
HONTAI
 62
     8
420
  8421504
370
    25
100
AcDbLine
 10
360.3566965966073
 20
234.4376742191784
 30
0.0
 11
366.4084195120176
 21
219.8914117228142
 31
0.0
  0
LINE
  5
167
330
70
100
AcDbEntity
  8
HONTAI
 62
     8
420
  8421504
370
    25
100
AcDbLine
 10
366.4084195120176
 20
219.8914117228142
 30
0.0
 11
361.656310845927
 21
234.4376742191784
 31
0.0
  0
LINE
  5
168
330
70
100
AcDbEntity
  8
HONTAI
 62
     8
420
  8421504
370
    25
100
AcDbLine
 10
361.656310845927
 20
234.4376742191784
 30
0.0
 11
367.5286483383193
 21
219.8914117228142
 31
0.0
  0
LINE
  5
169
330
70
100
AcDbEntity
  8
HONTAI
 62
     8
420
  8421504
370
    25
100
AcDbLine
 10
367.5286483383193
 20
219.8914117228142
 30
0.0
 11
362.3117251306541
 21
234.4376742191784
 31
0.0
  0
LINE
  5
16A
330
70
100
AcDbEntity
  8
HONTAI
 62
     8
420
  8421504
370
    25
100
AcDbLine
 10
362.3117251306541
 20
234.4376742191784
 30
0.0
 11
367.9041998774006
 21
219.8914117228142
 31
0.0
  0
LINE
  5
16B
330
70
100
AcDbEntity
  8
HONTAI
 62
     8
420
  8421504
370
    25
100
AcDbLine
 10
327.80918361909
 20
245.4512729664272
 30
0.0
 11
331.4954538965787
 21
234.4376742191784
 31
0.0
  0
LINE
  5
16C
330
70
100
AcDbEntity
  8
HONTAI
 62
     8
420
  8421504
370
    25
100
AcDbLine
 10
331.4954538965787
 20
234.4376742191784
 30
0.0
 11
331.5526600422331
 21
245.4512729664272
 31
0.0
  0
LINE
  5
16D
330
70
100
AcDbEntity
  8
HONTAI
 62
     8
420
  8421504
370
    25
100
AcDbLine
 10
331.5526600422331
 20
245.4512729664272
 30
0.0
 11
336.3456803052747
 21
234.4376742191784
 31
0.0
  0
LINE
  5
16E
330
70
100
AcDbEntity
  8
HONTAI
 62
     8
420
  8421504
370
    25
100
AcDbLine
 10
336.3456803052747
 20
234.4376742191784
 30
0.0
 11
335.1555467991941
 21
245.4512729664272
 31
0.0
  0
LINE
  5
16F
330
70
100
AcDbEntity
  8
HONTAI
 62
     8
420
  8421504
370
    25
100
AcDbLine
 10
335.1555467991941
 20
245.4512729664272
 30
0.0
 11
340.9847786553639
 21
234.4376742191784
 31
0.0
  0
LINE
  5
170
330
70
100
AcDbEntity
  8
HONTAI
 62
     8
420
  8421504
370
    25
100
AcDbLine
 10
340.9847786553639
 20
234.4376742191784
 30
0.0
 11
338.5734542619811
 21
245.4512729664272
 31
0.0
  0
LINE
  5
171
330
70
100
AcDbEntity
  8
HONTAI
 62
     8
420
  8421504
370
    25
100
AcDbLine
 10
338.5734542619811
 20
245.4512729664272
 30
0.0
 11
345.3333726878704
 21
234.4376742191784
 31
0.0
  0
LINE
  5
172
330
70
100
AcDbEntity
  8
HONTAI
 62
     8
420
  8421504
370
    25
100
AcDbLine
 10
345.3333726878704
 20
234.4376742191784
 30
0.0
 11
341.7421158361094
 21
245.4512729664272
 31
0.0
  0
LINE
  5
173
330
70
100
AcDbEntity
  8
HONTAI
 62
     8
420
  8421504
370
    25
100
AcDbLine
 10
341.7421158361094
 20
245.4512729664272
 30
0.0
 11
349.3170567532299
 21
234.4376742191784
 31
0.0
  0
LINE
  5
174
330
70
100
AcDbEntity
  8
HONTAI
 62
     8
420
  8421504
370
    25
100
AcDbLine
 10
349.3170567532299
 20
234.4376742191784
 30
0.0
 11
344.6073148435255
 21
245.4512729664272
 31
0.0
  0
LINE
  5
175
330
70
100
AcDbEntity
  8
HONTAI
 62
     8
420
  8421504
370
    25
100
AcDbLine
 10
344.6073148435255
 20
245.4512729664272
 30
0.0
 11
352.8676689126249
 21
234.4376742191784
 31
0.0
  0
LINE
  5
176
330
70
100
AcDbEntity
  8
HONTAI
 62
     8
420
  8421504
370
    25
100
AcDbLine
 10
352.8676689126249
 20
234.4376742191784
 30
0.0
 11
347.1200269348088
 21
245.4512729664272
 31
0.0
  0
LINE
  5
177
330
70
100
AcDbEntity
  8
HONTAI
 62
     8
420
  8421504
370
    25
100
AcDbLine
 10
347.1200269348088
 20
245.4512729664272
 30
0.0
 11
355.9244572075564
 21
234.4376742191784
 31
0.0
  0
LINE
  5
178
330
70
100
AcDbEntity
  8
HONTAI
 62
     8
420
  8421504
370
    25
100
AcDbLine
 10
355.9244572075564
 20
234.4376742191784
 30
0.0
 11
349.2372589094356
 21
245.4512729664272
 31
0.0
  0
LINE
  5
179
330
70
100
AcDbEntity
  8
HONTAI
 62
     8
420
  8421504
370
    25
100
AcDbLine
 10
349.2372589094356
 20
245.4512729664272
 30
0.0
 11
358.4351191428193
 21
234.4376742191784
 31
0.0
  0
LINE
  5
17A
330
70
100
AcDbEntity
  8
HONTAI
 62
     8
420
  8421504
370
    25
100
AcDbLine
 10
358.4351191428193
 20
234.4376742191784
 30
0.0
 11
350.9227843413141
 21
245.4512729664272
 31
0.0
  0
LINE
  5
17B
330
70
100
AcDbEntity
  8
HONTAI
 62
     8
420
  8421504
370
    25
100
AcDbLine
 10
350.9227843413141
 20
245.4512729664272
 30
0.0
 11
360.3566965966073
 21
234.4376742191784
 31
0.0
  0
LINE
  5
17C
330
70
100
AcDbEntity
  8
HONTAI
 62
     8
420
  8421504
370
    25
100
AcDbLine
 10
360.3566965966073
 20
234.4376742191784
 30
0.0
 11
352.147763422976
 21
245.4512729664272
 31
0.0
  0
LINE
  5
17D
330
70
100
AcDbEntity
  8
HONTAI
 62
     8
420
  8421504
370
    25
100
AcDbLine
 10
352.147763422976
 20
245.4512729664272
 30
0.0
 11
361.656310845927
 21
234.4376742191784
 31
0.0
  0
LINE
  5
17E
330
70
100
AcDbEntity
  8
HONTAI
 62
     8
420
  8421504
370
    25
100
AcDbLine
 10
361.656310845927
 20
234.4376742191784
 30
0.0
 11
352.8912364227181
 21
245.4512729664272
 31
0.0
  0
LINE
  5
17F
330
70
100
AcDbEntity
  8
HONTAI
 62
     8
420
  8421504
370
    25
100
AcDbLine
 10
352.8912364227181
 20
245.4512729664272
 30
0.0
 11
362.3117251306541
 21
234.4376742191784
 31
0.0
  0
LINE
  5
180
330
70
100
AcDbEntity
  8
HONTAI
 62
     8
420
  8421504
370
    25
100
AcDbLine
 10
362.3117251306541
 20
234.4376742191784
 30
0.0
 11
353.1404823113859
 21
245.4512729664272
 31
0.0
  0
LINE
  5
181
330
70
100
AcDbEntity
  8
HONTAI
 62
     8
420
  8421504
370
    25
100
AcDbLine
 10
327.8091836189912
 20
245.4512729667567
 30
0.0
 11
328.2141016937199
 21
251.5482693737038
 31
0.0
  0
LINE
  5
182
330
70
100
AcDbEntity
  8
HONTAI
 62
     8
420
  8421504
370
    25
100
AcDbLine
 10
328.2141016937199
 20
251.5482693737038
 30
0.0
 11
331.5526600422331
 21
245.4512729664272
 31
0.0
  0
LINE
  5
183
330
70
100
AcDbEntity
  8
HONTAI
 62
     8
420
  8421504
370
    25
100
AcDbLine
 10
331.5526600422331
 20
245.4512729664272
 30
0.0
 11
330.4347976868122
 21
251.6715561341944
 31
0.0
  0
LINE
  5
184
330
70
100
AcDbEntity
  8
HONTAI
 62
     8
420
  8421504
370
    25
100
AcDbLine
 10
330.4347976868122
 20
251.6715561341944
 30
0.0
 11
335.1555467991941
 21
245.4512729664272
 31
0.0
  0
LINE
  5
185
330
70
100
AcDbEntity
  8
HONTAI
 62
     8
420
  8421504
370
    25
100
AcDbLine
 10
335.1555467991941
 20
245.4512729664272
 30
0.0
 11
332.4519300230944
 21
251.8412531658532
 31
0.0
  0
LINE
  5
186
330
70
100
AcDbEntity
  8
HONTAI
 62
     8
420
  8421504
370
    25
100
AcDbLine
 10
332.4519300230944
 20
251.8412531658532
 30
0.0
 11
338.5734542619811
 21
245.4512729664272
 31
0.0
  0
LINE
  5
187
330
70
100
AcDbEntity
  8
HONTAI
 62
     8
420
  8421504
370
    25
100
AcDbLine
 10
338.5734542619811
 20
245.4512729664272
 30
0.0
 11
334.2154243500135
 21
252.0498357197301
 31
0.0
  0
LINE
  5
188
330
70
100
AcDbEntity
  8
HONTAI
 62
     8
420
  8421504
370
    25
100
AcDbLine
 10
334.2154243500135
 20
252.0498357197301
 30
0.0
 11
341.7421158361094
 21
245.4512729664272
 31
0.0
  0
LINE
  5
189
330
70
100
AcDbEntity
  8
HONTAI
 62
     8
420
  8421504
370
    25
100
AcDbLine
 10
341.7421158361094
 20
245.4512729664272
 30
0.0
 11
335.6920967364207
 21
252.28910627177
 31
0.0
  0
LINE
  5
18A
330
70
100
AcDbEntity
  8
HONTAI
 62
     8
420
  8421504
370
    25
100
AcDbLine
 10
335.6920967364207
 20
252.28910627177
 30
0.0
 11
344.6073148435255
 21
245.4512729664272
 31
0.0
  0
LINE
  5
18B
330
70
100
AcDbEntity
  8
HONTAI
 62
     8
420
  8421504
370
    25
100
AcDbLine
 10
344.6073148435255
 20
245.4512729664272
 30
0.0
 11
336.8636187841128
 21
252.5508517840631
 31
0.0
  0
LINE
  5
18C
330
70
100
AcDbEntity
  8
HONTAI
 62
     8
420
  8421504
370
    25
100
AcDbLine
 10
336.8636187841128
 20
252.5508517840631
 30
0.0
 11
347.1200269348088
 21
245.4512729664272
 31
0.0
  0
LINE
  5
18D
330
70
100
AcDbEntity
  8
HONTAI
 62
     8
420
  8421504
370
    25
100
AcDbLine
 10
347.1200269348088
 20
245.4512729664272
 30
0.0
 11
337.7245446425677
 21
252.8275552914283
 31
0.0
  0
LINE
  5
18E
330
70
100
AcDbEntity
  8
HONTAI
 62
     8
420
  8421504
370
    25
100
AcDbLine
 10
337.7245446425677
 20
252.8275552914283
 30
0.0
 11
349.2372589094356
 21
245.4512729664272
 31
0.0
  0
LINE
  5
18F
330
70
100
AcDbEntity
  8
HONTAI
 62
     8
420
  8421504
370
    25
100
AcDbLine
 10
349.2372589094356
 20
245.4512729664272
 30
0.0
 11
338.2789711854726
 21
253.113290403113
 31
0.0
  0
LINE
  5
190
330
70
100
AcDbEntity
  8
HONTAI
 62
     8
420
  8421504
370
    25
100
AcDbLine
 10
338.2789711854726
 20
253.113290403113
 30
0.0
 11
350.9227843413141
 21
245.4512729664272
 31
0.0
  0
LINE
  5
191
330
70
100
AcDbEntity
  8
HONTAI
 62
     8
420
  8421504
370
    25
100
AcDbLine
 10
350.9227843413141
 20
245.4512729664272
 30
0.0
 11
338.5343534768394
 21
253.405923174447
 31
0.0
  0
LINE
  5
192
330
70
100
AcDbEntity
  8
HONTAI
 62
     8
420
  8421504
370
    25
100
AcDbLine
 10
338.5343534768394
 20
253.405923174447
 30
0.0
 11
352.147763422976
 21
245.4512729664272
 31
0.0
  0
LINE
  5
193
330
70
100
AcDbEntity
  8
HONTAI
 62
     8
420
  8421504
370
    25
100
AcDbLine
 10
352.147763422976
 20
245.4512729664272
 30
0.0
 11
338.4739983349427
 21
253.7214557152587
 31
0.0
  0
LINE
  5
194
330
70
100
AcDbEntity
  8
HONTAI
 62
     8
420
  8421504
370
    25
100
AcDbLine
 10
338.4739983349427
 20
253.7214557152587
 30
0.0
 11
352.8912364227181
 21
245.4512729664272
 31
0.0
  0
LINE
  5
195
330
70
100
AcDbEntity
  8
HONTAI
 62
     8
420
  8421504
370
    25
100
AcDbLine
 10
352.8912364227181
 20
245.4512729664272
 30
0.0
 11
338.5292935266964
 21
253.8227537408396
 31
0.0
  0
LINE
  5
196
330
70
100
AcDbEntity
  8
HONTAI
 62
     8
420
  8421504
370
    25
100
AcDbLine
 10
353.1404823113859
 20
177.7072504833624
 30
0.0
 11
362.3939156923124
 21
188.7208492306055
 31
0.0
  0
LINE
  5
197
330
70
100
AcDbEntity
  8
HONTAI
 62
     8
420
  8421504
370
    25
100
AcDbLine
 10
362.3939156923124
 20
188.7208492306055
 30
0.0
 11
367.9041998774006
 21
203.2671117269697
 31
0.0
  0
LINE
  5
198
330
70
100
AcDbEntity
  8
HONTAI
 62
     8
420
  8421504
370
    25
100
AcDbLine
 10
327.80918361909
 20
177.7072504833624
 30
0.0
 11
326.5170881478598
 21
188.7208492306055
 31
0.0
  0
LINE
  5
199
330
70
100
AcDbEntity
  8
HONTAI
 62
     8
420
  8421504
370
    25
100
AcDbLine
 10
324.0081193097209
 20
177.7072504833624
 30
0.0
 11
326.5170881478598
 21
188.7208492306055
 31
0.0
  0
LINE
  5
19A
330
70
100
AcDbEntity
  8
HONTAI
 62
     8
420
  8421504
370
    25
100
AcDbLine
 10
326.5170881478598
 20
188.7208492306055
 30
0.0
 11
324.0081193097209
 21
203.2671117269697
 31
0.0
  0
LINE
  5
19B
330
70
100
AcDbEntity
  8
HONTAI
 62
     8
420
  8421504
370
    25
100
AcDbLine
 10
326.5170881478598
 20
188.7208492306055
 30
0.0
 11
329.7362354559933
 21
203.2671117269697
 31
0.0
  0
LINE
  5
19C
330
70
100
AcDbEntity
  8
HONTAI
 62
     8
420
  8421504
370
    25
100
AcDbLine
 10
329.7362354559933
 20
203.2671117269697
 30
0.0
 11
331.4954538965787
 21
188.7208492306055
 31
0.0
  0
LINE
  5
19D
330
70
100
AcDbEntity
  8
HONTAI
 62
     8
420
  8421504
370
    25
100
AcDbLine
 10
331.4954538965787
 20
188.7208492306055
 30
0.0
 11
335.3680060746379
 21
203.2671117269697
 31
0.0
  0
LINE
  5
19E
330
70
100
AcDbEntity
  8
HONTAI
 62
     8
420
  8421504
370
    25
100
AcDbLine
 10
335.3680060746379
 20
203.2671117269697
 30
0.0
 11
336.3456803052747
 21
188.7208492306055
 31
0.0
  0
LINE
  5
19F
330
70
100
AcDbEntity
  8
HONTAI
 62
     8
420
  8421504
370
    25
100
AcDbLine
 10
336.3456803052747
 20
188.7208492306055
 30
0.0
 11
340.8053769118231
 21
203.2671117269697
 31
0.0
  0
LINE
  5
1A0
330
70
100
AcDbEntity
  8
HONTAI
 62
     8
420
  8421504
370
    25
100
AcDbLine
 10
340.8053769118231
 20
203.2671117269697
 30
0.0
 11
340.9847786553639
 21
188.7208492306055
 31
0.0
  0
LINE
  5
1A1
330
70
100
AcDbEntity
  8
HONTAI
 62
     8
420
  8421504
370
    25
100
AcDbLine
 10
340.9847786553639
 20
188.7208492306055
 30
0.0
 11
345.9553130449981
 21
203.2671117269697
 31
0.0
  0
LINE
  5
1A2
330
70
100
AcDbEntity
  8
HONTAI
 62
     8
420
  8421504
370
    25
100
AcDbLine
 10
345.9553130449981
 20
203.2671117269697
 30
0.0
 11
345.3333726878704
 21
188.7208492306055
 31
0.0
  0
LINE
  5
1A3
330
70
100
AcDbEntity
  8
HONTAI
 62
     8
420
  8421504
370
    25
100
AcDbLine
 10
345.3333726878704
 20
188.7208492306055
 30
0.0
 11
350.7296976390732
 21
203.2671117269697
 31
0.0
  0
LINE
  5
1A4
330
70
100
AcDbEntity
  8
HONTAI
 62
     8
420
  8421504
370
    25
100
AcDbLine
 10
350.7296976390732
 20
203.2671117269697
 30
0.0
 11
349.3170567532299
 21
188.7208492306055
 31
0.0
  0
LINE
  5
1A5
330
70
100
AcDbEntity
  8
HONTAI
 62
     8
420
  8421504
370
    25
100
AcDbLine
 10
349.3170567532299
 20
188.7208492306055
 30
0.0
 11
355.0468396499647
 21
203.2671117269697
 31
0.0
  0
LINE
  5
1A6
330
70
100
AcDbEntity
  8
HONTAI
 62
     8
420
  8421504
370
    25
100
AcDbLine
 10
355.0468396499647
 20
203.2671117269697
 30
0.0
 11
352.8676689126249
 21
188.7208492306055
 31
0.0
  0
LINE
  5
1A7
330
70
100
AcDbEntity
  8
HONTAI
 62
     8
420
  8421504
370
    25
100
AcDbLine
 10
352.8676689126249
 20
188.7208492306055
 30
0.0
 11
358.8328715809106
 21
203.2671117269697
 31
0.0
  0
LINE
  5
1A8
330
70
100
AcDbEntity
  8
HONTAI
 62
     8
420
  8421504
370
    25
100
AcDbLine
 10
358.8328715809106
 20
203.2671117269697
 30
0.0
 11
355.9244572075564
 21
188.7208492306055
 31
0.0
  0
LINE
  5
1A9
330
70
100
AcDbEntity
  8
HONTAI
 62
     8
420
  8421504
370
    25
100
AcDbLine
 10
355.9244572075564
 20
188.7208492306055
 30
0.0
 11
362.0230133758942
 21
203.2671117269697
 31
0.0
  0
LINE
  5
1AA
330
70
100
AcDbEntity
  8
HONTAI
 62
     8
420
  8421504
370
    25
100
AcDbLine
 10
362.0230133758942
 20
203.2671117269697
 30
0.0
 11
358.4351191428193
 21
188.7208492306055
 31
0.0
  0
LINE
  5
1AB
330
70
100
AcDbEntity
  8
HONTAI
 62
     8
420
  8421504
370
    25
100
AcDbLine
 10
358.4351191428193
 20
188.7208492306055
 30
0.0
 11
364.5626808243225
 21
203.2671117269697
 31
0.0
  0
LINE
  5
1AC
330
70
100
AcDbEntity
  8
HONTAI
 62
     8
420
  8421504
370
    25
100
AcDbLine
 10
364.5626808243225
 20
203.2671117269697
 30
0.0
 11
360.3566965966073
 21
188.7208492306055
 31
0.0
  0
LINE
  5
1AD
330
70
100
AcDbEntity
  8
HONTAI
 62
     8
420
  8421504
370
    25
100
AcDbLine
 10
360.3566965966073
 20
188.7208492306055
 30
0.0
 11
366.4084195120176
 21
203.2671117269697
 31
0.0
  0
LINE
  5
1AE
330
70
100
AcDbEntity
  8
HONTAI
 62
     8
420
  8421504
370
    25
100
AcDbLine
 10
366.4084195120176
 20
203.2671117269697
 30
0.0
 11
361.656310845927
 21
188.7208492306055
 31
0.0
  0
LINE
  5
1AF
330
70
100
AcDbEntity
  8
HONTAI
 62
     8
420
  8421504
370
    25
100
AcDbLine
 10
361.656310845927
 20
188.7208492306055
 30
0.0
 11
367.5286483383193
 21
203.2671117269697
 31
0.0
  0
LINE
  5
1B0
330
70
100
AcDbEntity
  8
HONTAI
 62
     8
420
  8421504
370
    25
100
AcDbLine
 10
367.5286483383193
 20
203.2671117269697
 30
0.0
 11
362.3117251306541
 21
188.7208492306055
 31
0.0
  0
LINE
  5
1B1
330
70
100
AcDbEntity
  8
HONTAI
 62
     8
420
  8421504
370
    25
100
AcDbLine
 10
362.3117251306541
 20
188.7208492306055
 30
0.0
 11
367.9041998774006
 21
203.2671117269697
 31
0.0
  0
LINE
  5
1B2
330
70
100
AcDbEntity
  8
HONTAI
 62
     8
420
  8421504
370
    25
100
AcDbLine
 10
327.80918361909
 20
177.7072504833567
 30
0.0
 11
331.4954538965787
 21
188.7208492306055
 31
0.0
  0
LINE
  5
1B3
330
70
100
AcDbEntity
  8
HONTAI
 62
     8
420
  8421504
370
    25
100
AcDbLine
 10
331.4954538965787
 20
188.7208492306055
 30
0.0
 11
331.5526600422331
 21
177.7072504833624
 31
0.0
  0
LINE
  5
1B4
330
70
100
AcDbEntity
  8
HONTAI
 62
     8
420
  8421504
370
    25
100
AcDbLine
 10
331.5526600422331
 20
177.7072504833624
 30
0.0
 11
336.3456803052747
 21
188.7208492306055
 31
0.0
  0
LINE
  5
1B5
330
70
100
AcDbEntity
  8
HONTAI
 62
     8
420
  8421504
370
    25
100
AcDbLine
 10
336.3456803052747
 20
188.7208492306055
 30
0.0
 11
335.1555467991941
 21
177.7072504833624
 31
0.0
  0
LINE
  5
1B6
330
70
100
AcDbEntity
  8
HONTAI
 62
     8
420
  8421504
370
    25
100
AcDbLine
 10
335.1555467991941
 20
177.7072504833624
 30
0.0
 11
340.9847786553639
 21
188.7208492306055
 31
0.0
  0
LINE
  5
1B7
330
70
100
AcDbEntity
  8
HONTAI
 62
     8
420
  8421504
370
    25
100
AcDbLine
 10
340.9847786553639
 20
188.7208492306055
 30
0.0
 11
338.5734542619811
 21
177.7072504833624
 31
0.0
  0
LINE
  5
1B8
330
70
100
AcDbEntity
  8
HONTAI
 62
     8
420
  8421504
370
    25
100
AcDbLine
 10
338.5734542619811
 20
177.7072504833624
 30
0.0
 11
345.3333726878704
 21
188.7208492306055
 31
0.0
  0
LINE
  5
1B9
330
70
100
AcDbEntity
  8
HONTAI
 62
     8
420
  8421504
370
    25
100
AcDbLine
 10
345.3333726878704
 20
188.7208492306055
 30
0.0
 11
341.7421158361094
 21
177.7072504833624
 31
0.0
  0
LINE
  5
1BA
330
70
100
AcDbEntity
  8
HONTAI
 62
     8
420
  8421504
370
    25
100
AcDbLine
 10
341.7421158361094
 20
177.7072504833624
 30
0.0
 11
349.3170567532299
 21
188.7208492306055
 31
0.0
  0
LINE
  5
1BB
330
70
100
AcDbEntity
  8
HONTAI
 62
     8
420
  8421504
370
    25
100
AcDbLine
 10
349.3170567532299
 20
188.7208492306055
 30
0.0
 11
344.6073148435255
 21
177.7072504833624
 31
0.0
  0
LINE
  5
1BC
330
70
100
AcDbEntity
  8
HONTAI
 62
     8
420
  8421504
370
    25
100
AcDbLine
 10
344.6073148435255
 20
177.7072504833624
 30
0.0
 11
352.8676689126249
 21
188.7208492306055
 31
0.0
  0
LINE
  5
1BD
330
70
100
AcDbEntity
  8
HONTAI
 62
     8
420
  8421504
370
    25
100
AcDbLine
 10
352.8676689126249
 20
188.7208492306055
 30
0.0
 11
347.1200269348088
 21
177.7072504833624
 31
0.0
  0
LINE
  5
1BE
330
70
100
AcDbEntity
  8
HONTAI
 62
     8
420
  8421504
370
    25
100
AcDbLine
 10
347.1200269348088
 20
177.7072504833624
 30
0.0
 11
355.9244572075564
 21
188.7208492306055
 31
0.0
  0
LINE
  5
1BF
330
70
100
AcDbEntity
  8
HONTAI
 62
     8
420
  8421504
370
    25
100
AcDbLine
 10
355.9244572075564
 20
188.7208492306055
 30
0.0
 11
349.2372589094356
 21
177.7072504833624
 31
0.0
  0
LINE
  5
1C0
330
70
100
AcDbEntity
  8
HONTAI
 62
     8
420
  8421504
370
    25
100
AcDbLine
 10
349.2372589094356
 20
177.7072504833624
 30
0.0
 11
358.4351191428193
 21
188.7208492306055
 31
0.0
  0
LINE
  5
1C1
330
70
100
AcDbEntity
  8
HONTAI
 62
     8
420
  8421504
370
    25
100
AcDbLine
 10
358.4351191428193
 20
188.7208492306055
 30
0.0
 11
350.9227843413141
 21
177.7072504833624
 31
0.0
  0
LINE
  5
1C2
330
70
100
AcDbEntity
  8
HONTAI
 62
     8
420
  8421504
370
    25
100
AcDbLine
 10
350.9227843413141
 20
177.7072504833624
 30
0.0
 11
360.3566965966073
 21
188.7208492306055
 31
0.0
  0
LINE
  5
1C3
330
70
100
AcDbEntity
  8
HONTAI
 62
     8
420
  8421504
370
    25
100
AcDbLine
 10
360.3566965966073
 20
188.7208492306055
 30
0.0
 11
352.147763422976
 21
177.7072504833624
 31
0.0
  0
LINE
  5
1C4
330
70
100
AcDbEntity
  8
HONTAI
 62
     8
420
  8421504
370
    25
100
AcDbLine
 10
352.147763422976
 20
177.7072504833624
 30
0.0
 11
361.656310845927
 21
188.7208492306055
 31
0.0
  0
LINE
  5
1C5
330
70
100
AcDbEntity
  8
HONTAI
 62
     8
420
  8421504
370
    25
100
AcDbLine
 10
361.656310845927
 20
188.7208492306055
 30
0.0
 11
352.8912364227181
 21
177.7072504833624
 31
0.0
  0
LINE
  5
1C6
330
70
100
AcDbEntity
  8
HONTAI
 62
     8
420
  8421504
370
    25
100
AcDbLine
 10
352.8912364227181
 20
177.7072504833624
 30
0.0
 11
362.3117251306541
 21
188.7208492306055
 31
0.0
  0
LINE
  5
1C7
330
70
100
AcDbEntity
  8
HONTAI
 62
     8
420
  8421504
370
    25
100
AcDbLine
 10
362.3117251306541
 20
188.7208492306055
 30
0.0
 11
353.1404823113859
 21
177.7072504833624
 31
0.0
  0
LINE
  5
1C8
330
70
100
AcDbEntity
  8
HONTAI
 62
     8
420
  8421504
370
    25
100
AcDbLine
 10
324.0081193097209
 20
219.8914117228142
 30
0.0
 11
324.0081193097209
 21
203.2671117269697
 31
0.0
  0
ELLIPSE
  5
1C9
330
70
100
AcDbEntity
  8
HONTAI
 62
     8
420
  8421504
370
    25
100
AcDbEllipse
 10
324.0064262126019
 20
253.508719098404
 30
0.0
 11
14.54626249636345
 21
0.0
 31
0.0
210
0.0
220
0.0
230
1.0
 40
0.1407922916819058
 41
0.0
 42
6.283185307179584
  0
SPLINE
  5
1CA
330
70
100
AcDbEntity
  8
HONTAI
 62
     8
420
  8421504
370
    25
100
AcDbSpline
210
0.0
220
0.0
230
1.0
 70
     8
 71
     3
 72
    11
 73
     7
 74
     0
 42
0.0000000001
 43
0.0000000001
 40
0.0
 40
0.0
 40
0.0
 40
0.0
 40
1.0
 40
1.0
 40
1.0
 40
2.0
 40
2.0
 40
2.0
 40
2.0
 10
308.4460814164918
 20
169.3357697089511
 30
0.0
 10
308.4460814164918
 20
167.5993066993266
 30
0.0
 10
315.4126850796015
 20
166.1916252976552
 30
0.0
 10
324.0064262126017
 20
166.1916252976552
 30
0.0
 10
332.6001673456023
 20
166.1916252976552
 30
0.0
 10
339.566771008712
 20
167.5993066993266
 30
0.0
 10
339.566771008712
 20
169.3357697089511
 30
0.0
  0
LINE
  5
1CB
330
70
100
AcDbEntity
  8
HONTAI
 62
     8
420
  8421504
370
    25
100
AcDbLine
 10
338.7508222014138
 20
168.3309919536488
 30
0.0
 11
353.1404823113859
 21
177.7072504833624
 31
0.0
  0
LINE
  5
1CC
330
70
100
AcDbEntity
  8
HONTAI
 62
     8
420
  8421504
370
    25
100
AcDbLine
 10
324.0081193097046
 20
177.7072504833624
 30
0.0
 11
325.1303147773826
 21
166.1998372814767
 31
0.0
  0
LINE
  5
1CD
330
70
100
AcDbEntity
  8
HONTAI
 62
     8
420
  8421504
370
    25
100
AcDbLine
 10
325.1303147773826
 20
166.1998372814767
 30
0.0
 11
327.80918361909
 21
177.7072504833624
 31
0.0
  0
LINE
  5
1CE
330
70
100
AcDbEntity
  8
HONTAI
 62
     8
420
  8421504
370
    25
100
AcDbLine
 10
327.8091836189912
 20
177.7072504830268
 30
0.0
 11
327.0947449034522
 21
166.2541742131934
 31
0.0
  0
LINE
  5
1CF
330
70
100
AcDbEntity
  8
HONTAI
 62
     8
420
  8421504
370
    25
100
AcDbLine
 10
327.0947449034522
 20
166.2541742131934
 30
0.0
 11
331.5526600422331
 21
177.7072504833624
 31
0.0
  0
LINE
  5
1D0
330
70
100
AcDbEntity
  8
HONTAI
 62
     8
420
  8421504
370
    25
100
AcDbLine
 10
331.5526600422331
 20
177.7072504833624
 30
0.0
 11
328.9841071187138
 21
166.3568409518034
 31
0.0
  0
LINE
  5
1D1
330
70
100
AcDbEntity
  8
HONTAI
 62
     8
420
  8421504
370
    25
100
AcDbLine
 10
328.9841071187138
 20
166.3568409518034
 30
0.0
 11
335.1555467991941
 21
177.7072504833624
 31
0.0
  0
LINE
  5
1D2
330
70
100
AcDbEntity
  8
HONTAI
 62
     8
420
  8421504
370
    25
100
AcDbLine
 10
335.1555467991941
 20
177.7072504833624
 30
0.0
 11
330.7777657151384
 21
166.5049391722377
 31
0.0
  0
LINE
  5
1D3
330
70
100
AcDbEntity
  8
HONTAI
 62
     8
420
  8421504
370
    25
100
AcDbLine
 10
330.7777657151384
 20
166.5049391722377
 30
0.0
 11
338.5734542619811
 21
177.7072504833624
 31
0.0
  0
LINE
  5
1D4
330
70
100
AcDbEntity
  8
HONTAI
 62
     8
420
  8421504
370
    25
100
AcDbLine
 10
338.5734542619811
 20
177.7072504833624
 30
0.0
 11
332.3299514993579
 21
166.7103889839967
 31
0.0
  0
LINE
  5
1D5
330
70
100
AcDbEntity
  8
HONTAI
 62
     8
420
  8421504
370
    25
100
AcDbLine
 10
332.3299514993579
 20
166.7103889839967
 30
0.0
 11
341.7421158361094
 21
177.7072504833624
 31
0.0
  0
LINE
  5
1D6
330
70
100
AcDbEntity
  8
HONTAI
 62
     8
420
  8421504
370
    25
100
AcDbLine
 10
341.7421158361094
 20
177.7072504833624
 30
0.0
 11
333.7177409737869
 21
166.879126558443
 31
0.0
  0
LINE
  5
1D7
330
70
100
AcDbEntity
  8
HONTAI
 62
     8
420
  8421504
370
    25
100
AcDbLine
 10
333.7177409737869
 20
166.879126558443
 30
0.0
 11
344.6073148435171
 21
177.7072504833624
 31
0.0
  0
LINE
  5
1D8
330
70
100
AcDbEntity
  8
HONTAI
 62
     8
420
  8421504
370
    25
100
AcDbLine
 10
344.6073148435171
 20
177.7072504833624
 30
0.0
 11
334.9808602397081
 21
167.1068018558349
 31
0.0
  0
LINE
  5
1D9
330
70
100
AcDbEntity
  8
HONTAI
 62
     8
420
  8421504
370
    25
100
AcDbLine
 10
334.9808602397081
 20
167.1068018558349
 30
0.0
 11
347.1200269348088
 21
177.7072504833624
 31
0.0
  0
LINE
  5
1DA
330
70
100
AcDbEntity
  8
HONTAI
 62
     8
420
  8421504
370
    25
100
AcDbLine
 10
347.1200269348088
 20
177.7072504833624
 30
0.0
 11
336.0302498736365
 21
167.3400417293214
 31
0.0
  0
LINE
  5
1DB
330
70
100
AcDbEntity
  8
HONTAI
 62
     8
420
  8421504
370
    25
100
AcDbLine
 10
336.0302498736365
 20
167.3400417293214
 30
0.0
 11
349.2372589094356
 21
177.7072504833624
 31
0.0
  0
LINE
  5
1DC
330
70
100
AcDbEntity
  8
HONTAI
 62
     8
420
  8421504
370
    25
100
AcDbLine
 10
349.2372589094356
 20
177.7072504833624
 30
0.0
 11
336.8485659649754
 21
167.5603438459297
 31
0.0
  0
LINE
  5
1DD
330
70
100
AcDbEntity
  8
HONTAI
 62
     8
420
  8421504
370
    25
100
AcDbLine
 10
336.8485659649754
 20
167.5603438459297
 30
0.0
 11
350.922784341298
 21
177.7072504833624
 31
0.0
  0
LINE
  5
1DE
330
70
100
AcDbEntity
  8
HONTAI
 62
     8
420
  8421504
370
    25
100
AcDbLine
 10
350.922784341298
 20
177.7072504833624
 30
0.0
 11
337.4324036307325
 21
167.7464384911198
 31
0.0
  0
LINE
  5
1DF
330
70
100
AcDbEntity
  8
HONTAI
 62
     8
420
  8421504
370
    25
100
AcDbLine
 10
337.4324036307325
 20
167.7464384911198
 30
0.0
 11
352.147763422976
 21
177.7072504833624
 31
0.0
  0
LINE
  5
1E0
330
70
100
AcDbEntity
  8
HONTAI
 62
     8
420
  8421504
370
    25
100
AcDbLine
 10
352.147763422976
 20
177.7072504833624
 30
0.0
 11
337.7956143991702
 21
167.8789280609117
 31
0.0
  0
LINE
  5
1E1
330
70
100
AcDbEntity
  8
HONTAI
 62
     8
420
  8421504
370
    25
100
AcDbLine
 10
337.7956143991702
 20
167.8789280609117
 30
0.0
 11
352.8912364227181
 21
177.7072504833624
 31
0.0
  0
LINE
  5
1E2
330
70
100
AcDbEntity
  8
HONTAI
 62
     8
420
  8421504
370
    25
100
AcDbLine
 10
352.8912364227181
 20
177.7072504833624
 30
0.0
 11
338.7508222014138
 21
168.3309919536488
 31
0.0
  0
SPLINE
  5
1E3
330
70
100
AcDbEntity
  8
HONTAI
 62
     8
420
  8421504
370
    25
100
AcDbSpline
210
0.0
220
0.0
230
1.0
 70
     8
 71
     3
 72
    11
 73
     7
 74
     0
 42
0.0000000001
 43
0.0000000001
 40
0.0
 40
0.0
 40
0.0
 40
0.0
 40
1.0
 40
1.0
 40
1.0
 40
2.0
 40
2.0
 40
2.0
 40
2.0
 10
329.8582823202536
 20
251.6337509160862
 30
0.0
 10
329.1413234525612
 20
252.0969116936163
 30
0.0
 10
325.9401482325273
 20
252.3890847548835
 30
0.0
 10
322.7082573460671
 20
252.2863377135122
 30
0.0
 10
320.434624898305
 20
252.2140552586341
 30
0.0
 10
318.6589500492498
 20
251.9595841231212
 30
0.0
 10
318.1545701049501
 20
251.6337509160862
 30
0.0
  0
LINE
  5
1E5
330
70
100
AcDbEntity
  8
0-HONTAI
 62
     2
420
 16776960
370
    25
100
AcDbLine
 10
458.8946600753697
 20
216.7253637946289
 30
0.0
 11
458.8946674895239
 21
208.1620521102919
 31
0.0
  0
LINE
  5
1E6
330
70
100
AcDbEntity
  8
0-HONTAI
 62
     2
420
 16776960
370
    25
100
AcDbLine
 10
456.4538199149155
 20
218.7593936808387
 30
0.0
 11
456.453824493698
 21
213.4709104821605
 31
0.0
  0
LINE
  5
1E7
330
70
100
AcDbEntity
  8
0-HONTAI
 62
     2
420
 16776960
370
    25
100
AcDbLine
 10
449.5381111166462
 20
218.7593876931944
 30
0.0
 11
449.5381156954301
 21
213.4709044945162
 31
0.0
  0
LINE
  5
1E8
330
70
100
AcDbEntity
  8
0-HONTAI
 62
     2
420
 16776960
370
    25
100
AcDbLine
 10
447.0972744783311
 20
216.7253535804153
 30
0.0
 11
447.0972818924845
 21
208.1620418960724
 31
0.0
  0
LINE
  5
1E9
330
70
100
AcDbEntity
  8
0-HONTAI
 62
     2
420
 16776960
370
    25
100
AcDbLine
 10
455.436798279728
 20
225.2682951986745
 30
0.0
 11
455.0299918798351
 21
225.2682948464549
 31
0.0
  0
LINE
  5
1EA
330
70
100
AcDbEntity
  8
0-HONTAI
 62
     2
420
 16776960
370
    25
100
AcDbLine
 10
449.9449171643207
 20
219.1661944452959
 30
0.0
 11
456.0470131628012
 21
219.1661997285183
 31
0.0
  0
LINE
  5
1EB
330
70
100
AcDbEntity
  8
0-HONTAI
 62
     2
420
 16776960
370
    25
100
AcDbLine
 10
455.0299918798351
 20
225.2682948464549
 30
0.0
 11
455.0299971630602
 21
219.1661988479815
 31
0.0
  0
LINE
  5
1EC
330
70
100
AcDbEntity
  8
0-HONTAI
 62
     2
420
 16776960
370
    25
100
AcDbLine
 10
450.5551214809599
 20
225.2682909720923
 30
0.0
 11
450.9619278808649
 21
225.2682913243062
 31
0.0
  0
SPLINE
  5
1ED
330
70
100
AcDbEntity
  8
0-HONTAI
 62
     2
420
 16776960
370
    25
100
AcDbSpline
210
0.0
220
0.0
230
1.0
 70
     8
 71
     3
 72
     8
 73
     4
 74
     0
 42
0.0000000001
 43
0.0000000001
 40
0.0
 40
0.0
 40
0.0
 40
0.0
 40
1.0
 40
1.0
 40
1.0
 40
1.0
 10
447.5040805260203
 20
217.1321603325264
 30
0.0
 10
447.2794075552235
 20
217.1321601380034
 30
0.0
 10
447.0972742838148
 20
216.9500265512113
 30
0.0
 10
447.0972744783368
 20
216.725353580414
 30
0.0
  0
SPLINE
  5
1EE
330
70
100
AcDbEntity
  8
0-HONTAI
 62
     2
420
 16776960
370
    25
100
AcDbSpline
210
0.0
220
0.0
230
1.0
 70
     8
 71
     3
 72
     8
 73
     4
 74
     0
 42
0.0000000001
 43
0.0000000001
 40
0.0
 40
0.0
 40
0.0
 40
0.0
 40
1.0
 40
1.0
 40
1.0
 40
1.0
 10
449.9449171643283
 20
219.1661944453056
 30
0.0
 10
449.7202441935311
 20
219.1661942507828
 30
0.0
 10
449.5381109221222
 20
218.9840606639904
 30
0.0
 10
449.5381111166449
 20
218.7593876931938
 30
0.0
  0
LINE
  5
1EF
330
70
100
AcDbEntity
  8
0-HONTAI
 62
     2
420
 16776960
370
    25
100
AcDbLine
 10
447.5040805260171
 20
217.1321603325232
 30
0.0
 11
449.5381125255009
 21
217.1321620935975
 31
0.0
  0
LINE
  5
1F0
330
70
100
AcDbEntity
  8
0-HONTAI
 62
     2
420
 16776960
370
    25
100
AcDbLine
 10
450.5551214809599
 20
225.2682909720923
 30
0.0
 11
450.5551267641798
 21
219.1661949736196
 31
0.0
  0
LINE
  5
1F1
330
70
100
AcDbEntity
  8
0-HONTAI
 62
     2
420
 16776960
370
    25
100
AcDbLine
 10
450.9619278808649
 20
225.2682913243062
 30
0.0
 11
450.9619331640764
 21
219.1661953258321
 31
0.0
  0
SPLINE
  5
1F2
330
70
100
AcDbEntity
  8
0-HONTAI
 62
     2
420
 16776960
370
    25
100
AcDbSpline
210
0.0
220
0.0
230
1.0
 70
     8
 71
     3
 72
     8
 73
     4
 74
     0
 42
0.0000000001
 43
0.0000000001
 40
0.0
 40
0.0
 40
0.0
 40
0.0
 40
1.0
 40
1.0
 40
1.0
 40
1.0
 10
458.8946600753723
 20
216.7253637946289
 30
0.0
 10
458.8946598808502
 20
216.9500367654263
 30
0.0
 10
458.7125262940578
 20
217.1321700368351
 30
0.0
 10
458.4878533232605
 20
217.132169842313
 30
0.0
  0
SPLINE
  5
1F3
330
70
100
AcDbEntity
  8
0-HONTAI
 62
     2
420
 16776960
370
    25
100
AcDbSpline
210
0.0
220
0.0
230
1.0
 70
     8
 71
     3
 72
     8
 73
     4
 74
     0
 42
0.0000000001
 43
0.0000000001
 40
0.0
 40
0.0
 40
0.0
 40
0.0
 40
1.0
 40
1.0
 40
1.0
 40
1.0
 10
456.4538199149206
 20
218.7593936808323
 30
0.0
 10
456.4538197203979
 20
218.9840666516297
 30
0.0
 10
456.2716861336055
 20
219.1661999230385
 30
0.0
 10
456.0470131628088
 20
219.1661997285164
 30
0.0
  0
LINE
  5
1F4
330
70
100
AcDbEntity
  8
0-HONTAI
 62
     2
420
 16776960
370
    25
100
AcDbLine
 10
456.4538213237677
 20
217.1321680812406
 30
0.0
 11
458.4878533232675
 21
217.1321698423085
 31
0.0
  0
LINE
  5
1F5
330
70
100
AcDbEntity
  8
0-HONTAI
 62
     2
420
 16776960
370
    25
100
AcDbLine
 10
455.436798279728
 20
225.2682951986745
 30
0.0
 11
455.4368035629523
 21
219.1661992001947
 31
0.0
  0
LINE
  5
1F6
330
70
100
AcDbEntity
  8
0-HONTAI
 62
     2
420
 16776960
370
    25
100
AcDbLine
 10
449.9449224475443
 20
213.0640984468289
 30
0.0
 11
456.0470184460108
 21
213.0641037300455
 31
0.0
  0
LINE
  5
1F7
330
70
100
AcDbEntity
  8
0-HONTAI
 62
     2
420
 16776960
370
    25
100
AcDbLine
 10
456.2038073857448
 20
198.8258798693501
 30
0.0
 11
452.9959827742922
 21
198.8258770920029
 31
0.0
  0
SPLINE
  5
1F8
330
70
100
AcDbEntity
  8
0-HONTAI
 62
     2
420
 16776960
370
    25
100
AcDbSpline
210
0.0
220
0.0
230
1.0
 70
     8
 71
     3
 72
     8
 73
     4
 74
     0
 42
0.0000000001
 43
0.0000000001
 40
0.0
 40
0.0
 40
0.0
 40
0.0
 40
1.0
 40
1.0
 40
1.0
 40
1.0
 10
447.097281892471
 20
208.1620418960801
 30
0.0
 10
447.0972824444714
 20
207.524482648436
 30
0.0
 10
447.2471354625723
 20
206.8958489369845
 30
0.0
 10
447.534752596298
 20
206.3268514162136
 30
0.0
  0
SPLINE
  5
1F9
330
70
100
AcDbEntity
  8
0-HONTAI
 62
     2
420
 16776960
370
    25
100
AcDbSpline
210
0.0
220
0.0
230
1.0
 70
     8
 71
     3
 72
     8
 73
     4
 74
     0
 42
0.0000000001
 43
0.0000000001
 40
0.0
 40
0.0
 40
0.0
 40
0.0
 40
1.0
 40
1.0
 40
1.0
 40
1.0
 10
449.9791538323931
 20
201.676215195784
 30
0.0
 10
449.7974266529965
 20
202.2552735435579
 30
0.0
 10
449.5880867822419
 20
202.8253015944573
 30
0.0
 10
449.3518528231397
 20
203.3843426076434
 30
0.0
  0
SPLINE
  5
1FA
330
70
100
AcDbEntity
  8
0-HONTAI
 62
     2
420
 16776960
370
    25
100
AcDbSpline
210
0.0
220
0.0
230
1.0
 70
     8
 71
     3
 72
     8
 73
     4
 74
     0
 42
0.0000000001
 43
0.0000000001
 40
0.0
 40
0.0
 40
0.0
 40
0.0
 40
1.0
 40
1.0
 40
1.0
 40
1.0
 10
449.538115695439
 20
213.4709044945156
 30
0.0
 10
449.5381158899617
 20
213.2462315237182
 30
0.0
 10
449.7202494767541
 20
213.0640982523094
 30
0.0
 10
449.9449224475514
 20
213.0640984468314
 30
0.0
  0
SPLINE
  5
1FB
330
70
100
AcDbEntity
  8
0-HONTAI
 62
     2
420
 16776960
370
    25
100
AcDbSpline
210
0.0
220
0.0
230
1.0
 70
     8
 71
     3
 72
     8
 73
     4
 74
     0
 42
0.0000000001
 43
0.0000000001
 40
0.0
 40
0.0
 40
0.0
 40
0.0
 40
1.0
 40
1.0
 40
1.0
 40
1.0
 10
447.5347525963423
 20
206.3268514161347
 30
0.0
 10
448.0557440230186
 20
205.2961658436804
 30
0.0
 10
448.6636446630156
 20
204.3117661052979
 30
0.0
 10
449.3518528232065
 20
203.3843426075446
 30
0.0
  0
LINE
  5
1FC
330
70
100
AcDbEntity
  8
0-HONTAI
 62
     2
420
 16776960
370
    25
100
AcDbLine
 10
449.7881581628262
 20
198.8258743146621
 30
0.0
 11
452.9959827742922
 21
198.8258770920029
 31
0.0
  0
SPLINE
  5
1FD
330
70
100
AcDbEntity
  8
0-HONTAI
 62
     2
420
 16776960
370
    25
100
AcDbSpline
210
0.0
220
0.0
230
1.0
 70
     8
 71
     3
 72
     8
 73
     4
 74
     0
 42
0.0000000001
 43
0.0000000001
 40
0.0
 40
0.0
 40
0.0
 40
0.0
 40
1.0
 40
1.0
 40
1.0
 40
1.0
 10
449.7881581628262
 20
198.8258743146589
 30
0.0
 10
450.2243042876437
 20
199.7138684085067
 30
0.0
 10
450.2929273292842
 20
200.7379704805804
 30
0.0
 10
449.979153832406
 20
201.6762151957583
 30
0.0
  0
SPLINE
  5
1FE
330
70
100
AcDbEntity
  8
0-HONTAI
 62
     2
420
 16776960
370
    25
100
AcDbSpline
210
0.0
220
0.0
230
1.0
 70
     8
 71
     3
 72
     8
 73
     4
 74
     0
 42
0.0000000001
 43
0.0000000001
 40
0.0
 40
0.0
 40
0.0
 40
0.0
 40
1.0
 40
1.0
 40
1.0
 40
1.0
 10
456.6401048319633
 20
203.3843489178685
 30
0.0
 10
456.4038718408916
 20
202.8253074955979
 30
0.0
 10
456.1945329571933
 20
202.2552790821836
 30
0.0
 10
456.0128067804939
 20
201.6762204197083
 30
0.0
  0
SPLINE
  5
1FF
330
70
100
AcDbEntity
  8
0-HONTAI
 62
     2
420
 16776960
370
    25
100
AcDbSpline
210
0.0
220
0.0
230
1.0
 70
     8
 71
     3
 72
     8
 73
     4
 74
     0
 42
0.0000000001
 43
0.0000000001
 40
0.0
 40
0.0
 40
0.0
 40
0.0
 40
1.0
 40
1.0
 40
1.0
 40
1.0
 10
456.6401048319575
 20
203.3843489178384
 30
0.0
 10
457.3283113862021
 20
204.3117736072916
 30
0.0
 10
457.9362103215949
 20
205.2961743983124
 30
0.0
 10
458.4571999635189
 20
206.3268608729118
 30
0.0
  0
SPLINE
  5
200
330
70
100
AcDbEntity
  8
0-HONTAI
 62
     2
420
 16776960
370
    25
100
AcDbSpline
210
0.0
220
0.0
230
1.0
 70
     8
 71
     3
 72
     8
 73
     4
 74
     0
 42
0.0000000001
 43
0.0000000001
 40
0.0
 40
0.0
 40
0.0
 40
0.0
 40
1.0
 40
1.0
 40
1.0
 40
1.0
 10
456.047018446021
 20
213.0641037300417
 30
0.0
 10
456.2716914168177
 20
213.0641039245644
 30
0.0
 10
456.4538246882265
 20
213.2462375113568
 30
0.0
 10
456.4538244937044
 20
213.4709104821541
 30
0.0
  0
SPLINE
  5
201
330
70
100
AcDbEntity
  8
0-HONTAI
 62
     2
420
 16776960
370
    25
100
AcDbSpline
210
0.0
220
0.0
230
1.0
 70
     8
 71
     3
 72
     8
 73
     4
 74
     0
 42
0.0000000001
 43
0.0000000001
 40
0.0
 40
0.0
 40
0.0
 40
0.0
 40
1.0
 40
1.0
 40
1.0
 40
1.0
 10
458.4571999635324
 20
206.3268608729227
 30
0.0
 10
458.7448161119709
 20
206.8958588917265
 30
0.0
 10
458.8946680415223
 20
207.5244928626548
 30
0.0
 10
458.8946674895219
 20
208.1620521102899
 30
0.0
  0
SPLINE
  5
202
330
70
100
AcDbEntity
  8
0-HONTAI
 62
     2
420
 16776960
370
    25
100
AcDbSpline
210
0.0
220
0.0
230
1.0
 70
     8
 71
     3
 72
     8
 73
     4
 74
     0
 42
0.0000000001
 43
0.0000000001
 40
0.0
 40
0.0
 40
0.0
 40
0.0
 40
1.0
 40
1.0
 40
1.0
 40
1.0
 10
456.0128067804996
 20
201.6762204197051
 30
0.0
 10
455.6990349082949
 20
200.7379751611967
 30
0.0
 10
455.7676597232784
 20
199.7138732079535
 30
0.0
 10
456.2038073857524
 20
198.8258798693418
 30
0.0
  0
LINE
  5
204
330
70
100
AcDbEntity
  8
TOUGU
  6
AI-Linetype-0
 62
     3
420
    65280
370
    25
100
AcDbLine
 10
417.6564594732084
 20
157.4111995109142
 30
0.0
 11
417.6564594732084
 21
152.2663643419974
 31
0.0
  0
SPLINE
  5
206
330
70
100
AcDbEntity
  8
TOUGU
  6
AI-Linetype-1
 62
     3
420
    65280
370
    25
100
AcDbSpline
210
0.0
220
0.0
230
1.0
 70
     8
 71
     3
 72
    11
 73
     7
 74
     0
 42
0.0000000001
 43
0.0000000001
 40
0.0
 40
0.0
 40
0.0
 40
0.0
 40
1.0
 40
1.0
 40
1.0
 40
2.0
 40
2.0
 40
2.0
 40
2.0
 10
408.2999122755484
 20
152.1945403271173
 30
0.0
 10
409.7602865857314
 20
152.1945403271173
 30
0.0
 10
410.9441538748875
 20
153.3784076162727
 30
0.0
 10
410.9441538748875
 20
154.8387819264558
 30
0.0
 10
410.9441538748875
 20
156.2991562366389
 30
0.0
 10
409.7602865857314
 20
157.4830235257949
 30
0.0
 10
408.2999122755484
 20
157.4830235257949
 30
0.0
  0
SPLINE
  5
208
330
70
100
AcDbEntity
  8
TOUGU
  6
AI-Linetype-2
 62
     3
420
    65280
370
    25
100
AcDbSpline
210
0.0
220
0.0
230
1.0
 70
     8
 71
     3
 72
    11
 73
     7
 74
     0
 42
0.0000000001
 43
0.0000000001
 40
0.0
 40
0.0
 40
0.0
 40
0.0
 40
1.0
 40
1.0
 40
1.0
 40
2.0
 40
2.0
 40
2.0
 40
2.0
 10
408.2999122755484
 20
152.6013467270153
 30
0.0
 10
409.5356136149341
 20
152.6013467270153
 30
0.0
 10
410.5373474749889
 20
153.6030805870701
 30
0.0
 10
410.5373474749889
 20
154.8387819264558
 30
0.0
 10
410.5373474749889
 20
156.0744832658415
 30
0.0
 10
409.5356136149341
 20
157.0762171258963
 30
0.0
 10
408.2999122755484
 20
157.0762171258963
 30
0.0
  0
SPLINE
  5
20A
330
70
100
AcDbEntity
  8
TOUGU
  6
AI-Linetype-3
 62
     3
420
    65280
370
    25
100
AcDbSpline
210
0.0
220
0.0
230
1.0
 70
     8
 71
     3
 72
    11
 73
     7
 74
     0
 42
0.0000000001
 43
0.0000000001
 40
0.0
 40
0.0
 40
0.0
 40
0.0
 40
1.0
 40
1.0
 40
1.0
 40
2.0
 40
2.0
 40
2.0
 40
2.0
 10
408.0965090756071
 20
153.0081531269138
 30
0.0
 10
409.1075374441955
 20
153.0081531269138
 30
0.0
 10
409.9271378751497
 20
153.8277535578674
 30
0.0
 10
409.9271378751497
 20
154.8387819264558
 30
0.0
 10
409.9271378751497
 20
155.8498102950442
 30
0.0
 10
409.1075374441955
 20
156.6694107259984
 30
0.0
 10
408.0965090756071
 20
156.6694107259984
 30
0.0
  0
SPLINE
  5
20C
330
70
100
AcDbEntity
  8
TOUGU
  6
AI-Linetype-4
 62
     3
420
    65280
370
    25
100
AcDbSpline
210
0.0
220
0.0
230
1.0
 70
     8
 71
     3
 72
    11
 73
     7
 74
     0
 42
0.0000000001
 43
0.0000000001
 40
0.0
 40
0.0
 40
0.0
 40
0.0
 40
1.0
 40
1.0
 40
1.0
 40
2.0
 40
2.0
 40
2.0
 40
2.0
 10
400.5705906774928
 20
157.4830235257949
 30
0.0
 10
399.1102163673098
 20
157.4830235257949
 30
0.0
 10
397.9263490781538
 20
156.2991562366389
 30
0.0
 10
397.9263490781538
 20
154.8387819264558
 30
0.0
 10
397.9263490781538
 20
153.3784076162727
 30
0.0
 10
399.1102163673098
 20
152.1945403271173
 30
0.0
 10
400.5705906774928
 20
152.1945403271173
 30
0.0
  0
SPLINE
  5
20E
330
70
100
AcDbEntity
  8
TOUGU
  6
AI-Linetype-5
 62
     3
420
    65280
370
    25
100
AcDbSpline
210
0.0
220
0.0
230
1.0
 70
     8
 71
     3
 72
    11
 73
     7
 74
     0
 42
0.0000000001
 43
0.0000000001
 40
0.0
 40
0.0
 40
0.0
 40
0.0
 40
1.0
 40
1.0
 40
1.0
 40
2.0
 40
2.0
 40
2.0
 40
2.0
 10
400.5705906774928
 20
157.0762171258963
 30
0.0
 10
399.3348893381072
 20
157.0762171258963
 30
0.0
 10
398.3331554780523
 20
156.0744832658415
 30
0.0
 10
398.3331554780523
 20
154.8387819264558
 30
0.0
 10
398.3331554780523
 20
153.6030805870701
 30
0.0
 10
399.3348893381072
 20
152.6013467270153
 30
0.0
 10
400.5705906774928
 20
152.6013467270153
 30
0.0
  0
SPLINE
  5
210
330
70
100
AcDbEntity
  8
TOUGU
  6
AI-Linetype-6
 62
     3
420
    65280
370
    25
100
AcDbSpline
210
0.0
220
0.0
230
1.0
 70
     8
 71
     3
 72
    11
 73
     7
 74
     0
 42
0.0000000001
 43
0.0000000001
 40
0.0
 40
0.0
 40
0.0
 40
0.0
 40
1.0
 40
1.0
 40
1.0
 40
2.0
 40
2.0
 40
2.0
 40
2.0
 10
402.8080258769295
 20
156.6694107259984
 30
0.0
 10
401.7969975083412
 20
156.6694107259984
 30
0.0
 10
400.9773970773869
 20
155.8498102950442
 30
0.0
 10
400.9773970773869
 20
154.8387819264558
 30
0.0
 10
400.9773970773869
 20
153.8277535578674
 30
0.0
 10
401.7969975083412
 20
153.0081531269138
 30
0.0
 10
402.8080258769295
 20
153.0081531269138
 30
0.0
  0
LINE
  5
212
330
70
100
AcDbEntity
  8
TOUGU
  6
AI-Linetype-7
 62
     3
420
    65280
370
    25
100
AcDbLine
 10
407.2828962758036
 20
156.6694107260003
 30
0.0
 11
407.2828962758036
 21
153.0081531269119
 31
0.0
  0
LINE
  5
214
330
70
100
AcDbEntity
  8
TOUGU
  6
AI-Linetype-8
 62
     3
420
    65280
370
    25
100
AcDbLine
 10
403.6216386767158
 20
156.6694107260003
 30
0.0
 11
403.6216386767158
 21
153.0081531269119
 31
0.0
  0
LINE
  5
216
330
70
100
AcDbEntity
  8
TOUGU
  6
AI-Linetype-9
 62
     3
420
    65280
370
    25
100
AcDbLine
 10
404.0792958766022
 20
156.6694107260003
 30
0.0
 11
404.0792958766022
 21
153.0081531269119
 31
0.0
  0
LINE
  5
218
330
70
100
AcDbEntity
  8
TOUGU
  6
AI-Linetype-10
 62
     3
420
    65280
370
    25
100
AcDbLine
 10
404.5369530764964
 20
156.6694107260003
 30
0.0
 11
404.5369530764964
 21
153.0081531269119
 31
0.0
  0
LINE
  5
21A
330
70
100
AcDbEntity
  8
TOUGU
  6
AI-Linetype-11
 62
     3
420
    65280
370
    25
100
AcDbLine
 10
404.9946102763796
 20
156.6694107260003
 30
0.0
 11
404.9946102763796
 21
153.0081531269119
 31
0.0
  0
LINE
  5
21C
330
70
100
AcDbEntity
  8
TOUGU
  6
AI-Linetype-12
 62
     3
420
    65280
370
    25
100
AcDbLine
 10
405.9099246761461
 20
156.6694107260003
 30
0.0
 11
405.9099246761461
 21
153.0081531269119
 31
0.0
  0
LINE
  5
21E
330
70
100
AcDbEntity
  8
TOUGU
  6
AI-Linetype-13
 62
     3
420
    65280
370
    25
100
AcDbLine
 10
406.3675818760403
 20
156.6694107260003
 30
0.0
 11
406.3675818760403
 21
153.0081531269119
 31
0.0
  0
LINE
  5
220
330
70
100
AcDbEntity
  8
TOUGU
  6
AI-Linetype-14
 62
     3
420
    65280
370
    25
100
AcDbLine
 10
406.8252390759229
 20
156.6694107260003
 30
0.0
 11
406.8252390759229
 21
153.0081531269119
 31
0.0
  0
LINE
  5
222
330
70
100
AcDbEntity
  8
TOUGU
  6
AI-Linetype-15
 62
     3
420
    65280
370
    25
100
AcDbLine
 10
405.4522674762603
 20
156.6694107260003
 30
0.0
 11
405.4522674762603
 21
153.0081531269119
 31
0.0
  0
LINE
  5
224
330
70
100
AcDbEntity
  8
TOUGU
  6
AI-Linetype-16
 62
     3
420
    65280
370
    25
100
AcDbLine
 10
391.2140434798289
 20
157.4111995109142
 30
0.0
 11
391.2140434798289
 21
152.2663643419974
 31
0.0
  0
SPLINE
  5
226
330
70
100
AcDbEntity
  8
TOUGU
  6
AI-Linetype-17
 62
     3
420
    65280
370
    25
100
AcDbSpline
210
0.0
220
0.0
230
1.0
 70
     8
 71
     3
 72
     8
 73
     4
 74
     0
 42
0.0000000001
 43
0.0000000001
 40
0.0
 40
0.0
 40
0.0
 40
0.0
 40
1.0
 40
1.0
 40
1.0
 40
1.0
 10
391.6815207233322
 20
151.673082595936
 30
0.0
 10
400.0644151255603
 20
149.6563169048482
 30
0.0
 10
408.8060878274783
 20
149.6563169048482
 30
0.0
 10
417.1889822297065
 20
151.673082595936
 30
0.0
  0
LINE
  5
228
330
70
100
AcDbEntity
  8
TOUGU
  6
AI-Linetype-18
 62
     3
420
    65280
370
    25
100
AcDbLine
 10
400.5705906774928
 20
152.1945403271161
 30
0.0
 11
408.2999122755484
 21
152.1945403271161
 31
0.0
  0
LINE
  5
22A
330
70
100
AcDbEntity
  8
TOUGU
  6
AI-Linetype-19
 62
     3
420
    65280
370
    25
100
AcDbLine
 10
400.5705906774928
 20
152.6013467270108
 30
0.0
 11
408.2999122755484
 21
152.6013467270108
 31
0.0
  0
LINE
  5
22C
330
70
100
AcDbEntity
  8
TOUGU
  6
AI-Linetype-20
 62
     3
420
    65280
370
    25
100
AcDbLine
 10
402.8080258769295
 20
153.0081531269119
 30
0.0
 11
408.0965090756071
 21
153.0081531269119
 31
0.0
  0
SPLINE
  5
22E
330
70
100
AcDbEntity
  8
TOUGU
  6
AI-Linetype-21
 62
     3
420
    65280
370
    25
100
AcDbSpline
210
0.0
220
0.0
230
1.0
 70
     8
 71
     3
 72
     8
 73
     4
 74
     0
 42
0.0000000001
 43
0.0000000001
 40
0.0
 40
0.0
 40
0.0
 40
0.0
 40
1.0
 40
1.0
 40
1.0
 40
1.0
 10
391.2140434798289
 20
152.2663643419974
 30
0.0
 10
391.2140434798289
 20
151.9843362179689
 30
0.0
 10
391.407316355071
 20
151.7390509758057
 30
0.0
 10
391.681520723381
 20
151.6730825959334
 30
0.0
  0
SPLINE
  5
230
330
70
100
AcDbEntity
  8
TOUGU
  6
AI-Linetype-22
 62
     3
420
    65280
370
    25
100
AcDbSpline
210
0.0
220
0.0
230
1.0
 70
     8
 71
     3
 72
     8
 73
     4
 74
     0
 42
0.0000000001
 43
0.0000000001
 40
0.0
 40
0.0
 40
0.0
 40
0.0
 40
1.0
 40
1.0
 40
1.0
 40
1.0
 10
417.1889822296565
 20
151.6730825959334
 30
0.0
 10
417.4631865979657
 20
151.7390509758057
 30
0.0
 10
417.6564594732078
 20
151.9843362179689
 30
0.0
 10
417.6564594732078
 20
152.2663643419974
 30
0.0
  0
SPLINE
  5
232
330
70
100
AcDbEntity
  8
TOUGU
  6
AI-Linetype-23
 62
     3
420
    65280
370
    25
100
AcDbSpline
210
0.0
220
0.0
230
1.0
 70
     8
 71
     3
 72
     8
 73
     4
 74
     0
 42
0.0000000001
 43
0.0000000001
 40
0.0
 40
0.0
 40
0.0
 40
0.0
 40
1.0
 40
1.0
 40
1.0
 40
1.0
 10
417.1889822297065
 20
158.0044812569698
 30
0.0
 10
408.8060878274789
 20
160.0212469480576
 30
0.0
 10
400.0644151255597
 20
160.0212469480576
 30
0.0
 10
391.6815207233322
 20
158.0044812569698
 30
0.0
  0
LINE
  5
234
330
70
100
AcDbEntity
  8
TOUGU
  6
AI-Linetype-24
 62
     3
420
    65280
370
    25
100
AcDbLine
 10
400.5705906774928
 20
157.4830235257949
 30
0.0
 11
408.2999122755484
 21
157.4830235257949
 31
0.0
  0
LINE
  5
236
330
70
100
AcDbEntity
  8
TOUGU
  6
AI-Linetype-25
 62
     3
420
    65280
370
    25
100
AcDbLine
 10
400.5705906774928
 20
157.0762171258938
 30
0.0
 11
408.2999122755484
 21
157.0762171258938
 31
0.0
  0
LINE
  5
238
330
70
100
AcDbEntity
  8
TOUGU
  6
AI-Linetype-26
 62
     3
420
    65280
370
    25
100
AcDbLine
 10
402.8080258769295
 20
156.6694107260003
 30
0.0
 11
408.0965090756071
 21
156.6694107260003
 31
0.0
  0
SPLINE
  5
23A
330
70
100
AcDbEntity
  8
TOUGU
  6
AI-Linetype-27
 62
     3
420
    65280
370
    25
100
AcDbSpline
210
0.0
220
0.0
230
1.0
 70
     8
 71
     3
 72
     8
 73
     4
 74
     0
 42
0.0000000001
 43
0.0000000001
 40
0.0
 40
0.0
 40
0.0
 40
0.0
 40
1.0
 40
1.0
 40
1.0
 40
1.0
 10
391.681520723381
 20
158.0044812569775
 30
0.0
 10
391.407316355071
 20
157.9385128771058
 30
0.0
 10
391.2140434798289
 20
157.6932276349426
 30
0.0
 10
391.2140434798289
 20
157.4111995109142
 30
0.0
  0
SPLINE
  5
23C
330
70
100
AcDbEntity
  8
TOUGU
  6
AI-Linetype-28
 62
     3
420
    65280
370
    25
100
AcDbSpline
210
0.0
220
0.0
230
1.0
 70
     8
 71
     3
 72
     8
 73
     4
 74
     0
 42
0.0000000001
 43
0.0000000001
 40
0.0
 40
0.0
 40
0.0
 40
0.0
 40
1.0
 40
1.0
 40
1.0
 40
1.0
 10
417.6564594732078
 20
157.4111995109142
 30
0.0
 10
417.6564594732078
 20
157.6932276349426
 30
0.0
 10
417.4631865979657
 20
157.9385128771058
 30
0.0
 10
417.1889822296565
 20
158.0044812569775
 30
0.0
  0
LINE
  5
23F
330
70
100
AcDbEntity
  8
CL
  6
AI-Linetype-29
 62
     9
420
 12632256
370
    25
100
AcDbLine
 10
382.1124003179515
 20
158.7861770062131
 30
0.0
 11
380.0866043895375
 21
150.8913868467055
 31
0.0
  0
LINE
  5
241
330
70
100
AcDbEntity
  8
CL
  6
AI-Linetype-30
 62
     9
420
 12632256
370
    25
100
AcDbLine
 10
379.9034339079004
 20
158.7861770062131
 30
0.0
 11
377.877637979487
 21
150.8913868467055
 31
0.0
  0
LINE
  5
243
330
70
100
AcDbEntity
  8
CL
  6
AI-Linetype-31
 62
     9
420
 12632256
370
    25
100
AcDbLine
 10
432.6819297279151
 20
158.7861770062131
 30
0.0
 11
430.6561337994876
 21
150.8913868467055
 31
0.0
  0
LINE
  5
245
330
70
100
AcDbEntity
  8
CL
  6
AI-Linetype-32
 62
     9
420
 12632256
370
    25
100
AcDbLine
 10
430.4729633178608
 20
158.7861770062131
 30
0.0
 11
428.4471673894223
 21
150.8913868467055
 31
0.0
  0
ENDSEC
  0
SECTION
  2
OBJECTS
  0
DICTIONARY
  5
C
330
0
100
AcDbDictionary
281
     1
  3
ACAD_COLOR
350
63
  3
ACAD_DETAILVIEWSTYLE
350
6A
  3
ACAD_GROUP
350
D
  3
ACAD_LAYOUT
350
62
  3
ACAD_MATERIAL
350
10
  3
ACAD_MLEADERSTYLE
350
66
  3
ACAD_MLINESTYLE
350
5F
  3
ACAD_PLOTSETTINGS
350
61
  3
ACAD_PLOTSTYLENAME
350
E
  3
ACAD_SCALELIST
350
42
  3
ACAD_SECTIONVIEWSTYLE
350
68
  3
ACAD_TABLESTYLE
350
64
  3
ACAD_VISUALSTYLE
350
29
  3
ACDB_RECOMPOSE_DATA
350
24F
  3
AcDbVariableDictionary
350
247
  0
DICTIONARY
  5
63
102
{ACAD_REACTORS
330
C
102
}
330
C
100
AcDbDictionary
281
     1
  0
DICTIONARY
  5
6A
102
{ACAD_REACTORS
330
C
102
}
330
C
100
AcDbDictionary
281
     1
  3
Imperial24
350
6B
  0
DICTIONARY
  5
D
102
{ACAD_REACTORS
330
C
102
}
330
C
100
AcDbDictionary
281
     1
  0
DICTIONARY
  5
62
102
{ACAD_REACTORS
330
C
102
}
330
C
100
AcDbDictionary
281
     1
  3
Layout1
350
6F
  3
Layout2
350
77
  3
Model
350
73
  0
DICTIONARY
  5
10
102
{ACAD_REACTORS
330
C
102
}
330
C
100
AcDbDictionary
281
     1
  3
ByBlock
350
19
  3
ByLayer
350
11
  3
Global
350
21
  0
DICTIONARY
  5
66
102
{ACAD_REACTORS
330
C
102
}
330
C
100
AcDbDictionary
281
     1
  3
Standard
350
67
  0
DICTIONARY
  5
5F
102
{ACAD_REACTORS
330
C
102
}
330
C
100
AcDbDictionary
281
     1
  3
Standard
350
60
  0
DICTIONARY
  5
61
102
{ACAD_REACTORS
330
C
102
}
330
C
100
AcDbDictionary
281
     1
  0
ACDBDICTIONARYWDFLT
  5
E
102
{ACAD_REACTORS
330
C
102
}
330
C
100
AcDbDictionary
281
     1
  3
Normal
350
F
100
AcDbDictionaryWithDefault
340
F
  0
DICTIONARY
  5
42
102
{ACAD_REACTORS
330
C
102
}
330
C
100
AcDbDictionary
281
     1
  3
A0
350
43
  3
A1
350
44
  3
A2
350
45
  3
A3
350
46
  3
A4
350
47
  3
A5
350
48
  3
A6
350
49
  3
A7
350
4A
  3
A8
350
4B
  3
A9
350
4C
  3
B0
350
4D
  3
B1
350
4E
  3
B2
350
4F
  3
B3
350
50
  3
B4
350
51
  3
B5
350
52
  3
B6
350
53
  0
DICTIONARY
  5
68
102
{ACAD_REACTORS
330
C
102
}
330
C
100
AcDbDictionary
281
     1
  3
Imperial24
350
69
  0
DICTIONARY
  5
64
102
{ACAD_REACTORS
330
C
102
}
330
C
100
AcDbDictionary
281
     1
  3
Standard
350
65
  0
DICTIONARY
  5
29
102
{ACAD_REACTORS
330
C
102
}
330
C
100
AcDbDictionary
281
     1
  3
2dWireframe
350
2F
  3
Basic
350
2E
  3
Brighten
350
35
  3
ColorChange
350
39
  3
Conceptual
350
32
  3
Dim
350
34
  3
EdgeColorOff
350
41
  3
Facepattern
350
38
  3
Flat
350
2A
  3
FlatWithEdges
350
2B
  3
Gouraud
350
2C
  3
GouraudWithEdges
350
2D
  3
Hidden
350
31
  3
JitterOff
350
3F
  3
Linepattern
350
37
  3
OverhangOff
350
40
  3
Realistic
350
33
  3
Shaded
350
3E
  3
Shaded with edges
350
3D
  3
Shades of Gray
350
3A
  3
Sketchy
350
3B
  3
Thicken
350
36
  3
Wireframe
350
30
  3
X-Ray
350
3C
  0
XRECORD
  5
24F
102
{ACAD_REACTORS
330
C
102
}
330
C
100
AcDbXrecord
280
     1
 90
        1
330
65
  0
DICTIONARY
  5
247
102
{ACAD_REACTORS
330
C
102
}
330
C
100
AcDbDictionary
281
     1
  3
CANNOSCALE
350
24C
  3
CMLEADERSTYLE
350
249
  3
CTABLESTYLE
350
248
  3
CVIEWDETAILSTYLE
350
24A
  3
CVIEWSECTIONSTYLE
350
24B
  0
ACDBDETAILVIEWSTYLE
  5
6B
102
{ACAD_REACTORS
330
6A
102
}
330
6A
100
AcDbModelDocViewStyle
 70
     0
  3
Imperial24
290
     1
300
Imperial24
 90
        0
100
AcDbDetailViewStyle
 70
     0
 71
     0
 90
        3
 71
     1
340
55
 62
   256
 40
0.24
340
0
 62
   256
 40
0.24
300

 40
0.36
280
     3
 71
     2
340
5D
 90
       25
 62
   256
 71
     3
340
55
 62
   256
 40
0.24
 90
        1
 40
0.75
 90
        1
300
%<\AcVar ViewType \f "%tc1">% %<\AcVar ViewDetailId>%\PSCALE %<\AcVar ViewScale \f "%sn">%
 71
     4
340
5D
 90
       25
 62
   256
340
5D
 90
       25
 62
   256
280
     0
  0
LAYOUT
  5
6F
102
{ACAD_REACTORS
330
62
102
}
330
62
100
AcDbPlotSettings
  1

  2

  4

  6

 40
0.0
 41
0.0
 42
0.0
 43
0.0
 44
0.0
 45
0.0
 46
0.0
 47
0.0
 48
0.0
 49
0.0
140
0.0
141
0.0
142
1.0
143
1.0
 70
   688
 72
     0
 73
     0
 74
     5
  7

 75
    16
147
1.0
 76
     0
 77
     2
 78
   300
148
0.0
149
0.0
100
AcDbLayout
  1
Layout1
 70
     1
 71
     1
 10
0.0
 20
0.0
 11
12.0
 21
9.0
 12
0.0
 22
0.0
 32
0.0
 14
0.0
 24
0.0
 34
0.0
 15
0.0
 25
0.0
 35
0.0
146
0.0
 13
0.0
 23
0.0
 33
0.0
 16
1.0
 26
0.0
 36
0.0
 17
0.0
 27
1.0
 37
0.0
 76
     0
330
6C
  0
LAYOUT
  5
77
102
{ACAD_REACTORS
330
62
102
}
330
62
100
AcDbPlotSettings
  1

  2

  4

  6

 40
0.0
 41
0.0
 42
0.0
 43
0.0
 44
0.0
 45
0.0
 46
0.0
 47
0.0
 48
0.0
 49
0.0
140
0.0
141
0.0
142
1.0
143
1.0
 70
   688
 72
     0
 73
     0
 74
     5
  7

 75
    16
147
1.0
 76
     0
 77
     2
 78
   300
148
0.0
149
0.0
100
AcDbLayout
  1
Layout2
 70
     1
 71
     2
 10
0.0
 20
0.0
 11
12.0
 21
9.0
 12
0.0
 22
0.0
 32
0.0
 14
0.0
 24
0.0
 34
0.0
 15
0.0
 25
0.0
 35
0.0
146
0.0
 13
0.0
 23
0.0
 33
0.0
 16
1.0
 26
0.0
 36
0.0
 17
0.0
 27
1.0
 37
0.0
 76
     0
330
74
  0
LAYOUT
  5
73
102
{ACAD_REACTORS
330
62
102
}
330
62
100
AcDbPlotSettings
  1

  2

  4

  6

 40
0.0
 41
0.0
 42
0.0
 43
0.0
 44
0.0
 45
0.0
 46
0.0
 47
0.0
 48
0.0
 49
0.0
140
0.0
141
0.0
142
1.0
143
1.0
 70
  1712
 72
     0
 73
     0
 74
     0
  7

 75
     0
147
1.0
 76
     0
 77
     2
 78
   300
148
0.0
149
0.0
100
AcDbLayout
  1
Model
 70
     1
 71
     0
 10
0.0
 20
0.0
 11
12.0
 21
9.0
 12
0.0
 22
0.0
 32
0.0
 14
0.0
 24
0.0
 34
0.0
 15
0.0
 25
0.0
 35
0.0
146
0.0
 13
0.0
 23
0.0
 33
0.0
 16
1.0
 26
0.0
 36
0.0
 17
0.0
 27
1.0
 37
0.0
 76
     0
330
70
  0
MATERIAL
  5
19
102
{ACAD_XDICTIONARY
360
1A
102
}
102
{ACAD_REACTORS
330
10
102
}
330
10
100
AcDbMaterial
  1
ByBlock
 72
     0
 43
0.0208333333333333
 43
0.0
 43
0.0
 43
0.0
 43
0.0
 43
0.0208333333333333
 43
0.0
 43
0.0
 43
0.0
 43
0.0
 43
1.0
 43
0.0
 43
0.0
 43
0.0
 43
0.0
 43
1.0
 77
     0
 47
0.0208333333333333
 47
0.0
 47
0.0
 47
0.0
 47
0.0
 47
0.0208333333333333
 47
0.0
 47
0.0
 47
0.0
 47
0.0
 47
1.0
 47
0.0
 47
0.0
 47
0.0
 47
0.0
 47
1.0
171
     0
 49
0.0208333333333333
 49
0.0
 49
0.0
 49
0.0
 49
0.0
 49
0.0208333333333333
 49
0.0
 49
0.0
 49
0.0
 49
0.0
 49
1.0
 49
0.0
 49
0.0
 49
0.0
 49
0.0
 49
1.0
175
     0
142
0.0208333333333333
142
0.0
142
0.0
142
0.0
142
0.0
142
0.0208333333333333
142
0.0
142
0.0
142
0.0
142
0.0
142
1.0
142
0.0
142
0.0
142
0.0
142
0.0
142
1.0
179
     0
144
0.0208333333333333
144
0.0
144
0.0
144
0.0
144
0.0
144
0.0208333333333333
144
0.0
144
0.0
144
0.0
144
0.0
144
1.0
144
0.0
144
0.0
144
0.0
144
0.0
144
1.0
147
0.0208333333333333
147
0.0
147
0.0
147
0.0
147
0.0
147
0.0208333333333333
147
0.0
147
0.0
147
0.0
147
0.0
147
1.0
147
0.0
147
0.0
147
0.0
147
0.0
147
1.0
  0
MATERIAL
  5
11
102
{ACAD_XDICTIONARY
360
12
102
}
102
{ACAD_REACTORS
330
10
102
}
330
10
100
AcDbMaterial
  1
ByLayer
 72
     0
 43
0.0208333333333333
 43
0.0
 43
0.0
 43
0.0
 43
0.0
 43
0.0208333333333333
 43
0.0
 43
0.0
 43
0.0
 43
0.0
 43
1.0
 43
0.0
 43
0.0
 43
0.0
 43
0.0
 43
1.0
 77
     0
 47
0.0208333333333333
 47
0.0
 47
0.0
 47
0.0
 47
0.0
 47
0.0208333333333333
 47
0.0
 47
0.0
 47
0.0
 47
0.0
 47
1.0
 47
0.0
 47
0.0
 47
0.0
 47
0.0
 47
1.0
171
     0
 49
0.0208333333333333
 49
0.0
 49
0.0
 49
0.0
 49
0.0
 49
0.0208333333333333
 49
0.0
 49
0.0
 49
0.0
 49
0.0
 49
1.0
 49
0.0
 49
0.0
 49
0.0
 49
0.0
 49
1.0
175
     0
142
0.0208333333333333
142
0.0
142
0.0
142
0.0
142
0.0
142
0.0208333333333333
142
0.0
142
0.0
142
0.0
142
0.0
142
1.0
142
0.0
142
0.0
142
0.0
142
0.0
142
1.0
179
     0
144
0.0208333333333333
144
0.0
144
0.0
144
0.0
144
0.0
144
0.0208333333333333
144
0.0
144
0.0
144
0.0
144
0.0
144
1.0
144
0.0
144
0.0
144
0.0
144
0.0
144
1.0
147
0.0208333333333333
147
0.0
147
0.0
147
0.0
147
0.0
147
0.0208333333333333
147
0.0
147
0.0
147
0.0
147
0.0
147
1.0
147
0.0
147
0.0
147
0.0
147
0.0
147
1.0
  0
MATERIAL
  5
21
102
{ACAD_XDICTIONARY
360
22
102
}
102
{ACAD_REACTORS
330
10
102
}
330
10
100
AcDbMaterial
  1
Global
 72
     0
 43
0.0208333333333333
 43
0.0
 43
0.0
 43
0.0
 43
0.0
 43
0.0208333333333333
 43
0.0
 43
0.0
 43
0.0
 43
0.0
 43
1.0
 43
0.0
 43
0.0
 43
0.0
 43
0.0
 43
1.0
 77
     0
 47
0.0208333333333333
 47
0.0
 47
0.0
 47
0.0
 47
0.0
 47
0.0208333333333333
 47
0.0
 47
0.0
 47
0.0
 47
0.0
 47
1.0
 47
0.0
 47
0.0
 47
0.0
 47
0.0
 47
1.0
171
     0
 49
0.0208333333333333
 49
0.0
 49
0.0
 49
0.0
 49
0.0
 49
0.0208333333333333
 49
0.0
 49
0.0
 49
0.0
 49
0.0
 49
1.0
 49
0.0
 49
0.0
 49
0.0
 49
0.0
 49
1.0
175
     0
142
0.0208333333333333
142
0.0
142
0.0
142
0.0
142
0.0
142
0.0208333333333333
142
0.0
142
0.0
142
0.0
142
0.0
142
1.0
142
0.0
142
0.0
142
0.0
142
0.0
142
1.0
179
     0
144
0.0208333333333333
144
0.0
144
0.0
144
0.0
144
0.0
144
0.0208333333333333
144
0.0
144
0.0
144
0.0
144
0.0
144
1.0
144
0.0
144
0.0
144
0.0
144
0.0
144
1.0
147
0.0208333333333333
147
0.0
147
0.0
147
0.0
147
0.0
147
0.0208333333333333
147
0.0
147
0.0
147
0.0
147
0.0
147
1.0
147
0.0
147
0.0
147
0.0
147
0.0
147
1.0
  0
MLEADERSTYLE
  5
67
102
{ACAD_REACTORS
330
66
102
}
330
66
100
AcDbMLeaderStyle
179
     2
170
     2
171
     1
172
     0
 90
        2
 40
0.0
 41
0.0
173
     1
 91
-1056964608
340
5B
 92
       -2
290
     1
 42
0.09
291
     1
 43
0.36
  3
Standard
 44
0.18
300

342
55
174
     1
178
     6
175
     1
176
     0
 93
-1056964608
 45
0.18
292
     0
297
     0
 46
0.18
 94
-1056964608
 47
1.0
 49
1.0
140
1.0
293
     1
141
0.0
294
     1
177
     0
142
1.0
295
     1
296
     0
143
0.125
271
     0
272
     9
273
     9
298
     1
  0
MLINESTYLE
  5
60
102
{ACAD_REACTORS
330
5F
102
}
330
5F
100
AcDbMlineStyle
  2
STANDARD
 70
     0
  3

 62
   256
 51
90.0
 52
90.0
 71
     2
 49
0.5
 62
   256
  6
BYLAYER
 49
-0.5
 62
   256
  6
BYLAYER
  0
ACDBPLACEHOLDER
  5
F
102
{ACAD_REACTORS
330
E
102
}
330
E
  0
SCALE
  5
43
102
{ACAD_REACTORS
330
42
102
}
330
42
100
AcDbScale
 70
     0
300
1:1
140
1.0
141
1.0
290
     1
  0
SCALE
  5
44
102
{ACAD_REACTORS
330
42
102
}
330
42
100
AcDbScale
 70
     0
300
1/128" = 1'-0"
140
0.0078125
141
12.0
290
     0
  0
SCALE
  5
45
102
{ACAD_REACTORS
330
42
102
}
330
42
100
AcDbScale
 70
     0
300
1/64" = 1'-0"
140
0.015625
141
12.0
290
     0
  0
SCALE
  5
46
102
{ACAD_REACTORS
330
42
102
}
330
42
100
AcDbScale
 70
     0
300
1/32" = 1'-0"
140
0.03125
141
12.0
290
     0
  0
SCALE
  5
47
102
{ACAD_REACTORS
330
42
102
}
330
42
100
AcDbScale
 70
     0
300
1/16" = 1'-0"
140
0.0625
141
12.0
290
     0
  0
SCALE
  5
48
102
{ACAD_REACTORS
330
42
102
}
330
42
100
AcDbScale
 70
     0
300
3/32" = 1'-0"
140
0.09375
141
12.0
290
     0
  0
SCALE
  5
49
102
{ACAD_REACTORS
330
42
102
}
330
42
100
AcDbScale
 70
     0
300
1/8" = 1'-0"
140
0.125
141
12.0
290
     0
  0
SCALE
  5
4A
102
{ACAD_REACTORS
330
42
102
}
330
42
100
AcDbScale
 70
     0
300
3/16" = 1'-0"
140
0.1875
141
12.0
290
     0
  0
SCALE
  5
4B
102
{ACAD_REACTORS
330
42
102
}
330
42
100
AcDbScale
 70
     0
300
1/4" = 1'-0"
140
0.25
141
12.0
290
     0
  0
SCALE
  5
4C
102
{ACAD_REACTORS
330
42
102
}
330
42
100
AcDbScale
 70
     0
300
3/8" = 1'-0"
140
0.375
141
12.0
290
     0
  0
SCALE
  5
4D
102
{ACAD_REACTORS
330
42
102
}
330
42
100
AcDbScale
 70
     0
300
1/2" = 1'-0"
140
0.5
141
12.0
290
     0
  0
SCALE
  5
4E
102
{ACAD_REACTORS
330
42
102
}
330
42
100
AcDbScale
 70
     0
300
3/4" = 1'-0"
140
0.75
141
12.0
290
     0
  0
SCALE
  5
4F
102
{ACAD_REACTORS
330
42
102
}
330
42
100
AcDbScale
 70
     0
300
1" = 1'-0"
140
1.0
141
12.0
290
     0
  0
SCALE
  5
50
102
{ACAD_REACTORS
330
42
102
}
330
42
100
AcDbScale
 70
     0
300
1-1/2" = 1'-0"
140
1.5
141
12.0
290
     0
  0
SCALE
  5
51
102
{ACAD_REACTORS
330
42
102
}
330
42
100
AcDbScale
 70
     0
300
3" = 1'-0"
140
3.0
141
12.0
290
     0
  0
SCALE
  5
52
102
{ACAD_REACTORS
330
42
102
}
330
42
100
AcDbScale
 70
     0
300
6" = 1'-0"
140
6.0
141
12.0
290
     0
  0
SCALE
  5
53
102
{ACAD_REACTORS
330
42
102
}
330
42
100
AcDbScale
 70
     0
300
1'-0" = 1'-0"
140
12.0
141
12.0
290
     0
  0
ACDBSECTIONVIEWSTYLE
  5
69
102
{ACAD_REACTORS
330
68
102
}
330
68
100
AcDbModelDocViewStyle
 70
     0
  3
Imperial24
290
     1
300
Imperial24
 90
        0
100
AcDbSectionViewStyle
 70
     0
 71
     0
 90
       78
 71
     1
340
55
 62
   256
 40
0.24
340
0
340
0
 62
   256
 40
0.24
300
I, O, Q, S, X, Z
 40
0.48
 90
        3
 40
0.18
 90
        1
 71
     2
340
5D
 90
       25
 62
   256
340
5D
 90
       50
 62
   256
 40
0.24
 40
0.0
 40
0.24
 71
     3
340
55
 62
   256
 40
0.24
 90
        1
 40
0.75
 90
        1
300
%<\AcVar ViewType \f "%tc1">% %<\AcVar ViewSectionStartId>%-%<\AcVar ViewSectionEndId>%\PSCALE %<\AcVar ViewScale \f "%sn">%
 71
     4
 62
   256
 62
   257
300
ANSI31
 40
1.0
 90
        0
290
     0
290
     0
 90
        6
 40
0.0
 40
1.570796326794896
 40
0.2617993877991494
 40
1.308996938995747
 40
-0.2617993877991494
 40
1.832595714594046
  0
TABLESTYLE
  5
65
102
{ACAD_XDICTIONARY
360
24D
102
}
102
{ACAD_REACTORS
330
64
102
}
330
64
100
AcDbTableStyle
280
     0
  3
Standard
 70
     0
 71
     0
 40
0.06
 41
0.06
280
     0
281
     0
  7
Standard
140
0.18
170
     2
 62
     0
 63
     7
283
     0
 90
      512
 91
        0
  1

274
    -2
284
     1
 64
     0
275
    -2
285
     1
 65
     0
276
    -2
286
     1
 66
     0
277
    -2
287
     1
 67
     0
278
    -2
288
     1
 68
     0
279
    -2
289
     1
 69
     0
  7
Standard
140
0.25
170
     5
 62
     0
 63
     7
283
     0
 90
      512
 91
        0
  1

274
    -2
284
     1
 64
     0
275
    -2
285
     1
 65
     0
276
    -2
286
     1
 66
     0
277
    -2
287
     1
 67
     0
278
    -2
288
     1
 68
     0
279
    -2
289
     1
 69
     0
  7
Standard
140
0.18
170
     5
 62
     0
 63
     7
283
     0
 90
      512
 91
        0
  1

274
    -2
284
     1
 64
     0
275
    -2
285
     1
 65
     0
276
    -2
286
     1
 66
     0
277
    -2
287
     1
 67
     0
278
    -2
288
     1
 68
     0
279
    -2
289
     1
 69
     0
  0
VISUALSTYLE
  5
2F
102
{ACAD_REACTORS
330
29
102
}
330
29
100
AcDbVisualStyle
  2
2dWireframe
 70
     4
177
     3
291
     0
 70
    58
 90
        0
176
     1
 90
        2
176
     1
 90
        0
176
     1
 90
        0
176
     1
 40
0.6
176
     1
 40
30.0
176
     1
 62
     7
420
 16777215
176
     1
 90
        1
176
     1
 90
        4
176
     1
 62
     7
176
     1
 62
   257
176
     1
 90
        1
176
     1
 90
        1
176
     1
 40
1.0
176
     1
 90
        0
176
     1
 62
   257
176
     1
 40
1.0
176
     1
 90
        1
176
     1
 90
        6
176
     1
 90
        2
176
     1
 62
     7
176
     1
 90
        5
176
     1
 90
        0
176
     1
 90
        0
176
     1
290
     0
176
     1
 90
        1
176
     1
 40
0.0
176
     1
 90
        0
176
     1
290
     1
176
     1
290
     1
176
     1
290
     0
176
     1
290
     0
176
     1
290
     0
176
     1
290
     0
176
     1
290
     0
176
     1
290
     0
176
     1
290
     0
176
     1
 90
       50
176
     1
 40
0.0
176
     1
 40
1.0
176
     1
 90
        0
176
     1
 62
    18
420
        0
176
     1
 90
       50
176
     1
 90
        3
176
     1
 62
     5
420
      255
176
     1
290
     0
176
     1
 90
       50
176
     1
 90
       50
176
     1
 90
       50
176
     1
290
     0
176
     1
 90
       50
176
     1
 62
   256
176
     0
 40
1.0
176
     0
 90
        2
176
     1
  1
strokes_ogs.tif
176
     1
290
     0
176
     1
 40
1.0
176
     1
 40
1.0
176
     1
  0
VISUALSTYLE
  5
2E
102
{ACAD_REACTORS
330
29
102
}
330
29
100
AcDbVisualStyle
  2
Basic
 70
     7
177
     3
291
     1
 70
    58
 90
        1
176
     1
 90
        0
176
     1
 90
        1
176
     1
 90
        0
176
     1
 40
0.6
176
     1
 40
30.0
176
     1
 62
     7
420
 16777215
176
     1
 90
        0
176
     1
 90
        4
176
     1
 62
     7
176
     1
 62
   257
176
     1
 90
        1
176
     1
 90
        1
176
     1
 40
1.0
176
     1
 90
        8
176
     1
 62
     7
176
     1
 40
1.0
176
     1
 90
        1
176
     1
 90
        6
176
     1
 90
        2
176
     1
 62
     7
176
     1
 90
        5
176
     1
 90
        0
176
     1
 90
        0
176
     1
290
     0
176
     1
 90
        1
176
     1
 40
0.0
176
     1
 90
        0
176
     1
290
     0
176
     1
290
     1
176
     1
290
     1
176
     1
290
     0
176
     1
290
     0
176
     1
290
     0
176
     1
290
     0
176
     1
290
     0
176
     1
290
     0
176
     1
 90
       50
176
     1
 40
0.0
176
     1
 40
1.0
176
     1
 90
        0
176
     1
 62
    18
420
        0
176
     1
 90
       50
176
     1
 90
        3
176
     1
 62
     5
420
      255
176
     1
290
     0
176
     1
 90
       50
176
     1
 90
       50
176
     1
 90
       50
176
     1
290
     0
176
     1
 90
       50
176
     1
 62
   256
176
     0
 40
1.0
176
     0
 90
        2
176
     1
  1
strokes_ogs.tif
176
     1
290
     0
176
     1
 40
1.0
176
     1
 40
1.0
176
     1
  0
VISUALSTYLE
  5
35
102
{ACAD_REACTORS
330
29
102
}
330
29
100
AcDbVisualStyle
  2
Brighten
 70
    12
177
     3
291
     1
 70
    58
 90
        2
176
     1
 90
        2
176
     1
 90
        0
176
     1
 90
        0
176
     1
 40
0.6
176
     1
 40
30.0
176
     1
 62
     7
420
 16777215
176
     1
 90
        1
176
     1
 90
        4
176
     1
 62
     7
176
     1
 62
   257
176
     1
 90
        1
176
     1
 90
        1
176
     1
 40
1.0
176
     1
 90
        8
176
     1
 62
     7
176
     1
 40
1.0
176
     1
 90
        1
176
     1
 90
        6
176
     1
 90
        2
176
     1
 62
     7
176
     1
 90
        5
176
     1
 90
        0
176
     1
 90
        0
176
     1
290
     0
176
     1
 90
        1
176
     1
 40
50.0
176
     1
 90
        0
176
     1
290
     0
176
     1
290
     1
176
     1
290
     1
176
     1
290
     0
176
     1
290
     0
176
     1
290
     0
176
     1
290
     0
176
     1
290
     0
176
     1
290
     0
176
     1
 90
       50
176
     1
 40
0.0
176
     1
 40
1.0
176
     1
 90
        0
176
     1
 62
    18
420
        0
176
     1
 90
       50
176
     1
 90
        3
176
     1
 62
     5
420
      255
176
     1
290
     0
176
     1
 90
       50
176
     1
 90
       50
176
     1
 90
       50
176
     1
290
     0
176
     1
 90
       50
176
     1
 62
   256
176
     0
 40
1.0
176
     0
 90
        2
176
     1
  1
strokes_ogs.tif
176
     1
290
     0
176
     1
 40
1.0
176
     1
 40
1.0
176
     1
  0
VISUALSTYLE
  5
39
102
{ACAD_REACTORS
330
29
102
}
330
29
100
AcDbVisualStyle
  2
ColorChange
 70
    16
177
     3
291
     1
 70
    58
 90
        2
176
     1
 90
        2
176
     1
 90
        3
176
     1
 90
        0
176
     1
 40
0.6
176
     1
 40
30.0
176
     1
 62
     8
420
  8421504
176
     1
 90
        1
176
     1
 90
        4
176
     1
 62
     7
176
     1
 62
   257
176
     1
 90
        1
176
     1
 90
        1
176
     1
 40
1.0
176
     1
 90
        8
176
     1
 62
     8
420
  8421504
176
     1
 40
1.0
176
     1
 90
        1
176
     1
 90
        6
176
     1
 90
        2
176
     1
 62
     7
176
     1
 90
        5
176
     1
 90
        0
176
     1
 90
        0
176
     1
290
     0
176
     1
 90
        1
176
     1
 40
0.0
176
     1
 90
        0
176
     1
290
     0
176
     1
290
     1
176
     1
290
     1
176
     1
290
     0
176
     1
290
     0
176
     1
290
     0
176
     1
290
     0
176
     1
290
     0
176
     1
290
     0
176
     1
 90
       50
176
     1
 40
0.0
176
     1
 40
1.0
176
     1
 90
        0
176
     1
 62
    18
420
        0
176
     1
 90
       50
176
     1
 90
        3
176
     1
 62
     5
420
      255
176
     1
290
     0
176
     1
 90
       50
176
     1
 90
       50
176
     1
 90
       50
176
     1
290
     0
176
     1
 90
       50
176
     1
 62
   256
176
     0
 40
1.0
176
     0
 90
        2
176
     1
  1
strokes_ogs.tif
176
     1
290
     0
176
     1
 40
1.0
176
     1
 40
1.0
176
     1
  0
VISUALSTYLE
  5
32
102
{ACAD_REACTORS
330
29
102
}
330
29
100
AcDbVisualStyle
  2
Conceptual
 70
     9
177
     3
291
     0
 70
    58
 90
        3
176
     1
 90
        2
176
     1
 90
        0
176
     1
 90
        0
176
     1
 40
0.6
176
     1
 40
30.0
176
     1
 62
     7
420
 16777215
176
     1
 90
        2
176
     1
 90
        2
176
     1
 62
     7
176
     1
 62
   257
176
     1
 90
        1
176
     1
 90
        1
176
     1
 40
179.0
176
     1
 90
        8
176
     1
 62
     7
176
     1
 40
1.0
176
     1
 90
        1
176
     1
 90
        6
176
     1
 90
        2
176
     1
 62
     7
176
     1
 90
        3
176
     1
 90
        0
176
     1
 90
        0
176
     1
290
     0
176
     1
 90
        1
176
     1
 40
0.0
176
     1
 90
        0
176
     1
290
     0
176
     1
290
     1
176
     1
290
     1
176
     1
290
     0
176
     1
290
     0
176
     1
290
     0
176
     1
290
     0
176
     1
290
     0
176
     1
290
     0
176
     1
 90
       50
176
     1
 40
0.0
176
     1
 40
1.0
176
     1
 90
        0
176
     1
 62
    18
420
        0
176
     1
 90
       50
176
     1
 90
        3
176
     1
 62
     5
420
      255
176
     1
290
     0
176
     1
 90
       50
176
     1
 90
       50
176
     1
 90
       50
176
     1
290
     0
176
     1
 90
       50
176
     1
 62
   256
176
     0
 40
1.0
176
     0
 90
        2
176
     1
  1
strokes_ogs.tif
176
     1
290
     0
176
     1
 40
1.0
176
     1
 40
1.0
176
     1
  0
VISUALSTYLE
  5
34
102
{ACAD_REACTORS
330
29
102
}
330
29
100
AcDbVisualStyle
  2
Dim
 70
    11
177
     3
291
     1
 70
    58
 90
        2
176
     1
 90
        2
176
     1
 90
        0
176
     1
 90
        0
176
     1
 40
0.6
176
     1
 40
30.0
176
     1
 62
     7
420
 16777215
176
     1
 90
        1
176
     1
 90
        4
176
     1
 62
     7
176
     1
 62
   257
176
     1
 90
        1
176
     1
 90
        1
176
     1
 40
1.0
176
     1
 90
        8
176
     1
 62
     7
176
     1
 40
1.0
176
     1
 90
        1
176
     1
 90
        6
176
     1
 90
        2
176
     1
 62
     7
176
     1
 90
        5
176
     1
 90
        0
176
     1
 90
        0
176
     1
290
     0
176
     1
 90
        1
176
     1
 40
-50.0
176
     1
 90
        0
176
     1
290
     0
176
     1
290
     1
176
     1
290
     1
176
     1
290
     0
176
     1
290
     0
176
     1
290
     0
176
     1
290
     0
176
     1
290
     0
176
     1
290
     0
176
     1
 90
       50
176
     1
 40
0.0
176
     1
 40
1.0
176
     1
 90
        0
176
     1
 62
    18
420
        0
176
     1
 90
       50
176
     1
 90
        3
176
     1
 62
     5
420
      255
176
     1
290
     0
176
     1
 90
       50
176
     1
 90
       50
176
     1
 90
       50
176
     1
290
     0
176
     1
 90
       50
176
     1
 62
   256
176
     0
 40
1.0
176
     0
 90
        2
176
     1
  1
strokes_ogs.tif
176
     1
290
     0
176
     1
 40
1.0
176
     1
 40
1.0
176
     1
  0
VISUALSTYLE
  5
41
102
{ACAD_REACTORS
330
29
102
}
330
29
100
AcDbVisualStyle
  2
EdgeColorOff
 70
    22
177
     3
291
     1
 70
    58
 90
        2
176
     0
 90
        2
176
     0
 90
        0
176
     0
 90
        0
176
     0
 40
0.6
176
     0
 40
30.0
176
     0
 62
     7
420
 16777215
176
     0
 90
        1
176
     0
 90
        4
176
     0
 62
     7
176
     0
 62
   257
176
     0
 90
        1
176
     0
 90
        1
176
     0
 40
1.0
176
     0
 90
        8
176
     2
 62
     7
176
     0
 40
1.0
176
     0
 90
        1
176
     0
 90
        6
176
     0
 90
        2
176
     0
 62
     7
176
     0
 90
        5
176
     0
 90
        0
176
     0
 90
        0
176
     0
290
     0
176
     0
 90
        1
176
     0
 40
0.0
176
     0
 90
        0
176
     0
290
     0
176
     0
290
     1
176
     0
290
     1
176
     0
290
     0
176
     0
290
     0
176
     0
290
     0
176
     0
290
     0
176
     0
290
     0
176
     0
290
     0
176
     0
 90
       50
176
     0
 40
0.0
176
     0
 40
1.0
176
     0
 90
        0
176
     0
 62
    18
420
        0
176
     0
 90
       50
176
     0
 90
        3
176
     0
 62
     5
420
      255
176
     0
290
     0
176
     0
 90
       50
176
     0
 90
       50
176
     0
 90
       50
176
     0
290
     0
176
     0
 90
       50
176
     0
 62
   256
176
     0
 40
1.0
176
     0
 90
        2
176
     0
  1
strokes_ogs.tif
176
     0
290
     0
176
     0
 40
1.0
176
     0
 40
1.0
176
     0
  0
VISUALSTYLE
  5
38
102
{ACAD_REACTORS
330
29
102
}
330
29
100
AcDbVisualStyle
  2
Facepattern
 70
    15
177
     3
291
     1
 70
    58
 90
        2
176
     1
 90
        2
176
     1
 90
        0
176
     1
 90
        0
176
     1
 40
0.6
176
     1
 40
30.0
176
     1
 62
     7
420
 16777215
176
     1
 90
        1
176
     1
 90
        4
176
     1
 62
     7
176
     1
 62
   257
176
     1
 90
        1
176
     1
 90
        1
176
     1
 40
1.0
176
     1
 90
        8
176
     1
 62
     7
176
     1
 40
1.0
176
     1
 90
        1
176
     1
 90
        6
176
     1
 90
        2
176
     1
 62
     7
176
     1
 90
        5
176
     1
 90
        0
176
     1
 90
        0
176
     1
290
     0
176
     1
 90
        1
176
     1
 40
0.0
176
     1
 90
        0
176
     1
290
     0
176
     1
290
     1
176
     1
290
     1
176
     1
290
     0
176
     1
290
     0
176
     1
290
     0
176
     1
290
     0
176
     1
290
     0
176
     1
290
     0
176
     1
 90
       50
176
     1
 40
0.0
176
     1
 40
1.0
176
     1
 90
        0
176
     1
 62
    18
420
        0
176
     1
 90
       50
176
     1
 90
        3
176
     1
 62
     5
420
      255
176
     1
290
     0
176
     1
 90
       50
176
     1
 90
       50
176
     1
 90
       50
176
     1
290
     0
176
     1
 90
       50
176
     1
 62
   256
176
     0
 40
1.0
176
     0
 90
        2
176
     1
  1
strokes_ogs.tif
176
     1
290
     0
176
     1
 40
1.0
176
     1
 40
1.0
176
     1
  0
VISUALSTYLE
  5
2A
102
{ACAD_REACTORS
330
29
102
}
330
29
100
AcDbVisualStyle
  2
Flat
 70
     0
177
     3
291
     1
 70
    58
 90
        2
176
     1
 90
        1
176
     1
 90
        1
176
     1
 90
        2
176
     1
 40
0.6
176
     1
 40
30.0
176
     1
 62
     7
420
 16777215
176
     1
 90
        0
176
     1
 90
        0
176
     1
 62
     7
176
     1
 62
   257
176
     1
 90
        1
176
     1
 90
        1
176
     1
 40
1.0
176
     1
 90
        8
176
     1
 62
     7
176
     1
 40
1.0
176
     1
 90
        1
176
     1
 90
        6
176
     1
 90
        2
176
     1
 62
     7
176
     1
 90
        5
176
     1
 90
        0
176
     1
 90
        0
176
     1
290
     0
176
     1
 90
       13
176
     1
 40
0.0
176
     1
 90
        0
176
     1
290
     0
176
     1
290
     1
176
     1
290
     1
176
     1
290
     0
176
     1
290
     0
176
     1
290
     0
176
     1
290
     0
176
     1
290
     0
176
     1
290
     0
176
     1
 90
       50
176
     1
 40
0.0
176
     1
 40
1.0
176
     1
 90
        0
176
     1
 62
    18
420
        0
176
     1
 90
       50
176
     1
 90
        3
176
     1
 62
     5
420
      255
176
     1
290
     0
176
     1
 90
       50
176
     1
 90
       50
176
     1
 90
       50
176
     1
290
     0
176
     1
 90
       50
176
     1
 62
   256
176
     0
 40
1.0
176
     0
 90
        2
176
     1
  1
strokes_ogs.tif
176
     1
290
     0
176
     1
 40
1.0
176
     1
 40
1.0
176
     1
  0
VISUALSTYLE
  5
2B
102
{ACAD_REACTORS
330
29
102
}
330
29
100
AcDbVisualStyle
  2
FlatWithEdges
 70
     1
177
     3
291
     1
 70
    58
 90
        2
176
     1
 90
        1
176
     1
 90
        1
176
     1
 90
        2
176
     1
 40
0.6
176
     1
 40
30.0
176
     1
 62
     7
420
 16777215
176
     1
 90
        1
176
     1
 90
        0
176
     1
 62
     7
176
     1
 62
   257
176
     1
 90
        1
176
     1
 90
        1
176
     1
 40
1.0
176
     1
 90
        0
176
     1
 62
   257
176
     1
 40
1.0
176
     1
 90
        1
176
     1
 90
        6
176
     1
 90
        2
176
     1
 62
     7
176
     1
 90
        5
176
     1
 90
        0
176
     1
 90
        0
176
     1
290
     0
176
     1
 90
       13
176
     1
 40
0.0
176
     1
 90
        0
176
     1
290
     0
176
     1
290
     1
176
     1
290
     1
176
     1
290
     0
176
     1
290
     0
176
     1
290
     0
176
     1
290
     0
176
     1
290
     0
176
     1
290
     0
176
     1
 90
       50
176
     1
 40
0.0
176
     1
 40
1.0
176
     1
 90
        0
176
     1
 62
    18
420
        0
176
     1
 90
       50
176
     1
 90
        3
176
     1
 62
     5
420
      255
176
     1
290
     0
176
     1
 90
       50
176
     1
 90
       50
176
     1
 90
       50
176
     1
290
     0
176
     1
 90
       50
176
     1
 62
   256
176
     0
 40
1.0
176
     0
 90
        2
176
     1
  1
strokes_ogs.tif
176
     1
290
     0
176
     1
 40
1.0
176
     1
 40
1.0
176
     1
  0
VISUALSTYLE
  5
2C
102
{ACAD_REACTORS
330
29
102
}
330
29
100
AcDbVisualStyle
  2
Gouraud
 70
     2
177
     3
291
     1
 70
    58
 90
        2
176
     1
 90
        2
176
     1
 90
        1
176
     1
 90
        2
176
     1
 40
0.6
176
     1
 40
30.0
176
     1
 62
     7
420
 16777215
176
     1
 90
        0
176
     1
 90
        0
176
     1
 62
     7
176
     1
 62
   257
176
     1
 90
        1
176
     1
 90
        1
176
     1
 40
1.0
176
     1
 90
        0
176
     1
 62
     7
176
     1
 40
1.0
176
     1
 90
        1
176
     1
 90
        6
176
     1
 90
        2
176
     1
 62
     7
176
     1
 90
        5
176
     1
 90
        0
176
     1
 90
        0
176
     1
290
     0
176
     1
 90
       13
176
     1
 40
0.0
176
     1
 90
        0
176
     1
290
     0
176
     1
290
     1
176
     1
290
     1
176
     1
290
     0
176
     1
290
     0
176
     1
290
     0
176
     1
290
     0
176
     1
290
     0
176
     1
290
     0
176
     1
 90
       50
176
     1
 40
0.0
176
     1
 40
1.0
176
     1
 90
        0
176
     1
 62
    18
420
        0
176
     1
 90
       50
176
     1
 90
        3
176
     1
 62
     5
420
      255
176
     1
290
     0
176
     1
 90
       50
176
     1
 90
       50
176
     1
 90
       50
176
     1
290
     0
176
     1
 90
       50
176
     1
 62
   256
176
     0
 40
1.0
176
     0
 90
        2
176
     1
  1
strokes_ogs.tif
176
     1
290
     0
176
     1
 40
1.0
176
     1
 40
1.0
176
     1
  0
VISUALSTYLE
  5
2D
102
{ACAD_REACTORS
330
29
102
}
330
29
100
AcDbVisualStyle
  2
GouraudWithEdges
 70
     3
177
     3
291
     1
 70
    58
 90
        2
176
     1
 90
        2
176
     1
 90
        1
176
     1
 90
        2
176
     1
 40
0.6
176
     1
 40
30.0
176
     1
 62
     7
420
 16777215
176
     1
 90
        1
176
     1
 90
        0
176
     1
 62
     7
176
     1
 62
   257
176
     1
 90
        1
176
     1
 90
        1
176
     1
 40
1.0
176
     1
 90
        0
176
     1
 62
   257
176
     1
 40
1.0
176
     1
 90
        1
176
     1
 90
        6
176
     1
 90
        2
176
     1
 62
     7
176
     1
 90
        5
176
     1
 90
        0
176
     1
 90
        0
176
     1
290
     0
176
     1
 90
       13
176
     1
 40
0.0
176
     1
 90
        0
176
     1
290
     0
176
     1
290
     1
176
     1
290
     1
176
     1
290
     0
176
     1
290
     0
176
     1
290
     0
176
     1
290
     0
176
     1
290
     0
176
     1
290
     0
176
     1
 90
       50
176
     1
 40
0.0
176
     1
 40
1.0
176
     1
 90
        0
176
     1
 62
    18
420
        0
176
     1
 90
       50
176
     1
 90
        3
176
     1
 62
     5
420
      255
176
     1
290
     0
176
     1
 90
       50
176
     1
 90
       50
176
     1
 90
       50
176
     1
290
     0
176
     1
 90
       50
176
     1
 62
   256
176
     0
 40
1.0
176
     0
 90
        2
176
     1
  1
strokes_ogs.tif
176
     1
290
     0
176
     1
 40
1.0
176
     1
 40
1.0
176
     1
  0
VISUALSTYLE
  5
31
102
{ACAD_REACTORS
330
29
102
}
330
29
100
AcDbVisualStyle
  2
Hidden
 70
     6
177
     3
291
     0
 70
    58
 90
        1
176
     1
 90
        2
176
     1
 90
        2
176
     1
 90
        0
176
     1
 40
0.6
176
     1
 40
30.0
176
     1
 62
     7
420
 16777215
176
     1
 90
        2
176
     1
 90
        2
176
     1
 62
     7
176
     1
 62
   257
176
     1
 90
        2
176
     1
 90
        1
176
     1
 40
40.0
176
     1
 90
        0
176
     1
 62
   257
176
     1
 40
1.0
176
     1
 90
        1
176
     1
 90
        6
176
     1
 90
        2
176
     1
 62
     7
176
     1
 90
        3
176
     1
 90
        0
176
     1
 90
        0
176
     1
290
     0
176
     1
 90
        1
176
     1
 40
0.0
176
     1
 90
        0
176
     1
290
     0
176
     1
290
     1
176
     1
290
     1
176
     1
290
     0
176
     1
290
     0
176
     1
290
     0
176
     1
290
     0
176
     1
290
     0
176
     1
290
     0
176
     1
 90
       50
176
     1
 40
0.0
176
     1
 40
1.0
176
     1
 90
        0
176
     1
 62
    18
420
        0
176
     1
 90
       50
176
     1
 90
        3
176
     1
 62
     5
420
      255
176
     1
290
     0
176
     1
 90
       50
176
     1
 90
       50
176
     1
 90
       50
176
     1
290
     0
176
     1
 90
       50
176
     1
 62
   256
176
     0
 40
1.0
176
     0
 90
        2
176
     1
  1
strokes_ogs.tif
176
     1
290
     0
176
     1
 40
1.0
176
     1
 40
1.0
176
     1
  0
VISUALSTYLE
  5
3F
102
{ACAD_REACTORS
330
29
102
}
330
29
100
AcDbVisualStyle
  2
JitterOff
 70
    20
177
     3
291
     1
 70
    58
 90
        2
176
     0
 90
        2
176
     0
 90
        0
176
     0
 90
        0
176
     0
 40
0.6
176
     0
 40
30.0
176
     0
 62
     7
420
 16777215
176
     0
 90
        1
176
     0
 90
        4
176
     0
 62
     7
176
     0
 62
   257
176
     0
 90
        1
176
     0
 90
        1
176
     0
 40
1.0
176
     0
 90
       10
176
     2
 62
     7
176
     0
 40
1.0
176
     0
 90
        1
176
     0
 90
        6
176
     0
 90
        2
176
     0
 62
     7
176
     0
 90
        5
176
     0
 90
        0
176
     0
 90
        0
176
     0
290
     0
176
     0
 90
        1
176
     0
 40
0.0
176
     0
 90
        0
176
     0
290
     0
176
     0
290
     1
176
     0
290
     1
176
     0
290
     0
176
     0
290
     0
176
     0
290
     0
176
     0
290
     0
176
     0
290
     0
176
     0
290
     0
176
     0
 90
       50
176
     0
 40
0.0
176
     0
 40
1.0
176
     0
 90
        0
176
     0
 62
    18
420
        0
176
     0
 90
       50
176
     0
 90
        3
176
     0
 62
     5
420
      255
176
     0
290
     0
176
     0
 90
       50
176
     0
 90
       50
176
     0
 90
       50
176
     0
290
     0
176
     0
 90
       50
176
     0
 62
   256
176
     0
 40
1.0
176
     0
 90
        2
176
     0
  1
strokes_ogs.tif
176
     0
290
     0
176
     0
 40
1.0
176
     0
 40
1.0
176
     0
  0
VISUALSTYLE
  5
37
102
{ACAD_REACTORS
330
29
102
}
330
29
100
AcDbVisualStyle
  2
Linepattern
 70
    14
177
     3
291
     1
 70
    58
 90
        2
176
     1
 90
        2
176
     1
 90
        0
176
     1
 90
        0
176
     1
 40
0.6
176
     1
 40
30.0
176
     1
 62
     7
420
 16777215
176
     1
 90
        1
176
     1
 90
        4
176
     1
 62
     7
176
     1
 62
   257
176
     1
 90
        7
176
     1
 90
        7
176
     1
 40
1.0
176
     1
 90
        8
176
     1
 62
     7
176
     1
 40
1.0
176
     1
 90
        1
176
     1
 90
        6
176
     1
 90
        2
176
     1
 62
     7
176
     1
 90
        5
176
     1
 90
        0
176
     1
 90
        0
176
     1
290
     0
176
     1
 90
        1
176
     1
 40
0.0
176
     1
 90
        0
176
     1
290
     0
176
     1
290
     1
176
     1
290
     1
176
     1
290
     0
176
     1
290
     0
176
     1
290
     0
176
     1
290
     0
176
     1
290
     0
176
     1
290
     0
176
     1
 90
       50
176
     1
 40
0.0
176
     1
 40
1.0
176
     1
 90
        0
176
     1
 62
    18
420
        0
176
     1
 90
       50
176
     1
 90
        3
176
     1
 62
     5
420
      255
176
     1
290
     0
176
     1
 90
       50
176
     1
 90
       50
176
     1
 90
       50
176
     1
290
     0
176
     1
 90
       50
176
     1
 62
   256
176
     0
 40
1.0
176
     0
 90
        2
176
     1
  1
strokes_ogs.tif
176
     1
290
     0
176
     1
 40
1.0
176
     1
 40
1.0
176
     1
  0
VISUALSTYLE
  5
40
102
{ACAD_REACTORS
330
29
102
}
330
29
100
AcDbVisualStyle
  2
OverhangOff
 70
    21
177
     3
291
     1
 70
    58
 90
        2
176
     0
 90
        2
176
     0
 90
        0
176
     0
 90
        0
176
     0
 40
0.6
176
     0
 40
30.0
176
     0
 62
     7
420
 16777215
176
     0
 90
        1
176
     0
 90
        4
176
     0
 62
     7
176
     0
 62
   257
176
     0
 90
        1
176
     0
 90
        1
176
     0
 40
1.0
176
     0
 90
        9
176
     2
 62
     7
176
     0
 40
1.0
176
     0
 90
        1
176
     0
 90
        6
176
     0
 90
        2
176
     0
 62
     7
176
     0
 90
        5
176
     0
 90
        0
176
     0
 90
        0
176
     0
290
     0
176
     0
 90
        1
176
     0
 40
0.0
176
     0
 90
        0
176
     0
290
     0
176
     0
290
     1
176
     0
290
     1
176
     0
290
     0
176
     0
290
     0
176
     0
290
     0
176
     0
290
     0
176
     0
290
     0
176
     0
290
     0
176
     0
 90
       50
176
     0
 40
0.0
176
     0
 40
1.0
176
     0
 90
        0
176
     0
 62
    18
420
        0
176
     0
 90
       50
176
     0
 90
        3
176
     0
 62
     5
420
      255
176
     0
290
     0
176
     0
 90
       50
176
     0
 90
       50
176
     0
 90
       50
176
     0
290
     0
176
     0
 90
       50
176
     0
 62
   256
176
     0
 40
1.0
176
     0
 90
        2
176
     0
  1
strokes_ogs.tif
176
     0
290
     0
176
     0
 40
1.0
176
     0
 40
1.0
176
     0
  0
VISUALSTYLE
  5
33
102
{ACAD_REACTORS
330
29
102
}
330
29
100
AcDbVisualStyle
  2
Realistic
 70
     8
177
     3
291
     0
 70
    58
 90
        2
176
     1
 90
        3
176
     1
 90
        0
176
     1
 90
        2
176
     1
 40
0.6
176
     1
 40
30.0
176
     1
 62
     7
420
 16777215
176
     1
 90
        0
176
     1
 90
        0
176
     1
 62
     7
176
     1
 62
   257
176
     1
 90
        1
176
     1
 90
        1
176
     1
 40
1.0
176
     1
 90
        8
176
     1
 62
   257
176
     1
 40
1.0
176
     1
 90
        1
176
     1
 90
        6
176
     1
 90
        2
176
     1
 62
     7
176
     1
 90
        3
176
     1
 90
        0
176
     1
 90
        0
176
     1
290
     0
176
     1
 90
       13
176
     1
 40
0.0
176
     1
 90
        0
176
     1
290
     0
176
     1
290
     1
176
     1
290
     1
176
     1
290
     0
176
     1
290
     0
176
     1
290
     0
176
     1
290
     0
176
     1
290
     0
176
     1
290
     0
176
     1
 90
       50
176
     1
 40
0.0
176
     1
 40
1.0
176
     1
 90
        0
176
     1
 62
    18
420
        0
176
     1
 90
       50
176
     1
 90
        3
176
     1
 62
     5
420
      255
176
     1
290
     0
176
     1
 90
       50
176
     1
 90
       50
176
     1
 90
       50
176
     1
290
     0
176
     1
 90
       50
176
     1
 62
   256
176
     0
 40
1.0
176
     0
 90
        2
176
     1
  1
strokes_ogs.tif
176
     1
290
     0
176
     1
 40
1.0
176
     1
 40
1.0
176
     1
  0
VISUALSTYLE
  5
3E
102
{ACAD_REACTORS
330
29
102
}
330
29
100
AcDbVisualStyle
  2
Shaded
 70
    27
177
     3
291
     0
 70
    58
 90
        2
176
     1
 90
        2
176
     1
 90
        1
176
     1
 90
        2
176
     1
 40
0.6
176
     1
 40
30.0
176
     1
 62
     7
420
 16777215
176
     1
 90
        0
176
     1
 90
        4
176
     1
 62
     7
176
     1
 62
   257
176
     1
 90
        1
176
     1
 90
        1
176
     1
 40
1.0
176
     1
 90
        8
176
     1
 62
   257
176
     1
 40
1.0
176
     1
 90
        1
176
     1
 90
        6
176
     1
 90
        2
176
     1
 62
     8
420
  7895160
176
     1
 90
        3
176
     1
 90
        0
176
     1
 90
        0
176
     1
290
     0
176
     1
 90
        5
176
     1
 40
0.0
176
     1
 90
        0
176
     1
290
     0
176
     1
290
     1
176
     1
290
     1
176
     1
290
     0
176
     1
290
     0
176
     1
290
     0
176
     1
290
     0
176
     1
290
     0
176
     1
290
     0
176
     1
 90
       50
176
     1
 40
0.0
176
     1
 40
1.0
176
     1
 90
        0
176
     1
 62
    18
420
        0
176
     1
 90
       50
176
     1
 90
        3
176
     1
 62
     5
420
      255
176
     1
290
     0
176
     1
 90
       50
176
     1
 90
       50
176
     1
 90
       50
176
     1
290
     0
176
     1
 90
       50
176
     1
 62
   256
176
     0
 40
1.0
176
     0
 90
        2
176
     1
  1
strokes_ogs.tif
176
     1
290
     0
176
     1
 40
1.0
176
     1
 40
1.0
176
     1
  0
VISUALSTYLE
  5
3D
102
{ACAD_REACTORS
330
29
102
}
330
29
100
AcDbVisualStyle
  2
Shaded with edges
 70
    26
177
     3
291
     0
 70
    58
 90
        2
176
     1
 90
        2
176
     1
 90
        1
176
     1
 90
        2
176
     1
 40
0.6
176
     1
 40
30.0
176
     1
 62
     7
420
 16777215
176
     1
 90
        1
176
     1
 90
        2
176
     1
 62
     7
176
     1
 62
   257
176
     1
 90
        2
176
     1
 90
        1
176
     1
 40
1.0
176
     1
 90
        8
176
     1
 62
   257
176
     1
 40
1.0
176
     1
 90
        1
176
     1
 90
        6
176
     1
 90
        2
176
     1
 62
     7
176
     1
 90
        3
176
     1
 90
        0
176
     1
 90
        0
176
     1
290
     0
176
     1
 90
        5
176
     1
 40
0.0
176
     1
 90
        0
176
     1
290
     0
176
     1
290
     1
176
     1
290
     1
176
     1
290
     0
176
     1
290
     0
176
     1
290
     0
176
     1
290
     0
176
     1
290
     0
176
     1
290
     0
176
     1
 90
       50
176
     1
 40
0.0
176
     1
 40
1.0
176
     1
 90
        0
176
     1
 62
    18
420
        0
176
     1
 90
       50
176
     1
 90
        3
176
     1
 62
     5
420
      255
176
     1
290
     0
176
     1
 90
       50
176
     1
 90
       50
176
     1
 90
       50
176
     1
290
     0
176
     1
 90
       50
176
     1
 62
   256
176
     0
 40
1.0
176
     0
 90
        2
176
     1
  1
strokes_ogs.tif
176
     1
290
     0
176
     1
 40
1.0
176
     1
 40
1.0
176
     1
  0
VISUALSTYLE
  5
3A
102
{ACAD_REACTORS
330
29
102
}
330
29
100
AcDbVisualStyle
  2
Shades of Gray
 70
    23
177
     3
291
     0
 70
    58
 90
        2
176
     1
 90
        2
176
     1
 90
        3
176
     1
 90
        0
176
     1
 40
0.6
176
     1
 40
30.0
176
     1
 62
     7
420
 16777215
176
     1
 90
        2
176
     1
 90
        2
176
     1
 62
     7
176
     1
 62
     7
176
     1
 90
        1
176
     1
 90
        1
176
     1
 40
40.0
176
     1
 90
        8
176
     1
 62
     7
176
     1
 40
1.0
176
     1
 90
        1
176
     1
 90
        6
176
     1
 90
        2
176
     1
 62
     7
176
     1
 90
        3
176
     1
 90
        0
176
     1
 90
        0
176
     1
290
     0
176
     1
 90
        1
176
     1
 40
0.0
176
     1
 90
        0
176
     1
290
     0
176
     1
290
     1
176
     1
290
     1
176
     1
290
     0
176
     1
290
     0
176
     1
290
     0
176
     1
290
     0
176
     1
290
     0
176
     1
290
     0
176
     1
 90
       50
176
     1
 40
0.0
176
     1
 40
1.0
176
     1
 90
        0
176
     1
 62
    18
420
        0
176
     1
 90
       50
176
     1
 90
        3
176
     1
 62
     5
420
      255
176
     1
290
     0
176
     1
 90
       50
176
     1
 90
       50
176
     1
 90
       50
176
     1
290
     0
176
     1
 90
       50
176
     1
 62
   256
176
     0
 40
1.0
176
     0
 90
        2
176
     1
  1
strokes_ogs.tif
176
     1
290
     0
176
     1
 40
1.0
176
     1
 40
1.0
176
     1
  0
VISUALSTYLE
  5
3B
102
{ACAD_REACTORS
330
29
102
}
330
29
100
AcDbVisualStyle
  2
Sketchy
 70
    24
177
     3
291
     0
 70
    58
 90
        1
176
     1
 90
        2
176
     1
 90
        2
176
     1
 90
        0
176
     1
 40
0.6
176
     1
 40
30.0
176
     1
 62
     7
420
 16777215
176
     1
 90
        2
176
     1
 90
        2
176
     1
 62
     7
176
     1
 62
     7
176
     1
 90
        1
176
     1
 90
        1
176
     1
 40
40.0
176
     1
 90
       11
176
     1
 62
     7
176
     1
 40
1.0
176
     1
 90
        1
176
     1
 90
        6
176
     1
 90
        2
176
     1
 62
     7
176
     1
 90
        6
176
     1
 90
        0
176
     1
 90
        0
176
     1
290
     0
176
     1
 90
        1
176
     1
 40
0.0
176
     1
 90
        0
176
     1
290
     0
176
     1
290
     1
176
     1
290
     1
176
     1
290
     0
176
     1
290
     0
176
     1
290
     0
176
     1
290
     0
176
     1
290
     0
176
     1
290
     0
176
     1
 90
       50
176
     1
 40
0.0
176
     1
 40
1.0
176
     1
 90
        0
176
     1
 62
    18
420
        0
176
     1
 90
       50
176
     1
 90
        3
176
     1
 62
     5
420
      255
176
     1
290
     0
176
     1
 90
       50
176
     1
 90
       50
176
     1
 90
       50
176
     1
290
     0
176
     1
 90
       50
176
     1
 62
   256
176
     0
 40
1.0
176
     0
 90
        2
176
     1
  1
strokes_ogs.tif
176
     1
290
     0
176
     1
 40
1.0
176
     1
 40
1.0
176
     1
  0
VISUALSTYLE
  5
36
102
{ACAD_REACTORS
330
29
102
}
330
29
100
AcDbVisualStyle
  2
Thicken
 70
    13
177
     3
291
     1
 70
    58
 90
        2
176
     1
 90
        2
176
     1
 90
        0
176
     1
 90
        0
176
     1
 40
0.6
176
     1
 40
30.0
176
     1
 62
     7
420
 16777215
176
     1
 90
        1
176
     1
 90
        4
176
     1
 62
     7
176
     1
 62
   257
176
     1
 90
        1
176
     1
 90
        1
176
     1
 40
1.0
176
     1
 90
       12
176
     1
 62
     7
176
     1
 40
1.0
176
     1
 90
        1
176
     1
 90
        6
176
     1
 90
        2
176
     1
 62
     7
176
     1
 90
        5
176
     1
 90
        0
176
     1
 90
        0
176
     1
290
     0
176
     1
 90
        1
176
     1
 40
0.0
176
     1
 90
        0
176
     1
290
     0
176
     1
290
     1
176
     1
290
     1
176
     1
290
     0
176
     1
290
     0
176
     1
290
     0
176
     1
290
     0
176
     1
290
     0
176
     1
290
     0
176
     1
 90
       50
176
     1
 40
0.0
176
     1
 40
1.0
176
     1
 90
        0
176
     1
 62
    18
420
        0
176
     1
 90
       50
176
     1
 90
        3
176
     1
 62
     5
420
      255
176
     1
290
     0
176
     1
 90
       50
176
     1
 90
       50
176
     1
 90
       50
176
     1
290
     0
176
     1
 90
       50
176
     1
 62
   256
176
     0
 40
1.0
176
     0
 90
        2
176
     1
  1
strokes_ogs.tif
176
     1
290
     0
176
     1
 40
1.0
176
     1
 40
1.0
176
     1
  0
VISUALSTYLE
  5
30
102
{ACAD_REACTORS
330
29
102
}
330
29
100
AcDbVisualStyle
  2
Wireframe
 70
     5
177
     3
291
     0
 70
    58
 90
        0
176
     1
 90
        2
176
     1
 90
        0
176
     1
 90
        0
176
     1
 40
0.6
176
     1
 40
30.0
176
     1
 62
     7
420
 16777215
176
     1
 90
        1
176
     1
 90
        4
176
     1
 62
     7
176
     1
 62
   257
176
     1
 90
        1
176
     1
 90
        1
176
     1
 40
1.0
176
     1
 90
        0
176
     1
 62
   257
176
     1
 40
1.0
176
     1
 90
        1
176
     1
 90
        6
176
     1
 90
        2
176
     1
 62
     7
176
     1
 90
        3
176
     1
 90
        0
176
     1
 90
        0
176
     1
290
     0
176
     1
 90
        1
176
     1
 40
0.0
176
     1
 90
        0
176
     1
290
     0
176
     1
290
     1
176
     1
290
     1
176
     1
290
     0
176
     1
290
     0
176
     1
290
     0
176
     1
290
     0
176
     1
290
     0
176
     1
290
     0
176
     1
 90
       50
176
     1
 40
0.0
176
     1
 40
1.0
176
     1
 90
        0
176
     1
 62
    18
420
        0
176
     1
 90
       50
176
     1
 90
        3
176
     1
 62
     5
420
      255
176
     1
290
     0
176
     1
 90
       50
176
     1
 90
       50
176
     1
 90
       50
176
     1
290
     0
176
     1
 90
       50
176
     1
 62
   256
176
     0
 40
1.0
176
     0
 90
        2
176
     1
  1
strokes_ogs.tif
176
     1
290
     0
176
     1
 40
1.0
176
     1
 40
1.0
176
     1
  0
VISUALSTYLE
  5
3C
102
{ACAD_REACTORS
330
29
102
}
330
29
100
AcDbVisualStyle
  2
X-Ray
 70
    25
177
     3
291
     0
 70
    58
 90
        2
176
     1
 90
        2
176
     1
 90
        1
176
     1
 90
        1
176
     1
 40
0.5
176
     1
 40
30.0
176
     1
 62
     7
420
 16777215
176
     1
 90
        1
176
     1
 90
        0
176
     1
 62
     7
176
     1
 62
   257
176
     1
 90
        1
176
     1
 90
        1
176
     1
 40
1.0
176
     1
 90
        8
176
     1
 62
     7
176
     1
 40
1.0
176
     1
 90
        1
176
     1
 90
        6
176
     1
 90
        2
176
     1
 62
     7
176
     1
 90
        3
176
     1
 90
        0
176
     1
 90
        0
176
     1
290
     0
176
     1
 90
       13
176
     1
 40
0.0
176
     1
 90
        0
176
     1
290
     0
176
     1
290
     1
176
     1
290
     1
176
     1
290
     0
176
     1
290
     0
176
     1
290
     0
176
     1
290
     0
176
     1
290
     0
176
     1
290
     0
176
     1
 90
       50
176
     1
 40
0.0
176
     1
 40
1.0
176
     1
 90
        0
176
     1
 62
    18
420
        0
176
     1
 90
       50
176
     1
 90
        3
176
     1
 62
     5
420
      255
176
     1
290
     0
176
     1
 90
       50
176
     1
 90
       50
176
     1
 90
       50
176
     1
290
     0
176
     1
 90
       50
176
     1
 62
   256
176
     0
 40
1.0
176
     0
 90
        2
176
     1
  1
strokes_ogs.tif
176
     1
290
     0
176
     1
 40
1.0
176
     1
 40
1.0
176
     1
  0
DICTIONARYVAR
  5
24C
102
{ACAD_REACTORS
330
247
102
}
330
247
100
DictionaryVariables
280
     0
  1
1:1
  0
DICTIONARYVAR
  5
249
102
{ACAD_REACTORS
330
247
102
}
330
247
100
DictionaryVariables
280
     0
  1
STANDARD
  0
DICTIONARYVAR
  5
248
102
{ACAD_REACTORS
330
247
102
}
330
247
100
DictionaryVariables
280
     0
  1
STANDARD
  0
DICTIONARYVAR
  5
24A
102
{ACAD_REACTORS
330
247
102
}
330
247
100
DictionaryVariables
280
     0
  1
Imperial24
  0
DICTIONARYVAR
  5
24B
102
{ACAD_REACTORS
330
247
102
}
330
247
100
DictionaryVariables
280
     0
  1
Imperial24
  0
DICTIONARY
  5
1A
330
19
100
AcDbDictionary
280
     1
281
     1
  3
BUMPTILE
360
1C
  3
DIFFUSETILE
360
1B
  3
OPACITYTILE
360
1F
  3
REFLECTIONTILE
360
1E
  3
REFRACTIONTILE
360
20
  3
SPECULARTILE
360
1D
  0
DICTIONARY
  5
12
330
11
100
AcDbDictionary
280
     1
281
     1
  3
BUMPTILE
360
14
  3
DIFFUSETILE
360
13
  3
OPACITYTILE
360
17
  3
REFLECTIONTILE
360
16
  3
REFRACTIONTILE
360
18
  3
SPECULARTILE
360
15
  0
DICTIONARY
  5
22
330
21
100
AcDbDictionary
280
     1
281
     1
  3
BUMPTILE
360
24
  3
DIFFUSETILE
360
23
  3
OPACITYTILE
360
27
  3
REFLECTIONTILE
360
26
  3
REFRACTIONTILE
360
28
  3
SPECULARTILE
360
25
  0
DICTIONARY
  5
24D
330
65
100
AcDbDictionary
280
     1
281
     1
  3
ACAD_ROUNDTRIP_2008_TABLESTYLE_CELLSTYLEMAP
360
24E
  0
XRECORD
  5
1C
102
{ACAD_REACTORS
330
1A
102
}
330
1A
100
AcDbXrecord
280
     1
270
     1
271
     1
  0
XRECORD
  5
1B
102
{ACAD_REACTORS
330
1A
102
}
330
1A
100
AcDbXrecord
280
     1
270
     1
271
     1
  0
XRECORD
  5
1F
102
{ACAD_REACTORS
330
1A
102
}
330
1A
100
AcDbXrecord
280
     1
270
     1
271
     1
  0
XRECORD
  5
1E
102
{ACAD_REACTORS
330
1A
102
}
330
1A
100
AcDbXrecord
280
     1
270
     1
271
     1
  0
XRECORD
  5
20
102
{ACAD_REACTORS
330
1A
102
}
330
1A
100
AcDbXrecord
280
     1
270
     1
271
     1
  0
XRECORD
  5
1D
102
{ACAD_REACTORS
330
1A
102
}
330
1A
100
AcDbXrecord
280
     1
270
     1
271
     1
  0
XRECORD
  5
14
102
{ACAD_REACTORS
330
12
102
}
330
12
100
AcDbXrecord
280
     1
270
     1
271
     1
  0
XRECORD
  5
13
102
{ACAD_REACTORS
330
12
102
}
330
12
100
AcDbXrecord
280
     1
270
     1
271
     1
  0
XRECORD
  5
17
102
{ACAD_REACTORS
330
12
102
}
330
12
100
AcDbXrecord
280
     1
270
     1
271
     1
  0
XRECORD
  5
16
102
{ACAD_REACTORS
330
12
102
}
330
12
100
AcDbXrecord
280
     1
270
     1
271
     1
  0
XRECORD
  5
18
102
{ACAD_REACTORS
330
12
102
}
330
12
100
AcDbXrecord
280
     1
270
     1
271
     1
  0
XRECORD
  5
15
102
{ACAD_REACTORS
330
12
102
}
330
12
100
AcDbXrecord
280
     1
270
     1
271
     1
  0
XRECORD
  5
24
102
{ACAD_REACTORS
330
22
102
}
330
22
100
AcDbXrecord
280
     1
270
     1
271
     1
  0
XRECORD
  5
23
102
{ACAD_REACTORS
330
22
102
}
330
22
100
AcDbXrecord
280
     1
270
     1
271
     1
  0
XRECORD
  5
27
102
{ACAD_REACTORS
330
22
102
}
330
22
100
AcDbXrecord
280
     1
270
     1
271
     1
  0
XRECORD
  5
26
102
{ACAD_REACTORS
330
22
102
}
330
22
100
AcDbXrecord
280
     1
270
     1
271
     1
  0
XRECORD
  5
28
102
{ACAD_REACTORS
330
22
102
}
330
22
100
AcDbXrecord
280
     1
270
     1
271
     1
  0
XRECORD
  5
25
102
{ACAD_REACTORS
330
22
102
}
330
22
100
AcDbXrecord
280
     1
270
     1
271
     1
  0
CELLSTYLEMAP
  5
24E
102
{ACAD_REACTORS
330
24D
102
}
330
24D
100
AcDbCellStyleMap
 90
        3
300
CELLSTYLE
  1
TABLEFORMAT_BEGIN
 90
        5
170
     1
 91
        0
 92
    32768
 62
   257
 93
        1
300
CONTENTFORMAT
  1
CONTENTFORMAT_BEGIN
 90
        0
 91
        0
 92
      512
 93
        0
300

 40
0.0
140
1.0
 94
        5
 62
     0
340
55
144
0.25
309
CONTENTFORMAT_END
171
     0
 94
        0
309
TABLEFORMAT_END
  1
CELLSTYLE_BEGIN
 90
        1
 91
        1
300
_TITLE
309
CELLSTYLE_END
300
CELLSTYLE
  1
TABLEFORMAT_BEGIN
 90
        5
170
     1
 91
        0
 92
        0
 62
   257
 93
        1
300
CONTENTFORMAT
  1
CONTENTFORMAT_BEGIN
 90
        0
 91
        0
 92
      512
 93
        0
300

 40
0.0
140
1.0
 94
        5
 62
     0
340
55
144
0.18
309
CONTENTFORMAT_END
171
     0
 94
        0
309
TABLEFORMAT_END
  1
CELLSTYLE_BEGIN
 90
        2
 91
        1
300
_HEADER
309
CELLSTYLE_END
300
CELLSTYLE
  1
TABLEFORMAT_BEGIN
 90
        5
170
     1
 91
        0
 92
        0
 62
   257
 93
        1
300
CONTENTFORMAT
  1
CONTENTFORMAT_BEGIN
 90
        0
 91
        0
 92
      512
 93
        0
300

 40
0.0
140
1.0
 94
        2
 62
     0
340
55
144
0.18
309
CONTENTFORMAT_END
171
     0
 94
        0
309
TABLEFORMAT_END
  1
CELLSTYLE_BEGIN
 90
        3
 91
        2
300
_DATA
309
CELLSTYLE_END
  0
ENDSEC
  0
EOF
