  0
SECTION
  2
HEADER
  9
$ACADVER
  1
AC1032
  9
$ACADMAINTVER
 90
      228
  9
$DWGCODEPAGE
  3
ANSI_932
  9
$REQUIREDVERSIONS
160
                 0
  9
$INSBASE
 10
0.0
 20
0.0
 30
0.0
  9
$EXTMIN
 10
1.000000000000000E+20
 20
1.000000000000000E+20
 30
1.000000000000000E+20
  9
$EXTMAX
 10
-1.000000000000000E+20
 20
-1.000000000000000E+20
 30
-1.000000000000000E+20
  9
$LIMMIN
 10
0.0
 20
0.0
  9
$LIMMAX
 10
12.0
 20
9.0
  9
$ORTHOMODE
 70
     0
  9
$REGENMODE
 70
     1
  9
$FILLMODE
 70
     1
  9
$QTEXTMODE
 70
     0
  9
$MIRRTEXT
 70
     0
  9
$LTSCALE
 40
1.0
  9
$ATTMODE
 70
     1
  9
$TEXTSIZE
 40
0.2
  9
$TRACEWID
 40
0.05
  9
$TEXTSTYLE
  7
Standard
  9
$CLAYER
  8
0
  9
$CELTYPE
  6
ByLayer
  9
$CECOLOR
 62
   256
  9
$CELTSCALE
 40
1.0
  9
$DISPSILH
 70
     0
  9
$DIMSCALE
 40
1.0
  9
$DIMASZ
 40
0.18
  9
$DIMEXO
 40
0.0625
  9
$DIMDLI
 40
0.38
  9
$DIMRND
 40
0.0
  9
$DIMDLE
 40
0.0
  9
$DIMEXE
 40
0.18
  9
$DIMTP
 40
0.0
  9
$DIMTM
 40
0.0
  9
$DIMTXT
 40
0.18
  9
$DIMCEN
 40
0.09
  9
$DIMTSZ
 40
0.0
  9
$DIMTOL
 70
     0
  9
$DIMLIM
 70
     0
  9
$DIMTIH
 70
     1
  9
$DIMTOH
 70
     1
  9
$DIMSE1
 70
     0
  9
$DIMSE2
 70
     0
  9
$DIMTAD
 70
     0
  9
$DIMZIN
 70
     0
  9
$DIMBLK
  1

  9
$DIMASO
 70
     1
  9
$DIMSHO
 70
     1
  9
$DIMPOST
  1

  9
$DIMAPOST
  1

  9
$DIMALT
 70
     0
  9
$DIMALTD
 70
     2
  9
$DIMALTF
 40
25.4
  9
$DIMLFAC
 40
1.0
  9
$DIMTOFL
 70
     0
  9
$DIMTVP
 40
0.0
  9
$DIMTIX
 70
     0
  9
$DIMSOXD
 70
     0
  9
$DIMSAH
 70
     0
  9
$DIMBLK1
  1

  9
$DIMBLK2
  1

  9
$DIMSTYLE
  2
Standard
  9
$DIMCLRD
 70
     0
  9
$DIMCLRE
 70
     0
  9
$DIMCLRT
 70
     0
  9
$DIMTFAC
 40
1.0
  9
$DIMGAP
 40
0.09
  9
$DIMJUST
 70
     0
  9
$DIMSD1
 70
     0
  9
$DIMSD2
 70
     0
  9
$DIMTOLJ
 70
     1
  9
$DIMTZIN
 70
     0
  9
$DIMALTZ
 70
     0
  9
$DIMALTTZ
 70
     0
  9
$DIMUPT
 70
     0
  9
$DIMDEC
 70
     4
  9
$DIMTDEC
 70
     4
  9
$DIMALTU
 70
     2
  9
$DIMALTTD
 70
     2
  9
$DIMTXSTY
  7
Standard
  9
$DIMAUNIT
 70
     0
  9
$DIMADEC
 70
     0
  9
$DIMALTRND
 40
0.0
  9
$DIMAZIN
 70
     0
  9
$DIMDSEP
 70
    46
  9
$DIMATFIT
 70
     3
  9
$DIMFRAC
 70
     0
  9
$DIMLDRBLK
  1

  9
$DIMLUNIT
 70
     2
  9
$DIMLWD
 70
    -2
  9
$DIMLWE
 70
    -2
  9
$DIMTMOVE
 70
     0
  9
$DIMFXL
 40
1.0
  9
$DIMFXLON
 70
     0
  9
$DIMJOGANG
 40
0.7853981633974483
  9
$DIMTFILL
 70
     0
  9
$DIMTFILLCLR
 70
     0
  9
$DIMARCSYM
 70
     0
  9
$DIMLTYPE
  6

  9
$DIMLTEX1
  6

  9
$DIMLTEX2
  6

  9
$DIMTXTDIRECTION
 70
     0
  9
$LUNITS
 70
     2
  9
$LUPREC
 70
     4
  9
$SKETCHINC
 40
0.1
  9
$FILLETRAD
 40
0.0
  9
$AUNITS
 70
     0
  9
$AUPREC
 70
     0
  9
$MENU
  1
.
  9
$ELEVATION
 40
0.0
  9
$PELEVATION
 40
0.0
  9
$THICKNESS
 40
0.0
  9
$LIMCHECK
 70
     0
  9
$CHAMFERA
 40
0.0
  9
$CHAMFERB
 40
0.0
  9
$CHAMFERC
 40
0.0
  9
$CHAMFERD
 40
0.0
  9
$SKPOLY
 70
     0
  9
$TDCREATE
 40
2460363.792696759
  9
$TDUCREATE
 40
2460363.417696759
  9
$TDUPDATE
 40
2460363.792696759
  9
$TDUUPDATE
 40
2460363.417696759
  9
$TDINDWG
 40
0.0000000000
  9
$TDUSRTIMER
 40
0.0000000000
  9
$USRTIMER
 70
     1
  9
$ANGBASE
 50
0.0
  9
$ANGDIR
 70
     0
  9
$PDMODE
 70
     0
  9
$PDSIZE
 40
0.0
  9
$PLINEWID
 40
0.0
  9
$SPLFRAME
 70
     0
  9
$SPLINETYPE
 70
     6
  9
$SPLINESEGS
 70
     8
  9
$HANDSEED
  5
260
  9
$SURFTAB1
 70
     6
  9
$SURFTAB2
 70
     6
  9
$SURFTYPE
 70
     6
  9
$SURFU
 70
     6
  9
$SURFV
 70
     6
  9
$UCSBASE
  2

  9
$UCSNAME
  2

  9
$UCSORG
 10
0.0
 20
0.0
 30
0.0
  9
$UCSXDIR
 10
1.0
 20
0.0
 30
0.0
  9
$UCSYDIR
 10
0.0
 20
1.0
 30
0.0
  9
$UCSORTHOREF
  2

  9
$UCSORTHOVIEW
 70
     0
  9
$UCSORGTOP
 10
0.0
 20
0.0
 30
0.0
  9
$UCSORGBOTTOM
 10
0.0
 20
0.0
 30
0.0
  9
$UCSORGLEFT
 10
0.0
 20
0.0
 30
0.0
  9
$UCSORGRIGHT
 10
0.0
 20
0.0
 30
0.0
  9
$UCSORGFRONT
 10
0.0
 20
0.0
 30
0.0
  9
$UCSORGBACK
 10
0.0
 20
0.0
 30
0.0
  9
$PUCSBASE
  2

  9
$PUCSNAME
  2

  9
$PUCSORG
 10
0.0
 20
0.0
 30
0.0
  9
$PUCSXDIR
 10
1.0
 20
0.0
 30
0.0
  9
$PUCSYDIR
 10
0.0
 20
1.0
 30
0.0
  9
$PUCSORTHOREF
  2

  9
$PUCSORTHOVIEW
 70
     0
  9
$PUCSORGTOP
 10
0.0
 20
0.0
 30
0.0
  9
$PUCSORGBOTTOM
 10
0.0
 20
0.0
 30
0.0
  9
$PUCSORGLEFT
 10
0.0
 20
0.0
 30
0.0
  9
$PUCSORGRIGHT
 10
0.0
 20
0.0
 30
0.0
  9
$PUCSORGFRONT
 10
0.0
 20
0.0
 30
0.0
  9
$PUCSORGBACK
 10
0.0
 20
0.0
 30
0.0
  9
$USERI1
 70
     0
  9
$USERI2
 70
     0
  9
$USERI3
 70
     0
  9
$USERI4
 70
     0
  9
$USERI5
 70
     0
  9
$USERR1
 40
0.0
  9
$USERR2
 40
0.0
  9
$USERR3
 40
0.0
  9
$USERR4
 40
0.0
  9
$USERR5
 40
0.0
  9
$WORLDVIEW
 70
     1
  9
$SHADEDGE
 70
     3
  9
$SHADEDIF
 70
    70
  9
$TILEMODE
 70
     1
  9
$MAXACTVP
 70
    64
  9
$PINSBASE
 10
0.0
 20
0.0
 30
0.0
  9
$PLIMCHECK
 70
     0
  9
$PEXTMIN
 10
1.000000000000000E+20
 20
1.000000000000000E+20
 30
1.000000000000000E+20
  9
$PEXTMAX
 10
-1.000000000000000E+20
 20
-1.000000000000000E+20
 30
-1.000000000000000E+20
  9
$PLIMMIN
 10
0.0
 20
0.0
  9
$PLIMMAX
 10
12.0
 20
9.0
  9
$UNITMODE
 70
     0
  9
$VISRETAIN
 70
     1
  9
$PLINEGEN
 70
     0
  9
$PSLTSCALE
 70
     1
  9
$TREEDEPTH
 70
  3020
  9
$CMLSTYLE
  2
Standard
  9
$CMLJUST
 70
     0
  9
$CMLSCALE
 40
1.0
  9
$PROXYGRAPHICS
 70
     1
  9
$MEASUREMENT
 70
     0
  9
$CELWEIGHT
370
    -1
  9
$ENDCAPS
280
     0
  9
$JOINSTYLE
280
     0
  9
$LWDISPLAY
290
     1
  9
$INSUNITS
 70
     4
  9
$HYPERLINKBASE
  1

  9
$STYLESHEET
  1

  9
$XEDIT
290
     1
  9
$CEPSNTYPE
380
     0
  9
$PSTYLEMODE
290
     1
  9
$FINGERPRINTGUID
  2
{EBD402DB-CF5A-0E46-8950-DE094F3524CE}
  9
$VERSIONGUID
  2
{0BE65256-0327-3841-845A-7AD8F6C78872}
  9
$EXTNAMES
290
     1
  9
$PSVPSCALE
 40
0.0
  9
$OLESTARTUP
290
     0
  9
$SORTENTS
280
   127
  9
$INDEXCTL
280
     0
  9
$HIDETEXT
280
     1
  9
$XCLIPFRAME
280
     2
  9
$HALOGAP
280
     0
  9
$OBSCOLOR
 70
   257
  9
$OBSLTYPE
280
     0
  9
$INTERSECTIONDISPLAY
280
     0
  9
$INTERSECTIONCOLOR
 70
   257
  9
$DIMASSOC
280
     2
  9
$PROJECTNAME
  1

  9
$CAMERADISPLAY
290
     0
  9
$LENSLENGTH
 40
50.0
  9
$CAMERAHEIGHT
 40
0.0
  9
$STEPSPERSEC
 40
2.0
  9
$STEPSIZE
 40
6.0
  9
$3DDWFPREC
 40
2.0
  9
$PSOLWIDTH
 40
0.25
  9
$PSOLHEIGHT
 40
4.0
  9
$LOFTANG1
 40
1.570796326794896
  9
$LOFTANG2
 40
1.570796326794896
  9
$LOFTMAG1
 40
0.0
  9
$LOFTMAG2
 40
0.0
  9
$LOFTPARAM
 70
     7
  9
$LOFTNORMALS
280
     1
  9
$LATITUDE
 40
37.795
  9
$LONGITUDE
 40
-122.394
  9
$NORTHDIRECTION
 40
0.0
  9
$TIMEZONE
 70
 -8000
  9
$LIGHTGLYPHDISPLAY
280
     1
  9
$TILEMODELIGHTSYNCH
280
     1
  9
$CMATERIAL
347
11
  9
$SOLIDHIST
280
     0
  9
$SHOWHIST
280
     1
  9
$DWFFRAME
280
     2
  9
$DGNFRAME
280
     0
  9
$REALWORLDSCALE
290
     1
  9
$INTERFERECOLOR
 62
     1
  9
$INTERFEREOBJVS
345
33
  9
$INTERFEREVPVS
346
30
  9
$CSHADOW
280
     0
  9
$SHADOWPLANELOCATION
 40
0.0
  0
ENDSEC
  0
SECTION
  2
CLASSES
  0
CLASS
  1
ACDBDICTIONARYWDFLT
  2
AcDbDictionaryWithDefault
  3
ObjectDBX Classes
 90
        0
 91
        1
280
     0
281
     0
  0
CLASS
  1
MATERIAL
  2
AcDbMaterial
  3
ObjectDBX Classes
 90
     1153
 91
        3
280
     0
281
     0
  0
CLASS
  1
VISUALSTYLE
  2
AcDbVisualStyle
  3
ObjectDBX Classes
 90
     4095
 91
       24
280
     0
281
     0
  0
CLASS
  1
SCALE
  2
AcDbScale
  3
ObjectDBX Classes
 90
     1153
 91
       17
280
     0
281
     0
  0
CLASS
  1
TABLESTYLE
  2
AcDbTableStyle
  3
ObjectDBX Classes
 90
     4095
 91
        1
280
     0
281
     0
  0
CLASS
  1
MLEADERSTYLE
  2
AcDbMLeaderStyle
  3
ACDB_MLEADERSTYLE_CLASS
 90
     4095
 91
        1
280
     0
281
     0
  0
CLASS
  1
ACDBSECTIONVIEWSTYLE
  2
AcDbSectionViewStyle
  3
ObjectDBX Classes
 90
     1025
 91
        1
280
     0
281
     0
  0
CLASS
  1
ACDBDETAILVIEWSTYLE
  2
AcDbDetailViewStyle
  3
ObjectDBX Classes
 90
     1025
 91
        1
280
     0
281
     0
  0
CLASS
  1
DICTIONARYVAR
  2
AcDbDictionaryVar
  3
ObjectDBX Classes
 90
        0
 91
        5
280
     0
281
     0
  0
CLASS
  1
CELLSTYLEMAP
  2
AcDbCellStyleMap
  3
ObjectDBX Classes
 90
     1152
 91
        1
280
     0
281
     0
  0
ENDSEC
  0
SECTION
  2
TABLES
  0
TABLE
  2
VPORT
  5
8
330
0
100
AcDbSymbolTable
 70
     1
  0
VPORT
  5
57
330
8
100
AcDbSymbolTableRecord
100
AcDbViewportTableRecord
  2
*Active
 70
     0
 10
0.0
 20
0.0
 11
1.0
 21
1.0
 12
0.0
 22
0.0
 13
0.0
 23
0.0
 14
1.0
 24
1.0
 15
0.0
 25
0.0
 16
0.0
 26
0.0
 36
1.0
 17
338.666666582
 27
190.4999999523751
 37
0.0
 40
388.8749999028449
 41
1.776612021857632
 42
50.0
 43
0.0
 44
0.0
 50
0.0
 51
0.0
 71
     0
 72
   100
 73
     1
 74
     1
 75
     0
 76
     0
 77
     0
 78
     0
281
     0
 65
     1
110
0.0
120
0.0
130
0.0
111
1.0
121
0.0
131
0.0
112
0.0
122
1.0
132
0.0
 79
     0
146
0.0
 60
     3
 61
     5
292
     1
282
     1
141
0.0
142
0.0
 63
   250
421
  3355443
  0
ENDTAB
  0
TABLE
  2
LTYPE
  5
5
330
0
100
AcDbSymbolTable
 70
     3
  0
LTYPE
  5
5B
330
5
100
AcDbSymbolTableRecord
100
AcDbLinetypeTableRecord
  2
ByBlock
 70
     0
  3

 72
    65
 73
     0
 40
0.0
  0
LTYPE
  5
5C
330
5
100
AcDbSymbolTableRecord
100
AcDbLinetypeTableRecord
  2
ByLayer
 70
     0
  3

 72
    65
 73
     0
 40
0.0
  0
LTYPE
  5
5D
330
5
100
AcDbSymbolTableRecord
100
AcDbLinetypeTableRecord
  2
Continuous
 70
     0
  3
Solid line
 72
    65
 73
     0
 40
0.0
  0
LTYPE
  5
254
330
5
100
AcDbSymbolTableRecord
100
AcDbLinetypeTableRecord
  2
AI-Linetype-0
 70
     0
  3
Adobe Illustrator Linetype No. 0
 72
    65
 73
     4
 40
36.28571345958618
 49
22.67857103840452
 74
     0
 49
-4.535714140393883
 74
     0
 49
4.535714140393883
 74
     0
 49
-4.535714140393883
 74
     0
  0
LTYPE
  5
256
330
5
100
AcDbSymbolTableRecord
100
AcDbLinetypeTableRecord
  2
AI-Linetype-1
 70
     0
  3
Adobe Illustrator Linetype No. 1
 72
    65
 73
     4
 40
36.28571345958618
 49
22.67857103840452
 74
     0
 49
-4.535714140393883
 74
     0
 49
4.535714140393883
 74
     0
 49
-4.535714140393883
 74
     0
  0
ENDTAB
  0
TABLE
  2
LAYER
  5
2
330
0
100
AcDbSymbolTable
 70
     6
  0
LAYER
  5
54
330
2
100
AcDbSymbolTableRecord
100
AcDbLayerTableRecord
  2
0
 70
     0
 62
     7
  6
Continuous
370
    -3
390
F
347
21
348
0
  0
LAYER
  5
78
330
2
100
AcDbSymbolTableRecord
100
AcDbLayerTableRecord
  2
FLAME
 70
     0
 62
     7
  6
Continuous
370
     0
390
F
347
21
348
0
  0
LAYER
  5
80
330
2
100
AcDbSymbolTableRecord
100
AcDbLayerTableRecord
  2
SPEC
 70
     0
 62
     7
  6
Continuous
370
     0
390
F
347
21
348
0
  0
LAYER
  5
94
330
2
100
AcDbSymbolTableRecord
100
AcDbLayerTableRecord
  2
HONTAI
 70
     0
 62
     7
  6
Continuous
370
     0
390
F
347
21
348
0
  0
LAYER
  5
20D
330
2
100
AcDbSymbolTableRecord
100
AcDbLayerTableRecord
  2
1
 70
     0
 62
     7
  6
Continuous
370
     0
390
F
347
21
348
0
  0
LAYER
  5
252
330
2
100
AcDbSymbolTableRecord
100
AcDbLayerTableRecord
  2
中心線
 70
     0
 62
     7
  6
Continuous
370
     0
390
F
347
21
348
0
  0
ENDTAB
  0
TABLE
  2
STYLE
  5
3
330
0
100
AcDbSymbolTable
 70
     2
  0
STYLE
  5
55
330
3
100
AcDbSymbolTableRecord
100
AcDbTextStyleTableRecord
  2
Standard
 70
     0
 40
0.0
 41
1.0
 50
0.0
 71
     0
 42
0.2
  3
txt
  4

  0
STYLE
  5
5A
330
3
100
AcDbSymbolTableRecord
100
AcDbTextStyleTableRecord
  2
Annotative
 70
     0
 40
0.0
 41
1.0
 50
0.0
 71
     0
 42
0.2
  3
txt
  4

1001
AcadAnnotative
1000
AnnotativeData
1002
{
1070
     1
1070
     1
1002
}
  0
ENDTAB
  0
TABLE
  2
VIEW
  5
6
330
0
100
AcDbSymbolTable
 70
     0
  0
ENDTAB
  0
TABLE
  2
UCS
  5
7
330
0
100
AcDbSymbolTable
 70
     0
  0
ENDTAB
  0
TABLE
  2
APPID
  5
9
330
0
100
AcDbSymbolTable
 70
     2
  0
APPID
  5
56
330
9
100
AcDbSymbolTableRecord
100
AcDbRegAppTableRecord
  2
ACAD
 70
     0
  0
APPID
  5
5E
330
9
100
AcDbSymbolTableRecord
100
AcDbRegAppTableRecord
  2
AcadAnnotative
 70
     0
  0
ENDTAB
  0
TABLE
  2
DIMSTYLE
  5
A
330
0
100
AcDbSymbolTable
 70
     2
100
AcDbDimStyleTable
 71
     0
  0
DIMSTYLE
105
58
330
A
100
AcDbSymbolTableRecord
100
AcDbDimStyleTableRecord
  2
Standard
 70
     0
340
55
  0
DIMSTYLE
105
59
330
A
100
AcDbSymbolTableRecord
100
AcDbDimStyleTableRecord
  2
Annotative
 70
     0
340
55
1001
AcadAnnotative
1000
AnnotativeData
1002
{
1070
     1
1070
     1
1002
}
  0
ENDTAB
  0
TABLE
  2
BLOCK_RECORD
  5
1
330
0
100
AcDbSymbolTable
 70
     2
  0
BLOCK_RECORD
  5
70
330
1
100
AcDbSymbolTableRecord
100
AcDbBlockTableRecord
  2
*Model_Space
340
73
 70
     0
280
     1
281
     0
  0
BLOCK_RECORD
  5
6C
330
1
100
AcDbSymbolTableRecord
100
AcDbBlockTableRecord
  2
*Paper_Space
340
6F
 70
     0
280
     1
281
     0
  0
BLOCK_RECORD
  5
74
330
1
100
AcDbSymbolTableRecord
100
AcDbBlockTableRecord
  2
*Paper_Space0
340
77
 70
     0
280
     1
281
     0
  0
BLOCK_RECORD
  5
82
330
1
100
AcDbSymbolTableRecord
100
AcDbBlockTableRecord
  2
Block_0
340
0
102
{BLKREFS
331
83
102
}
 70
     0
280
     1
281
     0
  0
ENDTAB
  0
ENDSEC
  0
SECTION
  2
BLOCKS
  0
BLOCK
  5
71
330
70
100
AcDbEntity
  8
0
100
AcDbBlockBegin
  2
*Model_Space
 70
     0
 10
0.0
 20
0.0
 30
0.0
  3
*Model_Space
  1

  0
ENDBLK
  5
72
330
70
100
AcDbEntity
  8
0
100
AcDbBlockEnd
  0
BLOCK
  5
6D
330
6C
100
AcDbEntity
 67
     1
  8
0
100
AcDbBlockBegin
  2
*Paper_Space
 70
     0
 10
0.0
 20
0.0
 30
0.0
  3
*Paper_Space
  1

  0
ENDBLK
  5
6E
330
6C
100
AcDbEntity
 67
     1
  8
0
100
AcDbBlockEnd
  0
BLOCK
  5
75
330
74
100
AcDbEntity
 67
     1
  8
0
100
AcDbBlockBegin
  2
*Paper_Space0
 70
     0
 10
0.0
 20
0.0
 30
0.0
  3
*Paper_Space0
  1

  0
ENDBLK
  5
76
330
74
100
AcDbEntity
 67
     1
  8
0
100
AcDbBlockEnd
  0
BLOCK
  5
84
330
82
100
AcDbEntity
  8
0
100
AcDbBlockBegin
  2
Block_0
 70
     0
 10
0.0
 20
0.0
 30
0.0
  3
Block_0
  1

  0
MTEXT
  5
86
330
82
100
AcDbEntity
  8
SPEC
100
AcDbMText
 10
187.6349293557605
 20
24.28965110171568
 30
0.0
 40
0.2
 41
0.0
 46
0.0
 71
     7
 72
     1
  1
\C9;\c12632256;\FKozuka Gothic Pr6N R|b0|i0|c128;\H7.493000;\W1.000000;E26 LED
 73
     1
 44
1.0
  0
MTEXT
  5
87
330
82
100
AcDbEntity
  8
SPEC
100
AcDbMText
 10
240.0859267588262
 20
24.28965110171568
 30
0.0
 40
0.2
 41
0.0
 46
0.0
 71
     7
 72
     1
  1
\C9;\c12632256;\FMS PGothic|b0|i0|c128;\H7.493000;\W1.000000;電球
 73
     1
 44
1.0
  0
MTEXT
  5
88
330
82
100
AcDbEntity
  8
SPEC
100
AcDbMText
 10
261.8837564449457
 20
24.28965110171568
 30
0.0
 40
0.2
 41
0.0
 46
0.0
 71
     7
 72
     1
  1
\C9;\c12632256;\FKozuka Gothic Pr6N R|b0|i0|c128;\H7.493000;\W1.000000;(100W
 73
     1
 44
1.0
  0
MTEXT
  5
89
330
82
100
AcDbEntity
  8
SPEC
100
AcDbMText
 10
294.3534153520301
 20
24.28965110171568
 30
0.0
 40
0.2
 41
0.0
 46
0.0
 71
     7
 72
     1
  1
\C9;\c12632256;\FMS PGothic|b0|i0|c128;\H7.493000;\W1.000000;相当
 73
     1
 44
1.0
  0
MTEXT
  5
8A
330
82
100
AcDbEntity
  8
SPEC
100
AcDbMText
 10
316.1512235063029
 20
24.28965110171568
 30
0.0
 40
0.2
 41
0.0
 46
0.0
 71
     7
 72
     1
  1
\C9;\c12632256;\FKozuka Gothic Pr6N R|b0|i0|c128;\H7.493000;\W1.000000;,
 73
     1
 44
1.0
  0
MTEXT
  5
8B
330
82
100
AcDbEntity
  8
SPEC
100
AcDbMText
 10
319.8977433146653
 20
24.28965110171568
 30
0.0
 40
0.2
 41
0.0
 46
0.0
 71
     7
 72
     1
  1
\C9;\c12632256;\FMS PGothic|b0|i0|c128;\H7.493000;\W1.000000;電球色
 73
     1
 44
1.0
  0
MTEXT
  5
8C
330
82
100
AcDbEntity
  8
SPEC
100
AcDbMText
 10
352.5944555460745
 20
24.28965110171568
 30
0.0
 40
0.2
 41
0.0
 46
0.0
 71
     7
 72
     1
  1
\C9;\c12632256;\FKozuka Gothic Pr6N R|b0|i0|c128;\H7.493000;\W1.000000;,
 73
     1
 44
1.0
  0
MTEXT
  5
8D
330
82
100
AcDbEntity
  8
SPEC
100
AcDbMText
 10
356.3409538225901
 20
24.28965110171568
 30
0.0
 40
0.2
 41
0.0
 46
0.0
 71
     7
 72
     1
  1
\C9;\c12632256;\FMS PGothic|b0|i0|c128;\H7.493000;\W1.000000;全方向
 73
     1
 44
1.0
  0
MTEXT
  5
8E
330
82
100
AcDbEntity
  8
SPEC
100
AcDbMText
 10
389.0377091176928
 20
24.28965110171568
 30
0.0
 40
0.2
 41
0.0
 46
0.0
 71
     7
 72
     1
  1
\C9;\c12632256;\FKozuka Gothic Pr6N R|b0|i0|c128;\H7.493000;\W1.000000;/
 73
     1
 44
1.0
  0
MTEXT
  5
8F
330
82
100
AcDbEntity
  8
SPEC
100
AcDbMText
 10
396.5307056707241
 20
24.28965110171568
 30
0.0
 40
0.2
 41
0.0
 46
0.0
 71
     7
 72
     1
  1
\C9;\c12632256;\FMS PGothic|b0|i0|c128;\H7.493000;\W1.000000;広配光ﾀｲﾌﾟ
 73
     1
 44
1.0
  0
MTEXT
  5
90
330
82
100
AcDbEntity
  8
SPEC
100
AcDbMText
 10
449.6203161175211
 20
24.28965110171568
 30
0.0
 40
0.2
 41
0.0
 46
0.0
 71
     7
 72
     1
  1
\C9;\c12632256;\FKozuka Gothic Pr6N R|b0|i0|c128;\H7.493000;\W1.000000;)
 73
     1
 44
1.0
  0
MTEXT
  5
91
330
82
100
AcDbEntity
  8
SPEC
100
AcDbMText
 10
454.6156184437463
 20
24.28965110171568
 30
0.0
 40
0.2
 41
0.0
 46
0.0
 71
     7
 72
     1
  1
\C9;\c12632256;\FMS PGothic|b0|i0|c128;\H7.493000;\W1.000000;ｘ
 73
     1
 44
1.0
  0
MTEXT
  5
92
330
82
100
AcDbEntity
  8
SPEC
100
AcDbMText
 10
460.2779773833029
 20
24.28965110171568
 30
0.0
 40
0.2
 41
0.0
 46
0.0
 71
     7
 72
     1
  1
\C9;\c12632256;\FKozuka Gothic Pr6N R|b0|i0|c128;\H7.493000;\W1.000000;1
 73
     1
 44
1.0
  0
MTEXT
  5
93
330
82
100
AcDbEntity
  8
SPEC
100
AcDbMText
 10
465.273279709528
 20
24.28965110171568
 30
0.0
 40
0.2
 41
0.0
 46
0.0
 71
     7
 72
     1
  1
\C9;\c12632256;\FMS PGothic|b0|i0|c128;\H7.493000;\W1.000000;灯
 73
     1
 44
1.0
  0
ENDBLK
  5
85
330
82
100
AcDbEntity
  8
0
100
AcDbBlockEnd
  0
ENDSEC
  0
SECTION
  2
ENTITIES
  0
LINE
  5
79
330
70
100
AcDbEntity
  8
FLAME
 62
     2
420
 16776960
370
    25
100
AcDbLine
 10
501.9523808268935
 20
380.9999999047501
 30
0.0
 11
501.9523808268935
 21
0.0
 31
0.0
  0
LINE
  5
7A
330
70
100
AcDbEntity
  8
FLAME
 62
     2
420
 16776960
370
    25
100
AcDbLine
 10
175.3809523371077
 20
0.0
 30
0.0
 11
175.3809523371077
 21
380.9999999047501
 31
0.0
  0
LINE
  5
7B
330
70
100
AcDbEntity
  8
FLAME
 62
     2
420
 16776960
370
    25
100
AcDbLine
 10
501.9523808268935
 20
0.7055555553791667
 30
0.0
 11
175.3809523371077
 21
0.7055555553791667
 31
0.0
  0
LINE
  5
7C
330
70
100
AcDbEntity
  8
FLAME
 62
     2
420
 16776960
370
    25
100
AcDbLine
 10
501.9523808268935
 20
18.14285713832436
 30
0.0
 11
175.3809523371077
 21
18.14285713832436
 31
0.0
  0
LINE
  5
7D
330
70
100
AcDbEntity
  8
FLAME
 62
     2
420
 16776960
370
    25
100
AcDbLine
 10
501.9523808268935
 20
36.28571427663846
 30
0.0
 11
175.3809523371077
 21
36.28571427663846
 31
0.0
  0
LINE
  5
7E
330
70
100
AcDbEntity
  8
FLAME
 62
     2
420
 16776960
370
    25
100
AcDbLine
 10
501.9523808268935
 20
54.42857141496283
 30
0.0
 11
175.3809523371077
 21
54.42857141496283
 31
0.0
  0
LINE
  5
7F
330
70
100
AcDbEntity
  8
FLAME
 62
     2
420
 16776960
370
    25
100
AcDbLine
 10
501.9523808268935
 20
379.9416665716813
 30
0.0
 11
175.3809523371077
 21
379.9416665716813
 31
0.0
  0
MTEXT
  5
81
330
70
100
AcDbEntity
  8
SPEC
100
AcDbMText
 10
187.6349293557605
 20
41.1836753530328
 30
0.0
 40
0.2
 41
0.0
 46
0.0
 71
     7
 72
     1
  1
\C9;\c12632256;\FKozuka Gothic Pr6N R|b0|i0|c128;\H9.071429;\W1.000000;KF328LO / KF328SO
 73
     1
 44
1.0
  0
INSERT
  5
83
330
70
100
AcDbEntity
  8
SPEC
100
AcDbBlockReference
  2
Block_0
 10
0.0
 20
0.0
 30
0.0
  0
LINE
  5
95
330
70
100
AcDbEntity
  8
HONTAI
 62
     2
420
 16776960
370
    25
100
AcDbLine
 10
323.6490892302455
 20
304.2373053501355
 30
0.0
 11
323.6490892302416
 21
73.04070061319286
 31
0.0
  0
LINE
  5
96
330
70
100
AcDbEntity
  8
HONTAI
 62
     2
420
 16776960
370
    25
100
AcDbLine
 10
323.6490892302416
 20
92.60096846544273
 30
0.0
 11
327.3910535150212
 21
92.60096846544273
 31
0.0
  0
LINE
  5
97
330
70
100
AcDbEntity
  8
HONTAI
 62
     2
420
 16776960
370
    25
100
AcDbLine
 10
298.5779285222234
 20
71.88354385088533
 30
0.0
 11
298.5779285222234
 21
70.77761012867745
 31
0.0
  0
SPLINE
  5
98
330
70
100
AcDbEntity
  8
HONTAI
 62
     2
420
 16776960
370
    25
100
AcDbSpline
210
0.0
220
0.0
230
1.0
 70
     8
 71
     3
 72
     8
 73
     4
 74
     0
 42
0.0000000001
 43
0.0000000001
 40
0.0
 40
0.0
 40
0.0
 40
0.0
 40
1.0
 40
1.0
 40
1.0
 40
1.0
 10
300.5207425427488
 20
74.90590621269523
 30
0.0
 10
299.4842645175738
 20
74.20927465686988
 30
0.0
 10
298.7813035766833
 20
73.11570488275691
 30
0.0
 10
298.5779285222231
 20
71.88354385088405
 30
0.0
  0
LINE
  5
99
330
70
100
AcDbEntity
  8
HONTAI
 62
     9
420
 12632256
370
    25
100
AcDbLine
 10
313.2736428042642
 20
366.052760251439
 30
0.0
 11
307.9947190829315
 21
364.6240102518003
 31
0.0
  0
LINE
  5
9A
330
70
100
AcDbEntity
  8
HONTAI
 62
     9
420
 12632256
370
    25
100
AcDbLine
 10
307.9947190829315
 20
364.6240102518003
 30
0.0
 11
309.0152547969626
 21
360.0068865602141
 31
0.0
  0
LINE
  5
9B
330
70
100
AcDbEntity
  8
HONTAI
 62
     9
420
 12632256
370
    25
100
AcDbLine
 10
309.0152547969626
 20
360.0068865602141
 30
0.0
 11
310.0357905109925
 21
359.1674409157002
 31
0.0
  0
LINE
  5
9C
330
70
100
AcDbEntity
  8
HONTAI
 62
     9
420
 12632256
370
    25
100
AcDbLine
 10
310.0357905109925
 20
359.1674409157002
 30
0.0
 11
282.657571383347
 21
309.8524528733971
 31
0.0
  0
LINE
  5
9D
330
70
100
AcDbEntity
  8
HONTAI
 62
     9
420
 12632256
370
    25
100
AcDbLine
 10
282.657571383347
 20
309.8524528733971
 30
0.0
 11
284.698642811408
 21
308.274202110273
 31
0.0
  0
LINE
  5
9E
330
70
100
AcDbEntity
  8
HONTAI
 62
     9
420
 12632256
370
    25
100
AcDbLine
 10
324.4527247947536
 20
364.827714751592
 30
0.0
 11
324.1967434197148
 21
362.5176624626728
 31
0.0
  0
LINE
  5
9F
330
70
100
AcDbEntity
  8
HONTAI
 62
     9
420
 12632256
370
    25
100
AcDbLine
 10
323.4364979868193
 20
364.827714751592
 30
0.0
 11
322.4768258845529
 21
362.5176624626728
 31
0.0
  0
LINE
  5
A0
330
70
100
AcDbEntity
  8
HONTAI
 62
     9
420
 12632256
370
    25
100
AcDbLine
 10
322.3504624246549
 20
364.827714751592
 30
0.0
 11
320.9841764279298
 21
362.5176624626728
 31
0.0
  0
LINE
  5
A1
330
70
100
AcDbEntity
  8
HONTAI
 62
     9
420
 12632256
370
    25
100
AcDbLine
 10
321.331546118452
 20
364.875192082825
 30
0.0
 11
319.5260478706783
 21
362.5176624626728
 31
0.0
  0
LINE
  5
A2
330
70
100
AcDbEntity
  8
HONTAI
 62
     9
420
 12632256
370
    25
100
AcDbLine
 10
320.3445070185377
 20
364.9273988161756
 30
0.0
 11
318.1135374515678
 21
362.5176624626728
 31
0.0
  0
LINE
  5
A3
330
70
100
AcDbEntity
  8
HONTAI
 62
     9
420
 12632256
370
    25
100
AcDbLine
 10
319.3968570884485
 20
364.973804801375
 30
0.0
 11
316.7573952277834
 21
362.7150508421284
 31
0.0
  0
LINE
  5
A4
330
70
100
AcDbEntity
  8
HONTAI
 62
     9
420
 12632256
370
    25
100
AcDbLine
 10
318.4958085163621
 20
365.043650045599
 30
0.0
 11
315.4679422605117
 21
362.7150508421284
 31
0.0
  0
LINE
  5
A5
330
70
100
AcDbEntity
  8
HONTAI
 62
     9
420
 12632256
370
    25
100
AcDbLine
 10
317.6482188259733
 20
365.0847155948266
 30
0.0
 11
314.2549920654219
 21
362.8600695458674
 31
0.0
  0
LINE
  5
A6
330
70
100
AcDbEntity
  8
HONTAI
 62
     9
420
 12632256
370
    25
100
AcDbLine
 10
316.8605386866253
 20
365.1668507668282
 30
0.0
 11
313.1277759259028
 21
363.0185839508859
 31
0.0
  0
LINE
  5
A7
330
70
100
AcDbEntity
  8
HONTAI
 62
     9
420
 12632256
370
    25
100
AcDbLine
 10
316.1387628197825
 20
365.2372540886471
 30
0.0
 11
312.0948726374065
 21
363.1769639284569
 31
0.0
  0
LINE
  5
A8
330
70
100
AcDbEntity
  8
HONTAI
 62
     9
420
 12632256
370
    25
100
AcDbLine
 10
315.4883843756157
 20
365.3470853889411
 30
0.0
 11
311.1641432176446
 21
363.2862371511457
 31
0.0
  0
LINE
  5
A9
330
70
100
AcDbEntity
  8
HONTAI
 62
     9
420
 12632256
370
    25
100
AcDbLine
 10
314.9143531267981
 20
365.4320598316401
 30
0.0
 11
310.3426710794853
 21
363.4624104348424
 31
0.0
  0
LINE
  5
AA
330
70
100
AcDbEntity
  8
HONTAI
 62
     9
420
 12632256
370
    25
100
AcDbLine
 10
314.4210377977341
 20
365.5315891009715
 30
0.0
 11
309.6367081219184
 21
363.6588578221344
 31
0.0
  0
LINE
  5
AB
330
70
100
AcDbEntity
  8
HONTAI
 62
     9
420
 12632256
370
    25
100
AcDbLine
 10
314.0121928159592
 20
365.6246536320379
 30
0.0
 11
309.0516271493292
 21
363.8553052094367
 31
0.0
  0
LINE
  5
AC
330
70
100
AcDbEntity
  8
HONTAI
 62
     9
420
 12632256
370
    25
100
AcDbLine
 10
313.6909297386449
 20
365.7331039957937
 30
0.0
 11
308.5918809812012
 21
364.0323502347793
 31
0.0
  0
LINE
  5
AD
330
70
100
AcDbEntity
  8
HONTAI
 62
     9
420
 12632256
370
    25
100
AcDbLine
 10
313.4596935717938
 20
365.8370856652236
 30
0.0
 11
308.2609685634688
 21
364.2441386456251
 31
0.0
  0
LINE
  5
AE
330
70
100
AcDbEntity
  8
HONTAI
 62
     9
420
 12632256
370
    25
100
AcDbLine
 10
313.3202441622646
 20
365.9401955930075
 30
0.0
 11
308.061408339443
 21
364.4827066339511
 31
0.0
  0
LINE
  5
AF
330
70
100
AcDbEntity
  8
HONTAI
 62
     9
420
 12632256
370
    25
100
AcDbLine
 10
324.1967434197148
 20
362.5176624626728
 30
0.0
 11
325.5200713726314
 21
359.0803799856792
 31
0.0
  0
LINE
  5
B0
330
70
100
AcDbEntity
  8
HONTAI
 62
     9
420
 12632256
370
    25
100
AcDbLine
 10
322.4768258845529
 20
362.5176624626728
 30
0.0
 11
324.0815818250672
 21
359.0803799856792
 31
0.0
  0
LINE
  5
B1
330
70
100
AcDbEntity
  8
HONTAI
 62
     9
420
 12632256
370
    25
100
AcDbLine
 10
320.9841764279298
 20
362.5176624626728
 30
0.0
 11
322.6540400515425
 21
359.0803799856792
 31
0.0
  0
LINE
  5
B2
330
70
100
AcDbEntity
  8
HONTAI
 62
     9
420
 12632256
370
    25
100
AcDbLine
 10
319.5260478706783
 20
362.5176624626728
 30
0.0
 11
321.2483105069257
 21
359.0803799856792
 31
0.0
  0
LINE
  5
B3
330
70
100
AcDbEntity
  8
HONTAI
 62
     9
420
 12632256
370
    25
100
AcDbLine
 10
318.1135374515678
 20
362.5176624626728
 30
0.0
 11
319.8750916418586
 21
359.0803799856792
 31
0.0
  0
LINE
  5
B4
330
70
100
AcDbEntity
  8
HONTAI
 62
     9
420
 12632256
370
    25
100
AcDbLine
 10
316.7573952277834
 20
362.7150508421284
 30
0.0
 11
318.5448344810733
 21
359.1808909827527
 31
0.0
  0
LINE
  5
B5
330
70
100
AcDbEntity
  8
HONTAI
 62
     9
420
 12632256
370
    25
100
AcDbLine
 10
315.4679422605117
 20
362.7150508421284
 30
0.0
 11
317.2676630847983
 21
359.1808909827527
 31
0.0
  0
LINE
  5
B6
330
70
100
AcDbEntity
  8
HONTAI
 62
     9
420
 12632256
370
    25
100
AcDbLine
 10
314.2549920654245
 20
362.8600695458674
 30
0.0
 11
316.0532974985341
 21
359.2714502749673
 31
0.0
  0
LINE
  5
B7
330
70
100
AcDbEntity
  8
HONTAI
 62
     9
420
 12632256
370
    25
100
AcDbLine
 10
313.1277759259028
 20
363.0185839508859
 30
0.0
 11
314.9109797776443
 21
359.490281869488
 31
0.0
  0
LINE
  5
B8
330
70
100
AcDbEntity
  8
HONTAI
 62
     9
420
 12632256
370
    25
100
AcDbLine
 10
312.0948726374065
 20
363.1769639284569
 30
0.0
 11
313.8494036497396
 21
359.5515237569057
 31
0.0
  0
LINE
  5
B9
330
70
100
AcDbEntity
  8
HONTAI
 62
     9
420
 12632256
370
    25
100
AcDbLine
 10
311.1641432176446
 20
363.2862371511457
 30
0.0
 11
312.8766483501467
 21
359.6286565983585
 31
0.0
  0
LINE
  5
BA
330
70
100
AcDbEntity
  8
HONTAI
 62
     9
420
 12632256
370
    25
100
AcDbLine
 10
310.3426710794815
 20
363.4624104348424
 30
0.0
 11
312.0001171340609
 21
359.7289231818883
 31
0.0
  0
LINE
  5
BB
330
70
100
AcDbEntity
  8
HONTAI
 62
     9
420
 12632256
370
    25
100
AcDbLine
 10
309.6367081219184
 20
363.6588578221344
 30
0.0
 11
311.226480933303
 21
359.8615460453103
 31
0.0
  0
LINE
  5
BC
330
70
100
AcDbEntity
  8
HONTAI
 62
     9
420
 12632256
370
    25
100
AcDbLine
 10
309.0516271493292
 20
363.8553052094367
 30
0.0
 11
310.5616275864929
 21
359.8615460453103
 31
0.0
  0
LINE
  5
BD
330
70
100
AcDbEntity
  8
HONTAI
 62
     9
420
 12632256
370
    25
100
AcDbLine
 10
308.5918809812012
 20
364.0323502347793
 30
0.0
 11
310.0106170290528
 21
359.9689983870863
 31
0.0
  0
LINE
  5
BE
330
70
100
AcDbEntity
  8
HONTAI
 62
     9
420
 12632256
370
    25
100
AcDbLine
 10
308.2609685634688
 20
364.2441386456251
 30
0.0
 11
309.5776427840326
 21
360.0068865602141
 31
0.0
  0
LINE
  5
BF
330
70
100
AcDbEntity
  8
HONTAI
 62
     9
420
 12632256
370
    25
100
AcDbLine
 10
308.061408339443
 20
364.4827066339511
 30
0.0
 11
309.2660000468716
 21
360.0068865602141
 31
0.0
  0
LINE
  5
C0
330
70
100
AcDbEntity
  8
HONTAI
 62
     9
420
 12632256
370
    25
100
AcDbLine
 10
325.5200713726314
 20
364.7287842954444
 30
0.0
 11
324.1967434197148
 21
362.5176624626728
 31
0.0
  0
LINE
  5
C1
330
70
100
AcDbEntity
  8
HONTAI
 62
     9
420
 12632256
370
    25
100
AcDbLine
 10
324.4527247947536
 20
364.827714751592
 30
0.0
 11
322.4768258845529
 21
362.5176624626728
 31
0.0
  0
LINE
  5
C2
330
70
100
AcDbEntity
  8
HONTAI
 62
     9
420
 12632256
370
    25
100
AcDbLine
 10
323.4364979868193
 20
364.827714751592
 30
0.0
 11
320.9841764279298
 21
362.5176624626728
 31
0.0
  0
LINE
  5
C3
330
70
100
AcDbEntity
  8
HONTAI
 62
     9
420
 12632256
370
    25
100
AcDbLine
 10
322.3504624246549
 20
364.827714751592
 30
0.0
 11
319.5260478706783
 21
362.5176624626728
 31
0.0
  0
LINE
  5
C4
330
70
100
AcDbEntity
  8
HONTAI
 62
     9
420
 12632256
370
    25
100
AcDbLine
 10
321.331546118452
 20
364.875192082825
 30
0.0
 11
318.1135374515678
 21
362.5176624626728
 31
0.0
  0
LINE
  5
C5
330
70
100
AcDbEntity
  8
HONTAI
 62
     9
420
 12632256
370
    25
100
AcDbLine
 10
320.3445070185377
 20
364.9273988161756
 30
0.0
 11
316.7573952277834
 21
362.7150508421284
 31
0.0
  0
LINE
  5
C6
330
70
100
AcDbEntity
  8
HONTAI
 62
     9
420
 12632256
370
    25
100
AcDbLine
 10
319.3968570884485
 20
364.973804801375
 30
0.0
 11
315.4679422605117
 21
362.7150508421284
 31
0.0
  0
LINE
  5
C7
330
70
100
AcDbEntity
  8
HONTAI
 62
     9
420
 12632256
370
    25
100
AcDbLine
 10
318.4958085163621
 20
365.043650045599
 30
0.0
 11
314.2549920654219
 21
362.8600695458674
 31
0.0
  0
LINE
  5
C8
330
70
100
AcDbEntity
  8
HONTAI
 62
     9
420
 12632256
370
    25
100
AcDbLine
 10
317.6482188259733
 20
365.0847155948266
 30
0.0
 11
313.1277759259028
 21
363.0185839508859
 31
0.0
  0
LINE
  5
C9
330
70
100
AcDbEntity
  8
HONTAI
 62
     9
420
 12632256
370
    25
100
AcDbLine
 10
316.8605386866253
 20
365.1668507668282
 30
0.0
 11
312.0948726374065
 21
363.1769639284569
 31
0.0
  0
LINE
  5
CA
330
70
100
AcDbEntity
  8
HONTAI
 62
     9
420
 12632256
370
    25
100
AcDbLine
 10
316.1387628197825
 20
365.2372540886471
 30
0.0
 11
311.1641432176446
 21
363.2862371511457
 31
0.0
  0
LINE
  5
CB
330
70
100
AcDbEntity
  8
HONTAI
 62
     9
420
 12632256
370
    25
100
AcDbLine
 10
315.4883843756157
 20
365.3470853889411
 30
0.0
 11
310.3426710794853
 21
363.4624104348424
 31
0.0
  0
LINE
  5
CC
330
70
100
AcDbEntity
  8
HONTAI
 62
     9
420
 12632256
370
    25
100
AcDbLine
 10
314.9143531267981
 20
365.4320598316401
 30
0.0
 11
309.6367081219184
 21
363.6588578221344
 31
0.0
  0
LINE
  5
CD
330
70
100
AcDbEntity
  8
HONTAI
 62
     9
420
 12632256
370
    25
100
AcDbLine
 10
314.4210377977341
 20
365.5315891009715
 30
0.0
 11
309.0516271493292
 21
363.8553052094367
 31
0.0
  0
LINE
  5
CE
330
70
100
AcDbEntity
  8
HONTAI
 62
     9
420
 12632256
370
    25
100
AcDbLine
 10
314.0121928159592
 20
365.6246536320379
 30
0.0
 11
308.5918809812012
 21
364.0323502347793
 31
0.0
  0
LINE
  5
CF
330
70
100
AcDbEntity
  8
HONTAI
 62
     9
420
 12632256
370
    25
100
AcDbLine
 10
313.6909297386449
 20
365.7331039957937
 30
0.0
 11
308.2609685634688
 21
364.2441386456251
 31
0.0
  0
LINE
  5
D0
330
70
100
AcDbEntity
  8
HONTAI
 62
     9
420
 12632256
370
    25
100
AcDbLine
 10
313.4596935717938
 20
365.8370856652236
 30
0.0
 11
308.061408339443
 21
364.4827066339511
 31
0.0
  0
LINE
  5
D1
330
70
100
AcDbEntity
  8
HONTAI
 62
     9
420
 12632256
370
    25
100
AcDbLine
 10
313.3202441622646
 20
365.9401955930075
 30
0.0
 11
307.9947190829315
 21
364.6240102518003
 31
0.0
  0
LINE
  5
D2
330
70
100
AcDbEntity
  8
HONTAI
 62
     9
420
 12632256
370
    25
100
AcDbLine
 10
307.9947190829315
 20
364.6240102518003
 30
0.0
 11
309.0780606069785
 21
360.0068865602141
 31
0.0
  0
LINE
  5
D3
330
70
100
AcDbEntity
  8
HONTAI
 62
     9
420
 12632256
370
    25
100
AcDbLine
 10
324.1817184540549
 20
362.5709630557239
 30
0.0
 11
324.0815818250672
 21
359.0803799856792
 31
0.0
  0
LINE
  5
D4
330
70
100
AcDbEntity
  8
HONTAI
 62
     9
420
 12632256
370
    25
100
AcDbLine
 10
322.4768258845529
 20
362.5176624626728
 30
0.0
 11
322.6540400515425
 21
359.0803799856792
 31
0.0
  0
LINE
  5
D5
330
70
100
AcDbEntity
  8
HONTAI
 62
     9
420
 12632256
370
    25
100
AcDbLine
 10
321.2483105069257
 20
359.0803799856792
 30
0.0
 11
320.9841764279298
 21
362.5176624626728
 31
0.0
  0
LINE
  5
D6
330
70
100
AcDbEntity
  8
HONTAI
 62
     9
420
 12632256
370
    25
100
AcDbLine
 10
319.5260478706783
 20
362.5176624626728
 30
0.0
 11
319.8750916418586
 21
359.0803799856792
 31
0.0
  0
LINE
  5
D7
330
70
100
AcDbEntity
  8
HONTAI
 62
     9
420
 12632256
370
    25
100
AcDbLine
 10
318.1135374515678
 20
362.5176624626728
 30
0.0
 11
318.5448344810733
 21
359.1808909827527
 31
0.0
  0
LINE
  5
D8
330
70
100
AcDbEntity
  8
HONTAI
 62
     9
420
 12632256
370
    25
100
AcDbLine
 10
316.7573952277834
 20
362.7150508421284
 30
0.0
 11
317.2676630847983
 21
359.1808909827527
 31
0.0
  0
LINE
  5
D9
330
70
100
AcDbEntity
  8
HONTAI
 62
     9
420
 12632256
370
    25
100
AcDbLine
 10
315.4679422605117
 20
362.7150508421284
 30
0.0
 11
316.0532974985341
 21
359.2714502749673
 31
0.0
  0
LINE
  5
DA
330
70
100
AcDbEntity
  8
HONTAI
 62
     9
420
 12632256
370
    25
100
AcDbLine
 10
314.2549920654245
 20
362.8600695458674
 30
0.0
 11
314.9109797776443
 21
359.490281869488
 31
0.0
  0
LINE
  5
DB
330
70
100
AcDbEntity
  8
HONTAI
 62
     9
420
 12632256
370
    25
100
AcDbLine
 10
313.1892875987241
 20
362.8239662747783
 30
0.0
 11
313.8494036497396
 21
359.5515237569057
 31
0.0
  0
LINE
  5
DC
330
70
100
AcDbEntity
  8
HONTAI
 62
     9
420
 12632256
370
    25
100
AcDbLine
 10
312.0948726374065
 20
363.1769639284569
 30
0.0
 11
312.8766483501467
 21
359.6286565983585
 31
0.0
  0
LINE
  5
DD
330
70
100
AcDbEntity
  8
HONTAI
 62
     9
420
 12632256
370
    25
100
AcDbLine
 10
311.1641432176446
 20
363.2862371511457
 30
0.0
 11
312.0001171340609
 21
359.7289231818883
 31
0.0
  0
LINE
  5
DE
330
70
100
AcDbEntity
  8
HONTAI
 62
     9
420
 12632256
370
    25
100
AcDbLine
 10
310.3426710794815
 20
363.4624104348424
 30
0.0
 11
311.226480933303
 21
359.8615460453103
 31
0.0
  0
LINE
  5
DF
330
70
100
AcDbEntity
  8
HONTAI
 62
     9
420
 12632256
370
    25
100
AcDbLine
 10
309.6367081219184
 20
363.6588578221344
 30
0.0
 11
310.5616275864929
 21
359.8615460453103
 31
0.0
  0
LINE
  5
E0
330
70
100
AcDbEntity
  8
HONTAI
 62
     9
420
 12632256
370
    25
100
AcDbLine
 10
309.0516271493292
 20
363.8553052094367
 30
0.0
 11
310.0106170290528
 21
359.9689983870863
 31
0.0
  0
LINE
  5
E1
330
70
100
AcDbEntity
  8
HONTAI
 62
     9
420
 12632256
370
    25
100
AcDbLine
 10
308.5918809812012
 20
364.0323502347793
 30
0.0
 11
309.5776427840326
 21
360.0068865602141
 31
0.0
  0
LINE
  5
E2
330
70
100
AcDbEntity
  8
HONTAI
 62
     9
420
 12632256
370
    25
100
AcDbLine
 10
308.2609685634688
 20
364.2441386456251
 30
0.0
 11
309.2660000468716
 21
360.0068865602141
 31
0.0
  0
LINE
  5
E3
330
70
100
AcDbEntity
  8
HONTAI
 62
     9
420
 12632256
370
    25
100
AcDbLine
 10
325.5200713726314
 20
359.0803799856792
 30
0.0
 11
324.1705273732228
 21
358.0598442716442
 31
0.0
  0
LINE
  5
E4
330
70
100
AcDbEntity
  8
HONTAI
 62
     9
420
 12632256
370
    25
100
AcDbLine
 10
324.1705273732228
 20
358.0598442716442
 30
0.0
 11
324.0815818250672
 21
359.0803799856792
 31
0.0
  0
LINE
  5
E5
330
70
100
AcDbEntity
  8
HONTAI
 62
     9
420
 12632256
370
    25
100
AcDbLine
 10
324.0815818250672
 20
359.0803799856792
 30
0.0
 11
322.8312542185257
 21
358.0598442716442
 31
0.0
  0
LINE
  5
E6
330
70
100
AcDbEntity
  8
HONTAI
 62
     9
420
 12632256
370
    25
100
AcDbLine
 10
322.8312542185257
 20
358.0598442716442
 30
0.0
 11
322.6540400515425
 21
359.0803799856792
 31
0.0
  0
LINE
  5
E7
330
70
100
AcDbEntity
  8
HONTAI
 62
     9
420
 12632256
370
    25
100
AcDbLine
 10
322.6540400515425
 20
359.0803799856792
 30
0.0
 11
321.512444585924
 21
358.0598442716442
 31
0.0
  0
LINE
  5
E8
330
70
100
AcDbEntity
  8
HONTAI
 62
     9
420
 12632256
370
    25
100
AcDbLine
 10
321.512444585924
 20
358.0598442716442
 30
0.0
 11
321.2483105069257
 21
359.0803799856792
 31
0.0
  0
LINE
  5
E9
330
70
100
AcDbEntity
  8
HONTAI
 62
     9
420
 12632256
370
    25
100
AcDbLine
 10
321.2483105069257
 20
359.0803799856792
 30
0.0
 11
320.2241354130377
 21
358.0598442716442
 31
0.0
  0
LINE
  5
EA
330
70
100
AcDbEntity
  8
HONTAI
 62
     9
420
 12632256
370
    25
100
AcDbLine
 10
320.2241354130377
 20
358.0598442716442
 30
0.0
 11
319.8750916418586
 21
359.0803799856792
 31
0.0
  0
LINE
  5
EB
330
70
100
AcDbEntity
  8
HONTAI
 62
     9
420
 12632256
370
    25
100
AcDbLine
 10
319.8750916418586
 20
359.0803799856792
 30
0.0
 11
318.9761315105776
 21
358.160355268728
 31
0.0
  0
LINE
  5
EC
330
70
100
AcDbEntity
  8
HONTAI
 62
     9
420
 12632256
370
    25
100
AcDbLine
 10
318.9761315105776
 20
358.160355268728
 30
0.0
 11
318.5448344810733
 21
359.1808909827527
 31
0.0
  0
LINE
  5
ED
330
70
100
AcDbEntity
  8
HONTAI
 62
     9
420
 12632256
370
    25
100
AcDbLine
 10
318.5448344810733
 20
359.1808909827527
 30
0.0
 11
317.7779309418132
 21
358.160355268728
 31
0.0
  0
LINE
  5
EE
330
70
100
AcDbEntity
  8
HONTAI
 62
     9
420
 12632256
370
    25
100
AcDbLine
 10
317.7779309418132
 20
358.160355268728
 30
0.0
 11
317.2676630847983
 21
359.1808909827527
 31
0.0
  0
LINE
  5
EF
330
70
100
AcDbEntity
  8
HONTAI
 62
     9
420
 12632256
370
    25
100
AcDbLine
 10
317.2676630847983
 20
359.1808909827527
 30
0.0
 11
316.63865273655
 21
358.2360419966921
 31
0.0
  0
LINE
  5
F0
330
70
100
AcDbEntity
  8
HONTAI
 62
     9
420
 12632256
370
    25
100
AcDbLine
 10
316.63865273655
 20
358.2360419966921
 30
0.0
 11
316.0532974985341
 21
359.2714502749673
 31
0.0
  0
LINE
  5
F1
330
70
100
AcDbEntity
  8
HONTAI
 62
     9
420
 12632256
370
    25
100
AcDbLine
 10
316.0532974985341
 20
359.2714502749673
 30
0.0
 11
315.5669674898553
 21
358.3218352247674
 31
0.0
  0
LINE
  5
F2
330
70
100
AcDbEntity
  8
HONTAI
 62
     9
420
 12632256
370
    25
100
AcDbLine
 10
315.5669674898553
 20
358.3218352247674
 30
0.0
 11
314.9109797776443
 21
359.490281869488
 31
0.0
  0
LINE
  5
F3
330
70
100
AcDbEntity
  8
HONTAI
 62
     9
420
 12632256
370
    25
100
AcDbLine
 10
314.9109797776443
 20
359.490281869488
 30
0.0
 11
314.5710313735585
 21
358.4697461554633
 31
0.0
  0
LINE
  5
F4
330
70
100
AcDbEntity
  8
HONTAI
 62
     9
420
 12632256
370
    25
100
AcDbLine
 10
314.5710313735585
 20
358.4697461554633
 30
0.0
 11
313.8494036497396
 21
359.5515237569057
 31
0.0
  0
LINE
  5
F5
330
70
100
AcDbEntity
  8
HONTAI
 62
     9
420
 12632256
370
    25
100
AcDbLine
 10
313.8494036497396
 20
359.5515237569057
 30
0.0
 11
313.658424062864
 21
358.5309880428811
 31
0.0
  0
LINE
  5
F6
330
70
100
AcDbEntity
  8
HONTAI
 62
     9
420
 12632256
370
    25
100
AcDbLine
 10
313.658424062864
 20
358.5309880428811
 30
0.0
 11
312.8766483501467
 21
359.6286565983483
 31
0.0
  0
LINE
  5
F7
330
70
100
AcDbEntity
  8
HONTAI
 62
     9
420
 12632256
370
    25
100
AcDbLine
 10
312.8766483501467
 20
359.6286565983483
 30
0.0
 11
312.8360910504617
 21
358.6081208843133
 31
0.0
  0
LINE
  5
F8
330
70
100
AcDbEntity
  8
HONTAI
 62
     9
420
 12632256
370
    25
100
AcDbLine
 10
312.8360910504617
 20
358.6081208843133
 30
0.0
 11
312.0001171340609
 21
359.7289231818883
 31
0.0
  0
LINE
  5
F9
330
70
100
AcDbEntity
  8
HONTAI
 62
     9
420
 12632256
370
    25
100
AcDbLine
 10
312.0001171340609
 20
359.7289231818883
 30
0.0
 11
312.1102907871054
 21
358.7083874678534
 31
0.0
  0
LINE
  5
FA
330
70
100
AcDbEntity
  8
HONTAI
 62
     9
420
 12632256
370
    25
100
AcDbLine
 10
312.1102907871054
 20
358.7083874678534
 30
0.0
 11
311.226480933303
 21
359.8615460453103
 31
0.0
  0
LINE
  5
FB
330
70
100
AcDbEntity
  8
HONTAI
 62
     9
420
 12632256
370
    25
100
AcDbLine
 10
311.226480933303
 20
359.8615460453103
 30
0.0
 11
311.4865470510494
 21
358.8410103312753
 31
0.0
  0
LINE
  5
FC
330
70
100
AcDbEntity
  8
HONTAI
 62
     9
420
 12632256
370
    25
100
AcDbLine
 10
311.4865470510494
 20
358.8410103312753
 30
0.0
 11
310.5634045868395
 21
359.8615460453103
 31
0.0
  0
LINE
  5
FD
330
70
100
AcDbEntity
  8
HONTAI
 62
     9
420
 12632256
370
    25
100
AcDbLine
 10
310.5634045868395
 20
359.8615460453103
 30
0.0
 11
310.9696069087557
 21
358.9388898091837
 31
0.0
  0
LINE
  5
FE
330
70
100
AcDbEntity
  8
HONTAI
 62
     9
420
 12632256
370
    25
100
AcDbLine
 10
310.9696069087557
 20
358.9388898091837
 30
0.0
 11
310.0106170290528
 21
359.9689983870863
 31
0.0
  0
LINE
  5
FF
330
70
100
AcDbEntity
  8
HONTAI
 62
     9
420
 12632256
370
    25
100
AcDbLine
 10
310.0106170290528
 20
359.9689983870863
 30
0.0
 11
310.5634045868395
 21
359.0190900406195
 31
0.0
  0
LINE
  5
100
330
70
100
AcDbEntity
  8
HONTAI
 62
     9
420
 12632256
370
    25
100
AcDbLine
 10
310.5634045868395
 20
359.0190900406195
 30
0.0
 11
309.5776427840326
 21
360.0068865602141
 31
0.0
  0
LINE
  5
101
330
70
100
AcDbEntity
  8
HONTAI
 62
     9
420
 12632256
370
    25
100
AcDbLine
 10
309.5776427840326
 20
360.0068865602141
 30
0.0
 11
310.27103153025
 21
359.0953307726216
 31
0.0
  0
LINE
  5
102
330
70
100
AcDbEntity
  8
HONTAI
 62
     9
420
 12632256
370
    25
100
AcDbLine
 10
310.27103153025
 20
359.0953307726216
 30
0.0
 11
309.2660000468716
 21
360.0068865602141
 31
0.0
  0
LINE
  5
103
330
70
100
AcDbEntity
  8
HONTAI
 62
     9
420
 12632256
370
    25
100
AcDbLine
 10
309.2660000468716
 20
360.0068865602141
 30
0.0
 11
310.0947128744795
 21
359.1503319675135
 31
0.0
  0
LINE
  5
104
330
70
100
AcDbEntity
  8
HONTAI
 62
     9
420
 12632256
370
    25
100
AcDbLine
 10
310.0947128744795
 20
359.1503319675135
 30
0.0
 11
309.0780606069785
 21
360.0068865602141
 31
0.0
  0
LINE
  5
105
330
70
100
AcDbEntity
  8
HONTAI
 62
     9
420
 12632256
370
    25
100
AcDbLine
 10
324.1705273732228
 20
358.0598442716442
 30
0.0
 11
321.7843583500195
 21
305.1932707771023
 31
0.0
  0
LINE
  5
106
330
70
100
AcDbEntity
  8
HONTAI
 62
     9
420
 12632256
370
    25
100
AcDbLine
 10
324.1705273732228
 20
358.0598442716442
 30
0.0
 11
325.5200713726314
 21
305.1932707771023
 31
0.0
  0
LINE
  5
107
330
70
100
AcDbEntity
  8
HONTAI
 62
     9
420
 12632256
370
    25
100
AcDbLine
 10
321.7843583500195
 20
305.1932707771023
 30
0.0
 11
322.8312542185257
 21
358.0598442716442
 31
0.0
  0
LINE
  5
108
330
70
100
AcDbEntity
  8
HONTAI
 62
     2
420
 16776960
370
    25
100
AcDbLine
 10
322.8312542185257
 20
358.0598442716442
 30
0.0
 11
322.8312542185257
 21
358.0598442716442
 31
0.0
  0
LINE
  5
109
330
70
100
AcDbEntity
  8
HONTAI
 62
     9
420
 12632256
370
    25
100
AcDbLine
 10
322.8312542185257
 20
358.0598442716442
 30
0.0
 11
318.0770763592172
 21
305.1932707771023
 31
0.0
  0
LINE
  5
10A
330
70
100
AcDbEntity
  8
HONTAI
 62
     9
420
 12632256
370
    25
100
AcDbLine
 10
318.0770763592172
 20
305.1932707771023
 30
0.0
 11
321.512444585924
 21
358.0598442716442
 31
0.0
  0
LINE
  5
10B
330
70
100
AcDbEntity
  8
HONTAI
 62
     9
420
 12632256
370
    25
100
AcDbLine
 10
321.512444585924
 20
358.0598442716442
 30
0.0
 11
314.4264400546744
 21
305.3689104245452
 31
0.0
  0
LINE
  5
10C
330
70
100
AcDbEntity
  8
HONTAI
 62
     9
420
 12632256
370
    25
100
AcDbLine
 10
314.4264400546744
 20
305.3689104245452
 30
0.0
 11
320.2241354130377
 21
358.0598442716442
 31
0.0
  0
LINE
  5
10D
330
70
100
AcDbEntity
  8
HONTAI
 62
     9
420
 12632256
370
    25
100
AcDbLine
 10
320.2241354130377
 20
358.0598442716442
 30
0.0
 11
310.8602329829738
 21
305.3689104245452
 31
0.0
  0
LINE
  5
10E
330
70
100
AcDbEntity
  8
HONTAI
 62
     9
420
 12632256
370
    25
100
AcDbLine
 10
310.8602329829738
 20
305.3689104245452
 30
0.0
 11
318.9761315105776
 21
358.160355268728
 31
0.0
  0
LINE
  5
10F
330
70
100
AcDbEntity
  8
HONTAI
 62
     9
420
 12632256
370
    25
100
AcDbLine
 10
318.9761315105776
 20
358.160355268728
 30
0.0
 11
307.405596133276
 21
305.5194528744164
 31
0.0
  0
LINE
  5
110
330
70
100
AcDbEntity
  8
HONTAI
 62
     9
420
 12632256
370
    25
100
AcDbLine
 10
307.405596133276
 20
305.5194528744164
 30
0.0
 11
317.7779309418132
 21
358.160355268728
 31
0.0
  0
LINE
  5
111
330
70
100
AcDbEntity
  8
HONTAI
 62
     9
420
 12632256
370
    25
100
AcDbLine
 10
317.7779309418132
 20
358.160355268728
 30
0.0
 11
304.0888213779661
 21
305.9727951924139
 31
0.0
  0
LINE
  5
112
330
70
100
AcDbEntity
  8
HONTAI
 62
     9
420
 12632256
370
    25
100
AcDbLine
 10
304.0888213779661
 20
305.9727951924139
 30
0.0
 11
316.63865273655
 21
358.2360419966921
 31
0.0
  0
LINE
  5
113
330
70
100
AcDbEntity
  8
HONTAI
 62
     9
420
 12632256
370
    25
100
AcDbLine
 10
316.63865273655
 20
358.2360419966921
 30
0.0
 11
300.9351513756549
 21
306.1541500432732
 31
0.0
  0
LINE
  5
114
330
70
100
AcDbEntity
  8
HONTAI
 62
     9
420
 12632256
370
    25
100
AcDbLine
 10
300.9351513756549
 20
306.1541500432732
 30
0.0
 11
315.5669674898553
 21
358.3218352247674
 31
0.0
  0
LINE
  5
115
330
70
100
AcDbEntity
  8
HONTAI
 62
     9
420
 12632256
370
    25
100
AcDbLine
 10
315.5669674898553
 20
358.3218352247674
 30
0.0
 11
297.9685874593056
 21
306.512863583516
 31
0.0
  0
LINE
  5
116
330
70
100
AcDbEntity
  8
HONTAI
 62
     9
420
 12632256
370
    25
100
AcDbLine
 10
297.9685874593056
 20
306.512863583516
 30
0.0
 11
314.5710313735585
 21
358.4697461554633
 31
0.0
  0
LINE
  5
117
330
70
100
AcDbEntity
  8
HONTAI
 62
     9
420
 12632256
370
    25
100
AcDbLine
 10
314.5710313735585
 20
358.4697461554633
 30
0.0
 11
295.2117069715754
 21
306.8935173130455
 31
0.0
  0
LINE
  5
118
330
70
100
AcDbEntity
  8
HONTAI
 62
     9
420
 12632256
370
    25
100
AcDbLine
 10
295.2117069715754
 20
306.8935173130455
 30
0.0
 11
313.658424062864
 21
358.5309880428811
 31
0.0
  0
LINE
  5
119
330
70
100
AcDbEntity
  8
HONTAI
 62
     9
420
 12632256
370
    25
100
AcDbLine
 10
313.658424062864
 20
358.5309880428811
 30
0.0
 11
292.6854914376286
 21
307.1726620235115
 31
0.0
  0
LINE
  5
11A
330
70
100
AcDbEntity
  8
HONTAI
 62
     9
420
 12632256
370
    25
100
AcDbLine
 10
292.6854914376286
 20
307.1726620235115
 30
0.0
 11
312.8360910504617
 21
358.6081208843133
 31
0.0
  0
LINE
  5
11B
330
70
100
AcDbEntity
  8
HONTAI
 62
     9
420
 12632256
370
    25
100
AcDbLine
 10
312.8360910504617
 20
358.6081208843133
 30
0.0
 11
290.4091668830509
 21
307.5446838813164
 31
0.0
  0
LINE
  5
11C
330
70
100
AcDbEntity
  8
HONTAI
 62
     9
420
 12632256
370
    25
100
AcDbLine
 10
290.4091668830509
 20
307.5446838813164
 30
0.0
 11
312.1102907871054
 21
358.7083874678534
 31
0.0
  0
LINE
  5
11D
330
70
100
AcDbEntity
  8
HONTAI
 62
     9
420
 12632256
370
    25
100
AcDbLine
 10
312.1102907871054
 20
358.7083874678534
 30
0.0
 11
288.400057512175
 21
307.9980832291302
 31
0.0
  0
LINE
  5
11E
330
70
100
AcDbEntity
  8
HONTAI
 62
     9
420
 12632256
370
    25
100
AcDbLine
 10
288.400057512175
 20
307.9980832291302
 30
0.0
 11
311.4865470510494
 21
358.8410103312753
 31
0.0
  0
LINE
  5
11F
330
70
100
AcDbEntity
  8
HONTAI
 62
     9
420
 12632256
370
    25
100
AcDbLine
 10
311.4865470510494
 20
358.8410103312753
 30
0.0
 11
286.6734538604621
 21
308.255585120133
 31
0.0
  0
LINE
  5
120
330
70
100
AcDbEntity
  8
HONTAI
 62
     9
420
 12632256
370
    25
100
AcDbLine
 10
286.6734538604621
 20
308.255585120133
 30
0.0
 11
310.9696069087557
 21
358.9388898091837
 31
0.0
  0
LINE
  5
121
330
70
100
AcDbEntity
  8
HONTAI
 62
     9
420
 12632256
370
    25
100
AcDbLine
 10
310.9696069087557
 20
358.9388898091837
 30
0.0
 11
285.2424964242427
 21
308.662725130886
 31
0.0
  0
LINE
  5
122
330
70
100
AcDbEntity
  8
HONTAI
 62
     9
420
 12632256
370
    25
100
AcDbLine
 10
285.2424964242427
 20
308.662725130886
 30
0.0
 11
310.5634045868395
 21
359.0190900406195
 31
0.0
  0
LINE
  5
123
330
70
100
AcDbEntity
  8
HONTAI
 62
     9
420
 12632256
370
    25
100
AcDbLine
 10
310.5634045868395
 20
359.0190900406195
 30
0.0
 11
284.1180756536415
 21
309.024396075036
 31
0.0
  0
LINE
  5
124
330
70
100
AcDbEntity
  8
HONTAI
 62
     9
420
 12632256
370
    25
100
AcDbLine
 10
284.1180756536415
 20
309.024396075036
 30
0.0
 11
310.27103153025
 21
359.0953307726216
 31
0.0
  0
LINE
  5
125
330
70
100
AcDbEntity
  8
HONTAI
 62
     9
420
 12632256
370
    25
100
AcDbLine
 10
310.27103153025
 20
359.0953307726216
 30
0.0
 11
283.3087490696762
 21
309.4213440409329
 31
0.0
  0
LINE
  5
126
330
70
100
AcDbEntity
  8
HONTAI
 62
     9
420
 12632256
370
    25
100
AcDbLine
 10
283.3087490696762
 20
309.4213440409329
 30
0.0
 11
310.0947128744795
 21
359.1503319675135
 31
0.0
  0
LINE
  5
127
330
70
100
AcDbEntity
  8
HONTAI
 62
     9
420
 12632256
370
    25
100
AcDbLine
 10
310.0947128744795
 20
359.1503319675135
 30
0.0
 11
282.8206761363238
 21
309.7348777372724
 31
0.0
  0
LINE
  5
128
330
70
100
AcDbEntity
  8
HONTAI
 62
     9
420
 12632256
370
    25
100
AcDbLine
 10
282.8206761363238
 20
309.7348777372724
 30
0.0
 11
310.0357905109693
 21
359.1674409156592
 31
0.0
  0
LINE
  5
129
330
70
100
AcDbEntity
  8
HONTAI
 62
     9
420
 12632256
370
    25
100
AcDbLine
 10
309.0780606069785
 20
360.0068865602141
 30
0.0
 11
310.0357905109925
 21
359.1674409157002
 31
0.0
  0
LINE
  5
12A
330
70
100
AcDbEntity
  8
HONTAI
 62
     9
420
 12632256
370
    25
100
AcDbLine
 10
325.5200713726314
 20
305.1932707771023
 30
0.0
 11
323.7750417017911
 21
304.1727350630674
 31
0.0
  0
LINE
  5
12B
330
70
100
AcDbEntity
  8
HONTAI
 62
     9
420
 12632256
370
    25
100
AcDbLine
 10
323.7750417017911
 20
304.1727350630674
 30
0.0
 11
321.7843583500195
 21
305.1932707771023
 31
0.0
  0
LINE
  5
12C
330
70
100
AcDbEntity
  8
HONTAI
 62
     9
420
 12632256
370
    25
100
AcDbLine
 10
321.7843583500195
 20
305.1932707771023
 30
0.0
 11
320.2271123757558
 21
304.1727350630674
 31
0.0
  0
LINE
  5
12D
330
70
100
AcDbEntity
  8
HONTAI
 62
     9
420
 12632256
370
    25
100
AcDbLine
 10
320.2271123757558
 20
304.1727350630674
 30
0.0
 11
318.0770763592172
 21
305.1932707771023
 31
0.0
  0
LINE
  5
12E
330
70
100
AcDbEntity
  8
HONTAI
 62
     9
420
 12632256
370
    25
100
AcDbLine
 10
318.0770763592172
 20
305.1932707771023
 30
0.0
 11
316.6931064529275
 21
304.1727350630674
 31
0.0
  0
LINE
  5
12F
330
70
100
AcDbEntity
  8
HONTAI
 62
     9
420
 12632256
370
    25
100
AcDbLine
 10
316.6931064529275
 20
304.1727350630674
 30
0.0
 11
314.4264400546744
 21
305.3689104245452
 31
0.0
  0
LINE
  5
130
330
70
100
AcDbEntity
  8
HONTAI
 62
     9
420
 12632256
370
    25
100
AcDbLine
 10
314.4264400546744
 20
305.3689104245452
 30
0.0
 11
313.2787968749696
 21
304.3483747105204
 31
0.0
  0
LINE
  5
131
330
70
100
AcDbEntity
  8
HONTAI
 62
     9
420
 12632256
370
    25
100
AcDbLine
 10
313.2787968749696
 20
304.3483747105204
 30
0.0
 11
310.8602329829738
 21
305.3689104245452
 31
0.0
  0
LINE
  5
132
330
70
100
AcDbEntity
  8
HONTAI
 62
     9
420
 12632256
370
    25
100
AcDbLine
 10
310.8602329829738
 20
305.3689104245452
 30
0.0
 11
309.9312915766863
 21
304.4989171603917
 31
0.0
  0
LINE
  5
133
330
70
100
AcDbEntity
  8
HONTAI
 62
     9
420
 12632256
370
    25
100
AcDbLine
 10
309.9312915766863
 20
304.4989171603917
 30
0.0
 11
307.405596133276
 21
305.5194528744164
 31
0.0
  0
LINE
  5
134
330
70
100
AcDbEntity
  8
HONTAI
 62
     9
420
 12632256
370
    25
100
AcDbLine
 10
307.405596133276
 20
305.5194528744164
 30
0.0
 11
306.6887736421409
 21
304.7255862826018
 31
0.0
  0
LINE
  5
135
330
70
100
AcDbEntity
  8
HONTAI
 62
     9
420
 12632256
370
    25
100
AcDbLine
 10
306.6887736421409
 20
304.7255862826018
 30
0.0
 11
304.0888213779661
 21
305.9727951924139
 31
0.0
  0
LINE
  5
136
330
70
100
AcDbEntity
  8
HONTAI
 62
     9
420
 12632256
370
    25
100
AcDbLine
 10
304.0888213779661
 20
305.9727951924139
 30
0.0
 11
303.6076094718477
 21
304.9522594783789
 31
0.0
  0
LINE
  5
137
330
70
100
AcDbEntity
  8
HONTAI
 62
     9
420
 12632256
370
    25
100
AcDbLine
 10
303.6076094718477
 20
304.9522594783789
 30
0.0
 11
300.9351513756549
 21
306.1541500432732
 31
0.0
  0
LINE
  5
138
330
70
100
AcDbEntity
  8
HONTAI
 62
     9
420
 12632256
370
    25
100
AcDbLine
 10
300.9351513756549
 20
306.1541500432732
 30
0.0
 11
300.6978203590303
 21
305.1336143292485
 31
0.0
  0
LINE
  5
139
330
70
100
AcDbEntity
  8
HONTAI
 62
     9
420
 12632256
370
    25
100
AcDbLine
 10
300.6978203590303
 20
305.1336143292485
 30
0.0
 11
297.9685874593056
 21
306.512863583516
 31
0.0
  0
LINE
  5
13A
330
70
100
AcDbEntity
  8
HONTAI
 62
     9
420
 12632256
370
    25
100
AcDbLine
 10
297.9685874593056
 20
306.512863583516
 30
0.0
 11
297.9685874593056
 21
305.4923278694912
 31
0.0
  0
LINE
  5
13B
330
70
100
AcDbEntity
  8
HONTAI
 62
     9
420
 12632256
370
    25
100
AcDbLine
 10
297.9685874593056
 20
305.4923278694912
 30
0.0
 11
295.2377508492615
 21
306.9590053596507
 31
0.0
  0
LINE
  5
13C
330
70
100
AcDbEntity
  8
HONTAI
 62
     9
420
 12632256
370
    25
100
AcDbLine
 10
295.2377508492615
 20
306.9590053596507
 30
0.0
 11
295.4474259490313
 21
305.8729815990105
 31
0.0
  0
LINE
  5
13D
330
70
100
AcDbEntity
  8
HONTAI
 62
     9
420
 12632256
370
    25
100
AcDbLine
 10
295.4474259490313
 20
305.8729815990105
 30
0.0
 11
292.6854914376286
 21
307.1726620235115
 31
0.0
  0
LINE
  5
13E
330
70
100
AcDbEntity
  8
HONTAI
 62
     9
420
 12632256
370
    25
100
AcDbLine
 10
292.6854914376286
 20
307.1726620235115
 30
0.0
 11
293.1559445272392
 21
306.1521263094765
 31
0.0
  0
LINE
  5
13F
330
70
100
AcDbEntity
  8
HONTAI
 62
     9
420
 12632256
370
    25
100
AcDbLine
 10
293.1559445272392
 20
306.1521263094765
 30
0.0
 11
290.4091668830509
 21
307.5446838813164
 31
0.0
  0
LINE
  5
140
330
70
100
AcDbEntity
  8
HONTAI
 62
     9
420
 12632256
370
    25
100
AcDbLine
 10
290.4091668830509
 20
307.5446838813164
 30
0.0
 11
291.1107736527356
 21
306.5241481672814
 31
0.0
  0
LINE
  5
141
330
70
100
AcDbEntity
  8
HONTAI
 62
     9
420
 12632256
370
    25
100
AcDbLine
 10
291.1107736527356
 20
306.5241481672814
 30
0.0
 11
288.400057512175
 21
307.9980832291302
 31
0.0
  0
LINE
  5
142
330
70
100
AcDbEntity
  8
HONTAI
 62
     9
420
 12632256
370
    25
100
AcDbLine
 10
288.400057512175
 20
307.9980832291302
 30
0.0
 11
289.3274783107817
 21
306.9009564570202
 31
0.0
  0
LINE
  5
143
330
70
100
AcDbEntity
  8
HONTAI
 62
     9
420
 12632256
370
    25
100
AcDbLine
 10
289.3274783107817
 20
306.9009564570202
 30
0.0
 11
286.6734538604621
 21
308.255585120133
 31
0.0
  0
LINE
  5
144
330
70
100
AcDbEntity
  8
HONTAI
 62
     9
420
 12632256
370
    25
100
AcDbLine
 10
286.6734538604621
 20
308.255585120133
 30
0.0
 11
287.8418844866472
 21
307.2350494061083
 31
0.0
  0
LINE
  5
145
330
70
100
AcDbEntity
  8
HONTAI
 62
     9
420
 12632256
370
    25
100
AcDbLine
 10
287.8418844866472
 20
307.2350494061083
 30
0.0
 11
285.2424964242427
 21
308.662725130886
 31
0.0
  0
LINE
  5
146
330
70
100
AcDbEntity
  8
HONTAI
 62
     9
420
 12632256
370
    25
100
AcDbLine
 10
285.2424964242427
 20
308.662725130886
 30
0.0
 11
286.5987057201715
 21
307.6421894168613
 31
0.0
  0
LINE
  5
147
330
70
100
AcDbEntity
  8
HONTAI
 62
     9
420
 12632256
370
    25
100
AcDbLine
 10
286.5987057201715
 20
307.6421894168613
 30
0.0
 11
284.1180756536415
 21
309.024396075036
 31
0.0
  0
LINE
  5
148
330
70
100
AcDbEntity
  8
HONTAI
 62
     9
420
 12632256
370
    25
100
AcDbLine
 10
284.1180756536415
 20
309.024396075036
 30
0.0
 11
285.7042056478931
 21
307.8995528068495
 31
0.0
  0
LINE
  5
149
330
70
100
AcDbEntity
  8
HONTAI
 62
     9
420
 12632256
370
    25
100
AcDbLine
 10
285.7042056478931
 20
307.8995528068495
 30
0.0
 11
283.3087490696762
 21
309.4213440409329
 31
0.0
  0
LINE
  5
14A
330
70
100
AcDbEntity
  8
HONTAI
 62
     9
420
 12632256
370
    25
100
AcDbLine
 10
283.3087490696762
 20
309.4213440409329
 30
0.0
 11
285.0525391297495
 21
308.1353467014388
 31
0.0
  0
LINE
  5
14B
330
70
100
AcDbEntity
  8
HONTAI
 62
     9
420
 12632256
370
    25
100
AcDbLine
 10
285.0525391297495
 20
308.1353467014388
 30
0.0
 11
282.8206761363238
 21
309.7348777372724
 31
0.0
  0
LINE
  5
14C
330
70
100
AcDbEntity
  8
HONTAI
 62
     9
420
 12632256
370
    25
100
AcDbLine
 10
282.8206761363238
 20
309.7348777372724
 30
0.0
 11
284.7390645362196
 21
308.274202110273
 31
0.0
  0
LINE
  5
14D
330
70
100
AcDbEntity
  8
HONTAI
 62
     9
420
 12632256
370
    25
100
AcDbLine
 10
284.7390645362196
 20
308.274202110273
 30
0.0
 11
282.657571383347
 21
309.8524528733971
 31
0.0
  0
SPLINE
  5
14E
330
70
100
AcDbEntity
  8
HONTAI
 62
     2
420
 16776960
370
    25
100
AcDbSpline
210
0.0
220
0.0
230
1.0
 70
     8
 71
     3
 72
    11
 73
     7
 74
     0
 42
0.0000000001
 43
0.0000000001
 40
0.0
 40
0.0
 40
0.0
 40
0.0
 40
1.0
 40
1.0
 40
1.0
 40
2.0
 40
2.0
 40
2.0
 40
2.0
 10
323.6490892302423
 20
79.47009258908066
 30
0.0
 10
309.1969336949947
 20
79.19959216613254
 30
0.0
 10
298.373643172445
 20
76.10177140987921
 30
0.0
 10
299.4745932342736
 20
72.55091627091191
 30
0.0
 10
300.513232606797
 20
69.20102958546774
 30
0.0
 10
311.8465122311445
 20
66.60842745445141
 30
0.0
 10
325.5200713726301
 20
66.59275020045123
 30
0.0
  0
SPLINE
  5
14F
330
70
100
AcDbEntity
  8
HONTAI
 62
     2
420
 16776960
370
    25
100
AcDbSpline
210
0.0
220
0.0
230
1.0
 70
     8
 71
     3
 72
     8
 73
     4
 74
     0
 42
0.0000000001
 43
0.0000000001
 40
0.0
 40
0.0
 40
0.0
 40
0.0
 40
1.0
 40
1.0
 40
1.0
 40
1.0
 10
298.5779285222225
 20
70.77761012867745
 30
0.0
 10
298.5779285222225
 20
67.22785553934648
 30
0.0
 10
310.6206571863217
 20
64.34571775996876
 30
0.0
 10
325.5200713726301
 20
64.32965552200778
 30
0.0
  0
SPLINE
  5
150
330
70
100
AcDbEntity
  8
HONTAI
 62
     2
420
 16776960
370
    25
100
AcDbSpline
210
0.0
220
0.0
230
1.0
 70
     8
 71
     3
 72
    11
 73
     7
 74
     0
 42
0.0000000001
 43
0.0000000001
 40
0.0
 40
0.0
 40
0.0
 40
0.0
 40
1.0
 40
1.0
 40
1.0
 40
2.0
 40
2.0
 40
2.0
 40
2.0
 10
323.6490892302419
 20
73.04070061319286
 30
0.0
 10
323.6490892302419
 20
72.67193272544095
 30
0.0
 10
324.4867564681841
 20
72.3729872862092
 30
0.0
 10
325.5200713726314
 20
72.3729872862092
 30
0.0
 10
326.5533862770787
 20
72.3729872862092
 30
0.0
 10
327.3910535150208
 20
72.67193272544095
 30
0.0
 10
327.3910535150208
 20
73.04070061319286
 30
0.0
  0
LINE
  5
151
330
70
100
AcDbEntity
  8
HONTAI
 62
     2
420
 16776960
370
    25
100
AcDbLine
 10
352.4622142230433
 20
71.88354385088533
 30
0.0
 11
352.4622142230433
 21
70.77761012867745
 31
0.0
  0
SPLINE
  5
152
330
70
100
AcDbEntity
  8
HONTAI
 62
     2
420
 16776960
370
    25
100
AcDbSpline
210
0.0
220
0.0
230
1.0
 70
     8
 71
     3
 72
     8
 73
     4
 74
     0
 42
0.0000000001
 43
0.0000000001
 40
0.0
 40
0.0
 40
0.0
 40
0.0
 40
1.0
 40
1.0
 40
1.0
 40
1.0
 10
352.4622142230419
 20
71.88354385088405
 30
0.0
 10
352.258839168582
 20
73.11570488275691
 30
0.0
 10
351.5558782276916
 20
74.20927465686988
 30
0.0
 10
350.5194002025166
 20
74.90590621269523
 30
0.0
  0
SPLINE
  5
153
330
70
100
AcDbEntity
  8
HONTAI
 62
     2
420
 16776960
370
    25
100
AcDbSpline
210
0.0
220
0.0
230
1.0
 70
     8
 71
     3
 72
    11
 73
     7
 74
     0
 42
0.0000000001
 43
0.0000000001
 40
0.0
 40
0.0
 40
0.0
 40
0.0
 40
1.0
 40
1.0
 40
1.0
 40
2.0
 40
2.0
 40
2.0
 40
2.0
 10
327.3910535150205
 20
79.47009258908066
 30
0.0
 10
341.0252575331486
 20
79.21490173229361
 30
0.0
 10
351.5772760672961
 20
76.43034588542914
 30
0.0
 10
351.6410832642429
 20
73.07078975367409
 30
0.0
 10
351.7087184216256
 20
69.50968507305208
 30
0.0
 10
340.0139430479
 20
66.6093679738746
 30
0.0
 10
325.5200713726327
 20
66.59275020045123
 30
0.0
  0
SPLINE
  5
154
330
70
100
AcDbEntity
  8
HONTAI
 62
     2
420
 16776960
370
    25
100
AcDbSpline
210
0.0
220
0.0
230
1.0
 70
     8
 71
     3
 72
     8
 73
     4
 74
     0
 42
0.0000000001
 43
0.0000000001
 40
0.0
 40
0.0
 40
0.0
 40
0.0
 40
1.0
 40
1.0
 40
1.0
 40
1.0
 10
352.4622142230406
 20
70.77761012867745
 30
0.0
 10
352.4622142230406
 20
67.22785553934648
 30
0.0
 10
340.4194855589414
 20
64.34571775996876
 30
0.0
 10
325.5200713726327
 20
64.32965552200778
 30
0.0
  0
LINE
  5
155
330
70
100
AcDbEntity
  8
HONTAI
 62
     2
420
 16776960
370
    25
100
AcDbLine
 10
327.3910535150212
 20
304.2373053501355
 30
0.0
 11
327.3910535150212
 21
73.04070061319286
 31
0.0
  0
ELLIPSE
  5
156
330
70
100
AcDbEntity
  8
HONTAI
 62
     9
420
 12632256
370
    25
100
AcDbEllipse
 10
325.5200713726314
 20
366.052760251439
 30
0.0
 11
12.24642856836714
 21
0.0
 31
0.0
210
0.0
220
0.0
230
1.0
 40
0.101615325016395
 41
0.0
 42
6.283185307179583
  0
LINE
  5
157
330
70
100
AcDbEntity
  8
HONTAI
 62
     9
420
 12632256
370
    25
100
AcDbLine
 10
337.7664999409985
 20
366.052760251439
 30
0.0
 11
343.0454236623313
 21
364.6240102518003
 31
0.0
  0
LINE
  5
158
330
70
100
AcDbEntity
  8
HONTAI
 62
     9
420
 12632256
370
    25
100
AcDbLine
 10
343.0454236623313
 20
364.6240102518003
 30
0.0
 11
342.0248879483002
 21
360.0068865602141
 31
0.0
  0
LINE
  5
159
330
70
100
AcDbEntity
  8
HONTAI
 62
     9
420
 12632256
370
    25
100
AcDbLine
 10
342.0248879483002
 20
360.0068865602141
 30
0.0
 11
341.0043522342704
 21
359.1674409157002
 31
0.0
  0
LINE
  5
15A
330
70
100
AcDbEntity
  8
HONTAI
 62
     9
420
 12632256
370
    25
100
AcDbLine
 10
341.0043522342704
 20
359.1674409157002
 30
0.0
 11
368.3825713619158
 21
309.8524528733971
 31
0.0
  0
LINE
  5
15B
330
70
100
AcDbEntity
  8
HONTAI
 62
     9
420
 12632256
370
    25
100
AcDbLine
 10
368.3825713619158
 20
309.8524528733971
 30
0.0
 11
366.3414999338548
 21
308.274202110273
 31
0.0
  0
LINE
  5
15C
330
70
100
AcDbEntity
  8
HONTAI
 62
     9
420
 12632256
370
    25
100
AcDbLine
 10
326.5874179505143
 20
364.827714751592
 30
0.0
 11
326.843399325548
 21
362.5176624626728
 31
0.0
  0
LINE
  5
15D
330
70
100
AcDbEntity
  8
HONTAI
 62
     9
420
 12632256
370
    25
100
AcDbLine
 10
327.603644758446
 20
364.827714751592
 30
0.0
 11
328.56331686071
 21
362.5176624626728
 31
0.0
  0
LINE
  5
15E
330
70
100
AcDbEntity
  8
HONTAI
 62
     9
420
 12632256
370
    25
100
AcDbLine
 10
328.689680320613
 20
364.827714751592
 30
0.0
 11
330.0559663173381
 21
362.5176624626728
 31
0.0
  0
LINE
  5
15F
330
70
100
AcDbEntity
  8
HONTAI
 62
     9
420
 12632256
370
    25
100
AcDbLine
 10
329.7085966268109
 20
364.875192082825
 30
0.0
 11
331.5140948745884
 21
362.5176624626728
 31
0.0
  0
LINE
  5
160
330
70
100
AcDbEntity
  8
HONTAI
 62
     9
420
 12632256
370
    25
100
AcDbLine
 10
330.6956357267276
 20
364.9273988161756
 30
0.0
 11
332.9266052937001
 21
362.5176624626728
 31
0.0
  0
LINE
  5
161
330
70
100
AcDbEntity
  8
HONTAI
 62
     9
420
 12632256
370
    25
100
AcDbLine
 10
331.6432856568143
 20
364.973804801375
 30
0.0
 11
334.2827475174833
 21
362.7150508421284
 31
0.0
  0
LINE
  5
162
330
70
100
AcDbEntity
  8
HONTAI
 62
     9
420
 12632256
370
    25
100
AcDbLine
 10
332.5443342289058
 20
365.043650045599
 30
0.0
 11
335.5722004847536
 21
362.7150508421284
 31
0.0
  0
LINE
  5
163
330
70
100
AcDbEntity
  8
HONTAI
 62
     9
420
 12632256
370
    25
100
AcDbLine
 10
333.3919239192895
 20
365.0847155948266
 30
0.0
 11
336.7851506798409
 21
362.8600695458674
 31
0.0
  0
LINE
  5
164
330
70
100
AcDbEntity
  8
HONTAI
 62
     9
420
 12632256
370
    25
100
AcDbLine
 10
334.1796040586414
 20
365.1668507668282
 30
0.0
 11
337.9123668193638
 21
363.0185839508859
 31
0.0
  0
LINE
  5
165
330
70
100
AcDbEntity
  8
HONTAI
 62
     9
420
 12632256
370
    25
100
AcDbLine
 10
334.9013799254842
 20
365.2372540886471
 30
0.0
 11
338.9452701078588
 21
363.1769639284569
 31
0.0
  0
LINE
  5
166
330
70
100
AcDbEntity
  8
HONTAI
 62
     9
420
 12632256
370
    25
100
AcDbLine
 10
335.5517583696509
 20
365.3470853889411
 30
0.0
 11
339.8759995276233
 21
363.2862371511457
 31
0.0
  0
LINE
  5
167
330
70
100
AcDbEntity
  8
HONTAI
 62
     9
420
 12632256
370
    25
100
AcDbLine
 10
336.1257896184699
 20
365.4320598316401
 30
0.0
 11
340.6974716657813
 21
363.4624104348424
 31
0.0
  0
LINE
  5
168
330
70
100
AcDbEntity
  8
HONTAI
 62
     9
420
 12632256
370
    25
100
AcDbLine
 10
336.6191049475325
 20
365.5315891009715
 30
0.0
 11
341.4034346233482
 21
363.6588578221344
 31
0.0
  0
LINE
  5
169
330
70
100
AcDbEntity
  8
HONTAI
 62
     9
420
 12632256
370
    25
100
AcDbLine
 10
337.0279499293087
 20
365.6246536320379
 30
0.0
 11
341.9885155959374
 21
363.8553052094367
 31
0.0
  0
LINE
  5
16A
330
70
100
AcDbEntity
  8
HONTAI
 62
     9
420
 12632256
370
    25
100
AcDbLine
 10
337.349213006623
 20
365.7331039957937
 30
0.0
 11
342.4482617640654
 21
364.0323502347793
 31
0.0
  0
LINE
  5
16B
330
70
100
AcDbEntity
  8
HONTAI
 62
     9
420
 12632256
370
    25
100
AcDbLine
 10
337.5804491734689
 20
365.8370856652236
 30
0.0
 11
342.7791741817991
 21
364.2441386456251
 31
0.0
  0
LINE
  5
16C
330
70
100
AcDbEntity
  8
HONTAI
 62
     9
420
 12632256
370
    25
100
AcDbLine
 10
337.7198985829982
 20
365.9401955930075
 30
0.0
 11
342.9787344058198
 21
364.4827066339511
 31
0.0
  0
LINE
  5
16D
330
70
100
AcDbEntity
  8
HONTAI
 62
     9
420
 12632256
370
    25
100
AcDbLine
 10
326.843399325548
 20
362.5176624626728
 30
0.0
 11
325.5200713726314
 21
359.0803799856792
 31
0.0
  0
LINE
  5
16E
330
70
100
AcDbEntity
  8
HONTAI
 62
     9
420
 12632256
370
    25
100
AcDbLine
 10
328.56331686071
 20
362.5176624626728
 30
0.0
 11
326.9585609201981
 21
359.0803799856792
 31
0.0
  0
LINE
  5
16F
330
70
100
AcDbEntity
  8
HONTAI
 62
     9
420
 12632256
370
    25
100
AcDbLine
 10
330.0559663173381
 20
362.5176624626728
 30
0.0
 11
328.3861026937255
 21
359.0803799856792
 31
0.0
  0
LINE
  5
170
330
70
100
AcDbEntity
  8
HONTAI
 62
     9
420
 12632256
370
    25
100
AcDbLine
 10
331.5140948745884
 20
362.5176624626728
 30
0.0
 11
329.7918322383372
 21
359.0803799856792
 31
0.0
  0
LINE
  5
171
330
70
100
AcDbEntity
  8
HONTAI
 62
     9
420
 12632256
370
    25
100
AcDbLine
 10
332.9266052937001
 20
362.5176624626728
 30
0.0
 11
331.1650511034093
 21
359.0803799856792
 31
0.0
  0
LINE
  5
172
330
70
100
AcDbEntity
  8
HONTAI
 62
     9
420
 12632256
370
    25
100
AcDbLine
 10
334.2827475174833
 20
362.7150508421284
 30
0.0
 11
332.495308264192
 21
359.1808909827527
 31
0.0
  0
LINE
  5
173
330
70
100
AcDbEntity
  8
HONTAI
 62
     9
420
 12632256
370
    25
100
AcDbLine
 10
335.5722004847536
 20
362.7150508421284
 30
0.0
 11
333.7724796604671
 21
359.1808909827527
 31
0.0
  0
LINE
  5
174
330
70
100
AcDbEntity
  8
HONTAI
 62
     9
420
 12632256
370
    25
100
AcDbLine
 10
336.7851506798409
 20
362.8600695458674
 30
0.0
 11
334.9868452467313
 21
359.2714502749673
 31
0.0
  0
LINE
  5
175
330
70
100
AcDbEntity
  8
HONTAI
 62
     9
420
 12632256
370
    25
100
AcDbLine
 10
337.9123668193638
 20
363.0185839508859
 30
0.0
 11
336.1291629676184
 21
359.490281869488
 31
0.0
  0
LINE
  5
176
330
70
100
AcDbEntity
  8
HONTAI
 62
     9
420
 12632256
370
    25
100
AcDbLine
 10
338.9452701078588
 20
363.1769639284569
 30
0.0
 11
337.190739095527
 21
359.5515237569057
 31
0.0
  0
LINE
  5
177
330
70
100
AcDbEntity
  8
HONTAI
 62
     9
420
 12632256
370
    25
100
AcDbLine
 10
339.8759995276233
 20
363.2862371511457
 30
0.0
 11
338.1634943951211
 21
359.6286565983585
 31
0.0
  0
LINE
  5
178
330
70
100
AcDbEntity
  8
HONTAI
 62
     9
420
 12632256
370
    25
100
AcDbLine
 10
340.6974716657852
 20
363.4624104348424
 30
0.0
 11
339.0400256112071
 21
359.7289231818883
 31
0.0
  0
LINE
  5
179
330
70
100
AcDbEntity
  8
HONTAI
 62
     9
420
 12632256
370
    25
100
AcDbLine
 10
341.4034346233482
 20
363.6588578221344
 30
0.0
 11
339.8136618119636
 21
359.8615460453103
 31
0.0
  0
LINE
  5
17A
330
70
100
AcDbEntity
  8
HONTAI
 62
     9
420
 12632256
370
    25
100
AcDbLine
 10
341.9885155959374
 20
363.8553052094367
 30
0.0
 11
340.4785151587737
 21
359.8615460453103
 31
0.0
  0
LINE
  5
17B
330
70
100
AcDbEntity
  8
HONTAI
 62
     9
420
 12632256
370
    25
100
AcDbLine
 10
342.4482617640654
 20
364.0323502347793
 30
0.0
 11
341.0295257162139
 21
359.9689983870863
 31
0.0
  0
LINE
  5
17C
330
70
100
AcDbEntity
  8
HONTAI
 62
     9
420
 12632256
370
    25
100
AcDbLine
 10
342.7791741817991
 20
364.2441386456251
 30
0.0
 11
341.4624999612353
 21
360.0068865602141
 31
0.0
  0
LINE
  5
17D
330
70
100
AcDbEntity
  8
HONTAI
 62
     9
420
 12632256
370
    25
100
AcDbLine
 10
342.9787344058198
 20
364.4827066339511
 30
0.0
 11
341.7741426983963
 21
360.0068865602141
 31
0.0
  0
LINE
  5
17E
330
70
100
AcDbEntity
  8
HONTAI
 62
     9
420
 12632256
370
    25
100
AcDbLine
 10
325.5200713726314
 20
364.7287842954444
 30
0.0
 11
326.843399325548
 21
362.5176624626728
 31
0.0
  0
LINE
  5
17F
330
70
100
AcDbEntity
  8
HONTAI
 62
     9
420
 12632256
370
    25
100
AcDbLine
 10
326.5874179505143
 20
364.827714751592
 30
0.0
 11
328.56331686071
 21
362.5176624626728
 31
0.0
  0
LINE
  5
180
330
70
100
AcDbEntity
  8
HONTAI
 62
     9
420
 12632256
370
    25
100
AcDbLine
 10
327.603644758446
 20
364.827714751592
 30
0.0
 11
330.0559663173381
 21
362.5176624626728
 31
0.0
  0
LINE
  5
181
330
70
100
AcDbEntity
  8
HONTAI
 62
     9
420
 12632256
370
    25
100
AcDbLine
 10
328.689680320613
 20
364.827714751592
 30
0.0
 11
331.5140948745884
 21
362.5176624626728
 31
0.0
  0
LINE
  5
182
330
70
100
AcDbEntity
  8
HONTAI
 62
     9
420
 12632256
370
    25
100
AcDbLine
 10
329.7085966268109
 20
364.875192082825
 30
0.0
 11
332.9266052937001
 21
362.5176624626728
 31
0.0
  0
LINE
  5
183
330
70
100
AcDbEntity
  8
HONTAI
 62
     9
420
 12632256
370
    25
100
AcDbLine
 10
330.6956357267276
 20
364.9273988161756
 30
0.0
 11
334.2827475174833
 21
362.7150508421284
 31
0.0
  0
LINE
  5
184
330
70
100
AcDbEntity
  8
HONTAI
 62
     9
420
 12632256
370
    25
100
AcDbLine
 10
331.6432856568143
 20
364.973804801375
 30
0.0
 11
335.5722004847536
 21
362.7150508421284
 31
0.0
  0
LINE
  5
185
330
70
100
AcDbEntity
  8
HONTAI
 62
     9
420
 12632256
370
    25
100
AcDbLine
 10
332.5443342289058
 20
365.043650045599
 30
0.0
 11
336.7851506798409
 21
362.8600695458674
 31
0.0
  0
LINE
  5
186
330
70
100
AcDbEntity
  8
HONTAI
 62
     9
420
 12632256
370
    25
100
AcDbLine
 10
333.3919239192895
 20
365.0847155948266
 30
0.0
 11
337.9123668193638
 21
363.0185839508859
 31
0.0
  0
LINE
  5
187
330
70
100
AcDbEntity
  8
HONTAI
 62
     9
420
 12632256
370
    25
100
AcDbLine
 10
334.1796040586414
 20
365.1668507668282
 30
0.0
 11
338.9452701078588
 21
363.1769639284569
 31
0.0
  0
LINE
  5
188
330
70
100
AcDbEntity
  8
HONTAI
 62
     9
420
 12632256
370
    25
100
AcDbLine
 10
334.9013799254842
 20
365.2372540886471
 30
0.0
 11
339.8759995276233
 21
363.2862371511457
 31
0.0
  0
LINE
  5
189
330
70
100
AcDbEntity
  8
HONTAI
 62
     9
420
 12632256
370
    25
100
AcDbLine
 10
335.5517583696509
 20
365.3470853889411
 30
0.0
 11
340.6974716657813
 21
363.4624104348424
 31
0.0
  0
LINE
  5
18A
330
70
100
AcDbEntity
  8
HONTAI
 62
     9
420
 12632256
370
    25
100
AcDbLine
 10
336.1257896184699
 20
365.4320598316401
 30
0.0
 11
341.4034346233482
 21
363.6588578221344
 31
0.0
  0
LINE
  5
18B
330
70
100
AcDbEntity
  8
HONTAI
 62
     9
420
 12632256
370
    25
100
AcDbLine
 10
336.6191049475325
 20
365.5315891009715
 30
0.0
 11
341.9885155959374
 21
363.8553052094367
 31
0.0
  0
LINE
  5
18C
330
70
100
AcDbEntity
  8
HONTAI
 62
     9
420
 12632256
370
    25
100
AcDbLine
 10
337.0279499293087
 20
365.6246536320379
 30
0.0
 11
342.4482617640654
 21
364.0323502347793
 31
0.0
  0
LINE
  5
18D
330
70
100
AcDbEntity
  8
HONTAI
 62
     9
420
 12632256
370
    25
100
AcDbLine
 10
337.349213006623
 20
365.7331039957937
 30
0.0
 11
342.7791741817991
 21
364.2441386456251
 31
0.0
  0
LINE
  5
18E
330
70
100
AcDbEntity
  8
HONTAI
 62
     9
420
 12632256
370
    25
100
AcDbLine
 10
337.5804491734689
 20
365.8370856652236
 30
0.0
 11
342.9787344058198
 21
364.4827066339511
 31
0.0
  0
LINE
  5
18F
330
70
100
AcDbEntity
  8
HONTAI
 62
     9
420
 12632256
370
    25
100
AcDbLine
 10
337.7198985829982
 20
365.9401955930075
 30
0.0
 11
343.0454236623313
 21
364.6240102518003
 31
0.0
  0
LINE
  5
190
330
70
100
AcDbEntity
  8
HONTAI
 62
     9
420
 12632256
370
    25
100
AcDbLine
 10
343.0454236623313
 20
364.6240102518003
 30
0.0
 11
341.9620821382893
 21
360.0068865602141
 31
0.0
  0
LINE
  5
191
330
70
100
AcDbEntity
  8
HONTAI
 62
     9
420
 12632256
370
    25
100
AcDbLine
 10
326.8584242912131
 20
362.5709630557239
 30
0.0
 11
326.9585609201981
 21
359.0803799856792
 31
0.0
  0
LINE
  5
192
330
70
100
AcDbEntity
  8
HONTAI
 62
     9
420
 12632256
370
    25
100
AcDbLine
 10
328.56331686071
 20
362.5176624626728
 30
0.0
 11
328.3861026937255
 21
359.0803799856792
 31
0.0
  0
LINE
  5
193
330
70
100
AcDbEntity
  8
HONTAI
 62
     9
420
 12632256
370
    25
100
AcDbLine
 10
329.7918322383372
 20
359.0803799856792
 30
0.0
 11
330.0559663173381
 21
362.5176624626728
 31
0.0
  0
LINE
  5
194
330
70
100
AcDbEntity
  8
HONTAI
 62
     9
420
 12632256
370
    25
100
AcDbLine
 10
331.5140948745884
 20
362.5176624626728
 30
0.0
 11
331.1650511034093
 21
359.0803799856792
 31
0.0
  0
LINE
  5
195
330
70
100
AcDbEntity
  8
HONTAI
 62
     9
420
 12632256
370
    25
100
AcDbLine
 10
332.9266052937001
 20
362.5176624626728
 30
0.0
 11
332.495308264192
 21
359.1808909827527
 31
0.0
  0
LINE
  5
196
330
70
100
AcDbEntity
  8
HONTAI
 62
     9
420
 12632256
370
    25
100
AcDbLine
 10
334.2827475174833
 20
362.7150508421284
 30
0.0
 11
333.7724796604671
 21
359.1808909827527
 31
0.0
  0
LINE
  5
197
330
70
100
AcDbEntity
  8
HONTAI
 62
     9
420
 12632256
370
    25
100
AcDbLine
 10
335.5722004847536
 20
362.7150508421284
 30
0.0
 11
334.9868452467313
 21
359.2714502749673
 31
0.0
  0
LINE
  5
198
330
70
100
AcDbEntity
  8
HONTAI
 62
     9
420
 12632256
370
    25
100
AcDbLine
 10
336.7851506798409
 20
362.8600695458674
 30
0.0
 11
336.1291629676184
 21
359.490281869488
 31
0.0
  0
LINE
  5
199
330
70
100
AcDbEntity
  8
HONTAI
 62
     9
420
 12632256
370
    25
100
AcDbLine
 10
337.8508551465438
 20
362.8239662747783
 30
0.0
 11
337.190739095527
 21
359.5515237569057
 31
0.0
  0
LINE
  5
19A
330
70
100
AcDbEntity
  8
HONTAI
 62
     9
420
 12632256
370
    25
100
AcDbLine
 10
338.9452701078588
 20
363.1769639284569
 30
0.0
 11
338.1634943951211
 21
359.6286565983585
 31
0.0
  0
LINE
  5
19B
330
70
100
AcDbEntity
  8
HONTAI
 62
     9
420
 12632256
370
    25
100
AcDbLine
 10
339.8759995276233
 20
363.2862371511457
 30
0.0
 11
339.0400256112071
 21
359.7289231818883
 31
0.0
  0
LINE
  5
19C
330
70
100
AcDbEntity
  8
HONTAI
 62
     9
420
 12632256
370
    25
100
AcDbLine
 10
340.6974716657852
 20
363.4624104348424
 30
0.0
 11
339.8136618119636
 21
359.8615460453103
 31
0.0
  0
LINE
  5
19D
330
70
100
AcDbEntity
  8
HONTAI
 62
     9
420
 12632256
370
    25
100
AcDbLine
 10
341.4034346233482
 20
363.6588578221344
 30
0.0
 11
340.4785151587737
 21
359.8615460453103
 31
0.0
  0
LINE
  5
19E
330
70
100
AcDbEntity
  8
HONTAI
 62
     9
420
 12632256
370
    25
100
AcDbLine
 10
341.9885155959374
 20
363.8553052094367
 30
0.0
 11
341.0295257162139
 21
359.9689983870863
 31
0.0
  0
LINE
  5
19F
330
70
100
AcDbEntity
  8
HONTAI
 62
     9
420
 12632256
370
    25
100
AcDbLine
 10
342.4482617640654
 20
364.0323502347793
 30
0.0
 11
341.4624999612353
 21
360.0068865602141
 31
0.0
  0
LINE
  5
1A0
330
70
100
AcDbEntity
  8
HONTAI
 62
     9
420
 12632256
370
    25
100
AcDbLine
 10
342.7791741817991
 20
364.2441386456251
 30
0.0
 11
341.7741426983963
 21
360.0068865602141
 31
0.0
  0
LINE
  5
1A1
330
70
100
AcDbEntity
  8
HONTAI
 62
     9
420
 12632256
370
    25
100
AcDbLine
 10
325.5200713726314
 20
359.0803799856792
 30
0.0
 11
326.8696153720399
 21
358.0598442716442
 31
0.0
  0
LINE
  5
1A2
330
70
100
AcDbEntity
  8
HONTAI
 62
     9
420
 12632256
370
    25
100
AcDbLine
 10
326.8696153720399
 20
358.0598442716442
 30
0.0
 11
326.9585609201981
 21
359.0803799856792
 31
0.0
  0
LINE
  5
1A3
330
70
100
AcDbEntity
  8
HONTAI
 62
     9
420
 12632256
370
    25
100
AcDbLine
 10
326.9585609201981
 20
359.0803799856792
 30
0.0
 11
328.2088885267409
 21
358.0598442716442
 31
0.0
  0
LINE
  5
1A4
330
70
100
AcDbEntity
  8
HONTAI
 62
     9
420
 12632256
370
    25
100
AcDbLine
 10
328.2088885267409
 20
358.0598442716442
 30
0.0
 11
328.3861026937255
 21
359.0803799856792
 31
0.0
  0
LINE
  5
1A5
330
70
100
AcDbEntity
  8
HONTAI
 62
     9
420
 12632256
370
    25
100
AcDbLine
 10
328.3861026937255
 20
359.0803799856792
 30
0.0
 11
329.5276981593439
 21
358.0598442716442
 31
0.0
  0
LINE
  5
1A6
330
70
100
AcDbEntity
  8
HONTAI
 62
     9
420
 12632256
370
    25
100
AcDbLine
 10
329.5276981593439
 20
358.0598442716442
 30
0.0
 11
329.7918322383372
 21
359.0803799856792
 31
0.0
  0
LINE
  5
1A7
330
70
100
AcDbEntity
  8
HONTAI
 62
     9
420
 12632256
370
    25
100
AcDbLine
 10
329.7918322383372
 20
359.0803799856792
 30
0.0
 11
330.8160073322277
 21
358.0598442716442
 31
0.0
  0
LINE
  5
1A8
330
70
100
AcDbEntity
  8
HONTAI
 62
     9
420
 12632256
370
    25
100
AcDbLine
 10
330.8160073322277
 20
358.0598442716442
 30
0.0
 11
331.1650511034093
 21
359.0803799856792
 31
0.0
  0
LINE
  5
1A9
330
70
100
AcDbEntity
  8
HONTAI
 62
     9
420
 12632256
370
    25
100
AcDbLine
 10
331.1650511034093
 20
359.0803799856792
 30
0.0
 11
332.0640112346903
 21
358.160355268728
 31
0.0
  0
LINE
  5
1AA
330
70
100
AcDbEntity
  8
HONTAI
 62
     9
420
 12632256
370
    25
100
AcDbLine
 10
332.0640112346903
 20
358.160355268728
 30
0.0
 11
332.495308264192
 21
359.1808909827527
 31
0.0
  0
LINE
  5
1AB
330
70
100
AcDbEntity
  8
HONTAI
 62
     9
420
 12632256
370
    25
100
AcDbLine
 10
332.495308264192
 20
359.1808909827527
 30
0.0
 11
333.2622118034521
 21
358.160355268728
 31
0.0
  0
LINE
  5
1AC
330
70
100
AcDbEntity
  8
HONTAI
 62
     9
420
 12632256
370
    25
100
AcDbLine
 10
333.2622118034521
 20
358.160355268728
 30
0.0
 11
333.7724796604671
 21
359.1808909827527
 31
0.0
  0
LINE
  5
1AD
330
70
100
AcDbEntity
  8
HONTAI
 62
     9
420
 12632256
370
    25
100
AcDbLine
 10
333.7724796604671
 20
359.1808909827527
 30
0.0
 11
334.4014900087179
 21
358.2360419966921
 31
0.0
  0
LINE
  5
1AE
330
70
100
AcDbEntity
  8
HONTAI
 62
     9
420
 12632256
370
    25
100
AcDbLine
 10
334.4014900087179
 20
358.2360419966921
 30
0.0
 11
334.9868452467313
 21
359.2714502749673
 31
0.0
  0
LINE
  5
1AF
330
70
100
AcDbEntity
  8
HONTAI
 62
     9
420
 12632256
370
    25
100
AcDbLine
 10
334.9868452467313
 20
359.2714502749673
 30
0.0
 11
335.4731752554075
 21
358.3218352247674
 31
0.0
  0
LINE
  5
1B0
330
70
100
AcDbEntity
  8
HONTAI
 62
     9
420
 12632256
370
    25
100
AcDbLine
 10
335.4731752554075
 20
358.3218352247674
 30
0.0
 11
336.1291629676184
 21
359.490281869488
 31
0.0
  0
LINE
  5
1B1
330
70
100
AcDbEntity
  8
HONTAI
 62
     9
420
 12632256
370
    25
100
AcDbLine
 10
336.1291629676184
 20
359.490281869488
 30
0.0
 11
336.4691113717068
 21
358.4697461554633
 31
0.0
  0
LINE
  5
1B2
330
70
100
AcDbEntity
  8
HONTAI
 62
     9
420
 12632256
370
    25
100
AcDbLine
 10
336.4691113717068
 20
358.4697461554633
 30
0.0
 11
337.190739095527
 21
359.5515237569057
 31
0.0
  0
LINE
  5
1B3
330
70
100
AcDbEntity
  8
HONTAI
 62
     9
420
 12632256
370
    25
100
AcDbLine
 10
337.190739095527
 20
359.5515237569057
 30
0.0
 11
337.3817186823988
 21
358.5309880428811
 31
0.0
  0
LINE
  5
1B4
330
70
100
AcDbEntity
  8
HONTAI
 62
     9
420
 12632256
370
    25
100
AcDbLine
 10
337.3817186823988
 20
358.5309880428811
 30
0.0
 11
338.1634943951211
 21
359.6286565983483
 31
0.0
  0
LINE
  5
1B5
330
70
100
AcDbEntity
  8
HONTAI
 62
     9
420
 12632256
370
    25
100
AcDbLine
 10
338.1634943951211
 20
359.6286565983483
 30
0.0
 11
338.2040516948049
 21
358.6081208843133
 31
0.0
  0
LINE
  5
1B6
330
70
100
AcDbEntity
  8
HONTAI
 62
     9
420
 12632256
370
    25
100
AcDbLine
 10
338.2040516948049
 20
358.6081208843133
 30
0.0
 11
339.0400256112071
 21
359.7289231818883
 31
0.0
  0
LINE
  5
1B7
330
70
100
AcDbEntity
  8
HONTAI
 62
     9
420
 12632256
370
    25
100
AcDbLine
 10
339.0400256112071
 20
359.7289231818883
 30
0.0
 11
338.9298519581625
 21
358.7083874678534
 31
0.0
  0
LINE
  5
1B8
330
70
100
AcDbEntity
  8
HONTAI
 62
     9
420
 12632256
370
    25
100
AcDbLine
 10
338.9298519581625
 20
358.7083874678534
 30
0.0
 11
339.8136618119636
 21
359.8615460453103
 31
0.0
  0
LINE
  5
1B9
330
70
100
AcDbEntity
  8
HONTAI
 62
     9
420
 12632256
370
    25
100
AcDbLine
 10
339.8136618119636
 20
359.8615460453103
 30
0.0
 11
339.5535956942186
 21
358.8410103312753
 31
0.0
  0
LINE
  5
1BA
330
70
100
AcDbEntity
  8
HONTAI
 62
     9
420
 12632256
370
    25
100
AcDbLine
 10
339.5535956942186
 20
358.8410103312753
 30
0.0
 11
340.4767381584232
 21
359.8615460453103
 31
0.0
  0
LINE
  5
1BB
330
70
100
AcDbEntity
  8
HONTAI
 62
     9
420
 12632256
370
    25
100
AcDbLine
 10
340.4767381584232
 20
359.8615460453103
 30
0.0
 11
340.0705358365121
 21
358.9388898091837
 31
0.0
  0
LINE
  5
1BC
330
70
100
AcDbEntity
  8
HONTAI
 62
     9
420
 12632256
370
    25
100
AcDbLine
 10
340.0705358365121
 20
358.9388898091837
 30
0.0
 11
341.0295257162139
 21
359.9689983870863
 31
0.0
  0
LINE
  5
1BD
330
70
100
AcDbEntity
  8
HONTAI
 62
     9
420
 12632256
370
    25
100
AcDbLine
 10
341.0295257162139
 20
359.9689983870863
 30
0.0
 11
340.4767381584232
 21
359.0190900406195
 31
0.0
  0
LINE
  5
1BE
330
70
100
AcDbEntity
  8
HONTAI
 62
     9
420
 12632256
370
    25
100
AcDbLine
 10
340.4767381584232
 20
359.0190900406195
 30
0.0
 11
341.4624999612353
 21
360.0068865602141
 31
0.0
  0
LINE
  5
1BF
330
70
100
AcDbEntity
  8
HONTAI
 62
     9
420
 12632256
370
    25
100
AcDbLine
 10
341.4624999612353
 20
360.0068865602141
 30
0.0
 11
340.7691112150166
 21
359.0953307726216
 31
0.0
  0
LINE
  5
1C0
330
70
100
AcDbEntity
  8
HONTAI
 62
     9
420
 12632256
370
    25
100
AcDbLine
 10
340.7691112150166
 20
359.0953307726216
 30
0.0
 11
341.7741426983963
 21
360.0068865602141
 31
0.0
  0
LINE
  5
1C1
330
70
100
AcDbEntity
  8
HONTAI
 62
     9
420
 12632256
370
    25
100
AcDbLine
 10
341.7741426983963
 20
360.0068865602141
 30
0.0
 11
340.9454298707832
 21
359.1503319675135
 31
0.0
  0
LINE
  5
1C2
330
70
100
AcDbEntity
  8
HONTAI
 62
     9
420
 12632256
370
    25
100
AcDbLine
 10
340.9454298707832
 20
359.1503319675135
 30
0.0
 11
341.9620821382893
 21
360.0068865602141
 31
0.0
  0
LINE
  5
1C3
330
70
100
AcDbEntity
  8
HONTAI
 62
     9
420
 12632256
370
    25
100
AcDbLine
 10
326.8696153720399
 20
358.0598442716442
 30
0.0
 11
329.2557843952433
 21
305.1932707771023
 31
0.0
  0
LINE
  5
1C4
330
70
100
AcDbEntity
  8
HONTAI
 62
     9
420
 12632256
370
    25
100
AcDbLine
 10
326.8696153720399
 20
358.0598442716442
 30
0.0
 11
325.5200713726314
 21
305.1932707771023
 31
0.0
  0
LINE
  5
1C5
330
70
100
AcDbEntity
  8
HONTAI
 62
     9
420
 12632256
370
    25
100
AcDbLine
 10
329.2557843952433
 20
305.1932707771023
 30
0.0
 11
328.2088885267409
 21
358.0598442716442
 31
0.0
  0
LINE
  5
1C6
330
70
100
AcDbEntity
  8
HONTAI
 62
     2
420
 16776960
370
    25
100
AcDbLine
 10
328.2088885267409
 20
358.0598442716442
 30
0.0
 11
328.2088885267409
 21
358.0598442716442
 31
0.0
  0
LINE
  5
1C7
330
70
100
AcDbEntity
  8
HONTAI
 62
     9
420
 12632256
370
    25
100
AcDbLine
 10
328.2088885267409
 20
358.0598442716442
 30
0.0
 11
332.9630663860456
 21
305.1932707771023
 31
0.0
  0
LINE
  5
1C8
330
70
100
AcDbEntity
  8
HONTAI
 62
     9
420
 12632256
370
    25
100
AcDbLine
 10
332.9630663860456
 20
305.1932707771023
 30
0.0
 11
329.5276981593439
 21
358.0598442716442
 31
0.0
  0
LINE
  5
1C9
330
70
100
AcDbEntity
  8
HONTAI
 62
     9
420
 12632256
370
    25
100
AcDbLine
 10
329.5276981593439
 20
358.0598442716442
 30
0.0
 11
336.613702690591
 21
305.3689104245452
 31
0.0
  0
LINE
  5
1CA
330
70
100
AcDbEntity
  8
HONTAI
 62
     9
420
 12632256
370
    25
100
AcDbLine
 10
336.613702690591
 20
305.3689104245452
 30
0.0
 11
330.8160073322277
 21
358.0598442716442
 31
0.0
  0
LINE
  5
1CB
330
70
100
AcDbEntity
  8
HONTAI
 62
     9
420
 12632256
370
    25
100
AcDbLine
 10
330.8160073322277
 20
358.0598442716442
 30
0.0
 11
340.1799097622916
 21
305.3689104245452
 31
0.0
  0
LINE
  5
1CC
330
70
100
AcDbEntity
  8
HONTAI
 62
     9
420
 12632256
370
    25
100
AcDbLine
 10
340.1799097622916
 20
305.3689104245452
 30
0.0
 11
332.0640112346903
 21
358.160355268728
 31
0.0
  0
LINE
  5
1CD
330
70
100
AcDbEntity
  8
HONTAI
 62
     9
420
 12632256
370
    25
100
AcDbLine
 10
332.0640112346903
 20
358.160355268728
 30
0.0
 11
343.6345466119907
 21
305.5194528744164
 31
0.0
  0
LINE
  5
1CE
330
70
100
AcDbEntity
  8
HONTAI
 62
     9
420
 12632256
370
    25
100
AcDbLine
 10
343.6345466119907
 20
305.5194528744164
 30
0.0
 11
333.2622118034521
 21
358.160355268728
 31
0.0
  0
LINE
  5
1CF
330
70
100
AcDbEntity
  8
HONTAI
 62
     9
420
 12632256
370
    25
100
AcDbLine
 10
333.2622118034521
 20
358.160355268728
 30
0.0
 11
346.9513213673018
 21
305.9727951924139
 31
0.0
  0
LINE
  5
1D0
330
70
100
AcDbEntity
  8
HONTAI
 62
     9
420
 12632256
370
    25
100
AcDbLine
 10
346.9513213673018
 20
305.9727951924139
 30
0.0
 11
334.4014900087179
 21
358.2360419966921
 31
0.0
  0
LINE
  5
1D1
330
70
100
AcDbEntity
  8
HONTAI
 62
     9
420
 12632256
370
    25
100
AcDbLine
 10
334.4014900087179
 20
358.2360419966921
 30
0.0
 11
350.1049913696117
 21
306.1541500432732
 31
0.0
  0
LINE
  5
1D2
330
70
100
AcDbEntity
  8
HONTAI
 62
     9
420
 12632256
370
    25
100
AcDbLine
 10
350.1049913696117
 20
306.1541500432732
 30
0.0
 11
335.4731752554075
 21
358.3218352247674
 31
0.0
  0
LINE
  5
1D3
330
70
100
AcDbEntity
  8
HONTAI
 62
     9
420
 12632256
370
    25
100
AcDbLine
 10
335.4731752554075
 20
358.3218352247674
 30
0.0
 11
353.0715552859624
 21
306.512863583516
 31
0.0
  0
LINE
  5
1D4
330
70
100
AcDbEntity
  8
HONTAI
 62
     9
420
 12632256
370
    25
100
AcDbLine
 10
353.0715552859624
 20
306.512863583516
 30
0.0
 11
336.4691113717068
 21
358.4697461554633
 31
0.0
  0
LINE
  5
1D5
330
70
100
AcDbEntity
  8
HONTAI
 62
     9
420
 12632256
370
    25
100
AcDbLine
 10
336.4691113717068
 20
358.4697461554633
 30
0.0
 11
355.8284357736925
 21
306.8935173130455
 31
0.0
  0
LINE
  5
1D6
330
70
100
AcDbEntity
  8
HONTAI
 62
     9
420
 12632256
370
    25
100
AcDbLine
 10
355.8284357736925
 20
306.8935173130455
 30
0.0
 11
337.3817186823988
 21
358.5309880428811
 31
0.0
  0
LINE
  5
1D7
330
70
100
AcDbEntity
  8
HONTAI
 62
     9
420
 12632256
370
    25
100
AcDbLine
 10
337.3817186823988
 20
358.5309880428811
 30
0.0
 11
358.354651307638
 21
307.1726620235115
 31
0.0
  0
LINE
  5
1D8
330
70
100
AcDbEntity
  8
HONTAI
 62
     9
420
 12632256
370
    25
100
AcDbLine
 10
358.354651307638
 20
307.1726620235115
 30
0.0
 11
338.2040516948049
 21
358.6081208843133
 31
0.0
  0
LINE
  5
1D9
330
70
100
AcDbEntity
  8
HONTAI
 62
     9
420
 12632256
370
    25
100
AcDbLine
 10
338.2040516948049
 20
358.6081208843133
 30
0.0
 11
360.630975862217
 21
307.5446838813164
 31
0.0
  0
LINE
  5
1DA
330
70
100
AcDbEntity
  8
HONTAI
 62
     9
420
 12632256
370
    25
100
AcDbLine
 10
360.630975862217
 20
307.5446838813164
 30
0.0
 11
338.9298519581625
 21
358.7083874678534
 31
0.0
  0
LINE
  5
1DB
330
70
100
AcDbEntity
  8
HONTAI
 62
     9
420
 12632256
370
    25
100
AcDbLine
 10
338.9298519581625
 20
358.7083874678534
 30
0.0
 11
362.6400852330904
 21
307.9980832291302
 31
0.0
  0
LINE
  5
1DC
330
70
100
AcDbEntity
  8
HONTAI
 62
     9
420
 12632256
370
    25
100
AcDbLine
 10
362.6400852330904
 20
307.9980832291302
 30
0.0
 11
339.5535956942186
 21
358.8410103312753
 31
0.0
  0
LINE
  5
1DD
330
70
100
AcDbEntity
  8
HONTAI
 62
     9
420
 12632256
370
    25
100
AcDbLine
 10
339.5535956942186
 20
358.8410103312753
 30
0.0
 11
364.3666888848058
 21
308.255585120133
 31
0.0
  0
LINE
  5
1DE
330
70
100
AcDbEntity
  8
HONTAI
 62
     9
420
 12632256
370
    25
100
AcDbLine
 10
364.3666888848058
 20
308.255585120133
 30
0.0
 11
340.0705358365121
 21
358.9388898091837
 31
0.0
  0
LINE
  5
1DF
330
70
100
AcDbEntity
  8
HONTAI
 62
     9
420
 12632256
370
    25
100
AcDbLine
 10
340.0705358365121
 20
358.9388898091837
 30
0.0
 11
365.7976463210239
 21
308.662725130886
 31
0.0
  0
LINE
  5
1E0
330
70
100
AcDbEntity
  8
HONTAI
 62
     9
420
 12632256
370
    25
100
AcDbLine
 10
365.7976463210239
 20
308.662725130886
 30
0.0
 11
340.4767381584232
 21
359.0190900406195
 31
0.0
  0
LINE
  5
1E1
330
70
100
AcDbEntity
  8
HONTAI
 62
     9
420
 12632256
370
    25
100
AcDbLine
 10
340.4767381584232
 20
359.0190900406195
 30
0.0
 11
366.9220670916238
 21
309.024396075036
 31
0.0
  0
LINE
  5
1E2
330
70
100
AcDbEntity
  8
HONTAI
 62
     9
420
 12632256
370
    25
100
AcDbLine
 10
366.9220670916238
 20
309.024396075036
 30
0.0
 11
340.7691112150166
 21
359.0953307726216
 31
0.0
  0
LINE
  5
1E3
330
70
100
AcDbEntity
  8
HONTAI
 62
     9
420
 12632256
370
    25
100
AcDbLine
 10
340.7691112150166
 20
359.0953307726216
 30
0.0
 11
367.7313936755918
 21
309.4213440409329
 31
0.0
  0
LINE
  5
1E4
330
70
100
AcDbEntity
  8
HONTAI
 62
     9
420
 12632256
370
    25
100
AcDbLine
 10
367.7313936755918
 20
309.4213440409329
 30
0.0
 11
340.9454298707832
 21
359.1503319675135
 31
0.0
  0
LINE
  5
1E5
330
70
100
AcDbEntity
  8
HONTAI
 62
     9
420
 12632256
370
    25
100
AcDbLine
 10
340.9454298707832
 20
359.1503319675135
 30
0.0
 11
368.2194666089389
 21
309.7348777372724
 31
0.0
  0
LINE
  5
1E6
330
70
100
AcDbEntity
  8
HONTAI
 62
     9
420
 12632256
370
    25
100
AcDbLine
 10
368.2194666089389
 20
309.7348777372724
 30
0.0
 11
341.004352234296
 21
359.1674409156592
 31
0.0
  0
LINE
  5
1E7
330
70
100
AcDbEntity
  8
HONTAI
 62
     9
420
 12632256
370
    25
100
AcDbLine
 10
341.9620821382893
 20
360.0068865602141
 30
0.0
 11
341.0043522342704
 21
359.1674409157002
 31
0.0
  0
LINE
  5
1E8
330
70
100
AcDbEntity
  8
HONTAI
 62
     9
420
 12632256
370
    25
100
AcDbLine
 10
325.5200713726314
 20
305.1932707771023
 30
0.0
 11
327.2651010434743
 21
304.1727350630674
 31
0.0
  0
LINE
  5
1E9
330
70
100
AcDbEntity
  8
HONTAI
 62
     9
420
 12632256
370
    25
100
AcDbLine
 10
327.2651010434743
 20
304.1727350630674
 30
0.0
 11
329.2557843952433
 21
305.1932707771023
 31
0.0
  0
LINE
  5
1EA
330
70
100
AcDbEntity
  8
HONTAI
 62
     9
420
 12632256
370
    25
100
AcDbLine
 10
329.2557843952433
 20
305.1932707771023
 30
0.0
 11
330.8130303695095
 21
304.1727350630674
 31
0.0
  0
LINE
  5
1EB
330
70
100
AcDbEntity
  8
HONTAI
 62
     9
420
 12632256
370
    25
100
AcDbLine
 10
330.8130303695095
 20
304.1727350630674
 30
0.0
 11
332.9630663860456
 21
305.1932707771023
 31
0.0
  0
LINE
  5
1EC
330
70
100
AcDbEntity
  8
HONTAI
 62
     9
420
 12632256
370
    25
100
AcDbLine
 10
332.9630663860456
 20
305.1932707771023
 30
0.0
 11
334.3470362923353
 21
304.1727350630674
 31
0.0
  0
LINE
  5
1ED
330
70
100
AcDbEntity
  8
HONTAI
 62
     9
420
 12632256
370
    25
100
AcDbLine
 10
334.3470362923353
 20
304.1727350630674
 30
0.0
 11
336.613702690591
 21
305.3689104245452
 31
0.0
  0
LINE
  5
1EE
330
70
100
AcDbEntity
  8
HONTAI
 62
     9
420
 12632256
370
    25
100
AcDbLine
 10
336.613702690591
 20
305.3689104245452
 30
0.0
 11
337.7613458702932
 21
304.3483747105204
 31
0.0
  0
LINE
  5
1EF
330
70
100
AcDbEntity
  8
HONTAI
 62
     9
420
 12632256
370
    25
100
AcDbLine
 10
337.7613458702932
 20
304.3483747105204
 30
0.0
 11
340.1799097622916
 21
305.3689104245452
 31
0.0
  0
LINE
  5
1F0
330
70
100
AcDbEntity
  8
HONTAI
 62
     9
420
 12632256
370
    25
100
AcDbLine
 10
340.1799097622916
 20
305.3689104245452
 30
0.0
 11
341.108851168579
 21
304.4989171603917
 31
0.0
  0
LINE
  5
1F1
330
70
100
AcDbEntity
  8
HONTAI
 62
     9
420
 12632256
370
    25
100
AcDbLine
 10
341.108851168579
 20
304.4989171603917
 30
0.0
 11
343.6345466119907
 21
305.5194528744164
 31
0.0
  0
LINE
  5
1F2
330
70
100
AcDbEntity
  8
HONTAI
 62
     9
420
 12632256
370
    25
100
AcDbLine
 10
343.6345466119907
 20
305.5194528744164
 30
0.0
 11
344.3513691031258
 21
304.7255862826018
 31
0.0
  0
LINE
  5
1F3
330
70
100
AcDbEntity
  8
HONTAI
 62
     9
420
 12632256
370
    25
100
AcDbLine
 10
344.3513691031258
 20
304.7255862826018
 30
0.0
 11
346.9513213673018
 21
305.9727951924139
 31
0.0
  0
LINE
  5
1F4
330
70
100
AcDbEntity
  8
HONTAI
 62
     9
420
 12632256
370
    25
100
AcDbLine
 10
346.9513213673018
 20
305.9727951924139
 30
0.0
 11
347.4325332734176
 21
304.9522594783789
 31
0.0
  0
LINE
  5
1F5
330
70
100
AcDbEntity
  8
HONTAI
 62
     9
420
 12632256
370
    25
100
AcDbLine
 10
347.4325332734176
 20
304.9522594783789
 30
0.0
 11
350.1049913696117
 21
306.1541500432732
 31
0.0
  0
LINE
  5
1F6
330
70
100
AcDbEntity
  8
HONTAI
 62
     9
420
 12632256
370
    25
100
AcDbLine
 10
350.1049913696117
 20
306.1541500432732
 30
0.0
 11
350.3423223862376
 21
305.1336143292485
 31
0.0
  0
LINE
  5
1F7
330
70
100
AcDbEntity
  8
HONTAI
 62
     9
420
 12632256
370
    25
100
AcDbLine
 10
350.3423223862376
 20
305.1336143292485
 30
0.0
 11
353.0715552859624
 21
306.512863583516
 31
0.0
  0
LINE
  5
1F8
330
70
100
AcDbEntity
  8
HONTAI
 62
     9
420
 12632256
370
    25
100
AcDbLine
 10
353.0715552859624
 20
306.512863583516
 30
0.0
 11
353.0715552859624
 21
305.4923278694912
 31
0.0
  0
LINE
  5
1F9
330
70
100
AcDbEntity
  8
HONTAI
 62
     9
420
 12632256
370
    25
100
AcDbLine
 10
353.0715552859624
 20
305.4923278694912
 30
0.0
 11
355.8023918960064
 21
306.9590053596507
 31
0.0
  0
LINE
  5
1FA
330
70
100
AcDbEntity
  8
HONTAI
 62
     9
420
 12632256
370
    25
100
AcDbLine
 10
355.8023918960064
 20
306.9590053596507
 30
0.0
 11
355.5927167962314
 21
305.8729815990105
 31
0.0
  0
LINE
  5
1FB
330
70
100
AcDbEntity
  8
HONTAI
 62
     9
420
 12632256
370
    25
100
AcDbLine
 10
355.5927167962314
 20
305.8729815990105
 30
0.0
 11
358.354651307638
 21
307.1726620235115
 31
0.0
  0
LINE
  5
1FC
330
70
100
AcDbEntity
  8
HONTAI
 62
     9
420
 12632256
370
    25
100
AcDbLine
 10
358.354651307638
 20
307.1726620235115
 30
0.0
 11
357.8841982180275
 21
306.1521263094765
 31
0.0
  0
LINE
  5
1FD
330
70
100
AcDbEntity
  8
HONTAI
 62
     9
420
 12632256
370
    25
100
AcDbLine
 10
357.8841982180275
 20
306.1521263094765
 30
0.0
 11
360.630975862217
 21
307.5446838813164
 31
0.0
  0
LINE
  5
1FE
330
70
100
AcDbEntity
  8
HONTAI
 62
     9
420
 12632256
370
    25
100
AcDbLine
 10
360.630975862217
 20
307.5446838813164
 30
0.0
 11
359.9293690925298
 21
306.5241481672814
 31
0.0
  0
LINE
  5
1FF
330
70
100
AcDbEntity
  8
HONTAI
 62
     9
420
 12632256
370
    25
100
AcDbLine
 10
359.9293690925298
 20
306.5241481672814
 30
0.0
 11
362.6400852330904
 21
307.9980832291302
 31
0.0
  0
LINE
  5
200
330
70
100
AcDbEntity
  8
HONTAI
 62
     9
420
 12632256
370
    25
100
AcDbLine
 10
362.6400852330904
 20
307.9980832291302
 30
0.0
 11
361.712664434485
 21
306.9009564570202
 31
0.0
  0
LINE
  5
201
330
70
100
AcDbEntity
  8
HONTAI
 62
     9
420
 12632256
370
    25
100
AcDbLine
 10
361.712664434485
 20
306.9009564570202
 30
0.0
 11
364.3666888848058
 21
308.255585120133
 31
0.0
  0
LINE
  5
202
330
70
100
AcDbEntity
  8
HONTAI
 62
     9
420
 12632256
370
    25
100
AcDbLine
 10
364.3666888848058
 20
308.255585120133
 30
0.0
 11
363.1982582586194
 21
307.2350494061083
 31
0.0
  0
LINE
  5
203
330
70
100
AcDbEntity
  8
HONTAI
 62
     9
420
 12632256
370
    25
100
AcDbLine
 10
363.1982582586194
 20
307.2350494061083
 30
0.0
 11
365.7976463210239
 21
308.662725130886
 31
0.0
  0
LINE
  5
204
330
70
100
AcDbEntity
  8
HONTAI
 62
     9
420
 12632256
370
    25
100
AcDbLine
 10
365.7976463210239
 20
308.662725130886
 30
0.0
 11
364.4414370250963
 21
307.6421894168613
 31
0.0
  0
LINE
  5
205
330
70
100
AcDbEntity
  8
HONTAI
 62
     9
420
 12632256
370
    25
100
AcDbLine
 10
364.4414370250963
 20
307.6421894168613
 30
0.0
 11
366.9220670916238
 21
309.024396075036
 31
0.0
  0
LINE
  5
206
330
70
100
AcDbEntity
  8
HONTAI
 62
     9
420
 12632256
370
    25
100
AcDbLine
 10
366.9220670916238
 20
309.024396075036
 30
0.0
 11
365.3359370973698
 21
307.8995528068495
 31
0.0
  0
LINE
  5
207
330
70
100
AcDbEntity
  8
HONTAI
 62
     9
420
 12632256
370
    25
100
AcDbLine
 10
365.3359370973698
 20
307.8995528068495
 30
0.0
 11
367.7313936755918
 21
309.4213440409329
 31
0.0
  0
LINE
  5
208
330
70
100
AcDbEntity
  8
HONTAI
 62
     9
420
 12632256
370
    25
100
AcDbLine
 10
367.7313936755918
 20
309.4213440409329
 30
0.0
 11
365.9876036155184
 21
308.1353467014388
 31
0.0
  0
LINE
  5
209
330
70
100
AcDbEntity
  8
HONTAI
 62
     9
420
 12632256
370
    25
100
AcDbLine
 10
365.9876036155184
 20
308.1353467014388
 30
0.0
 11
368.2194666089389
 21
309.7348777372724
 31
0.0
  0
LINE
  5
20A
330
70
100
AcDbEntity
  8
HONTAI
 62
     9
420
 12632256
370
    25
100
AcDbLine
 10
368.2194666089389
 20
309.7348777372724
 30
0.0
 11
366.3010782090432
 21
308.274202110273
 31
0.0
  0
LINE
  5
20B
330
70
100
AcDbEntity
  8
HONTAI
 62
     9
420
 12632256
370
    25
100
AcDbLine
 10
366.3010782090432
 20
308.274202110273
 30
0.0
 11
368.3825713619158
 21
309.8524528733971
 31
0.0
  0
LINE
  5
20C
330
70
100
AcDbEntity
  8
HONTAI
 62
     9
420
 12632256
370
    25
100
AcDbLine
 10
325.5200713726314
 20
305.1932707771023
 30
0.0
 11
325.5200713726314
 21
364.8083354321823
 31
0.0
  0
LINE
  5
20E
330
70
100
AcDbEntity
  8
1
 62
     4
420
    65535
370
    25
100
AcDbLine
 10
398.0695344317358
 20
79.45204268108746
 30
0.0
 11
396.6897569307806
 21
79.45204268108746
 31
0.0
  0
LINE
  5
20F
330
70
100
AcDbEntity
  8
1
 62
     4
420
    65535
370
    25
100
AcDbLine
 10
398.0695344317358
 20
80.64649083862361
 30
0.0
 11
395.9207484520155
 21
80.64649083862361
 31
0.0
  0
SPLINE
  5
210
330
70
100
AcDbEntity
  8
1
 62
    18
420
        0
370
    25
100
AcDbSpline
210
0.0
220
0.0
230
1.0
 70
     8
 71
     3
 72
     8
 73
     4
 74
     0
 42
0.0000000001
 43
0.0000000001
 40
0.0
 40
0.0
 40
0.0
 40
0.0
 40
1.0
 40
1.0
 40
1.0
 40
1.0
 10
384.6847142716227
 20
84.29245180866177
 30
0.0
 10
384.6847142716227
 20
84.61201059547908
 30
0.0
 10
384.439401349464
 20
84.87804628575739
 30
0.0
 10
384.1208904858563
 20
84.90390451454482
 30
0.0
  0
LINE
  5
211
330
70
100
AcDbEntity
  8
1
 62
    18
420
        0
370
    25
100
AcDbLine
 10
385.195934628637
 20
84.03678554456925
 30
0.0
 11
380.2882192012919
 21
84.03678554456925
 31
0.0
  0
LINE
  5
212
330
70
100
AcDbEntity
  8
1
 62
    18
420
        0
370
    25
100
AcDbLine
 10
385.195934628637
 20
78.51560568880152
 30
0.0
 11
380.2882192012919
 21
78.51560568880152
 31
0.0
  0
LINE
  5
213
330
70
100
AcDbEntity
  8
1
 62
    18
420
        0
370
    25
100
AcDbLine
 10
386.5251075568745
 20
78.61784976021301
 30
0.0
 11
380.2882192012919
 21
78.61784976021301
 31
0.0
  0
LINE
  5
214
330
70
100
AcDbEntity
  8
1
 62
    18
420
        0
370
    25
100
AcDbLine
 10
372.722157917468
 20
80.04926675985039
 30
0.0
 11
387.8542804851159
 21
80.04926675985039
 31
0.0
  0
LINE
  5
215
330
70
100
AcDbEntity
  8
1
 62
    18
420
        0
370
    25
100
AcDbLine
 10
387.8542804851159
 20
79.94702268844919
 30
0.0
 11
380.2882192012919
 21
79.94702268844919
 31
0.0
  0
SPLINE
  5
216
330
70
100
AcDbEntity
  8
1
 62
    18
420
        0
370
    25
100
AcDbSpline
210
0.0
220
0.0
230
1.0
 70
     8
 71
     3
 72
     8
 73
     4
 74
     0
 42
0.0000000001
 43
0.0000000001
 40
0.0
 40
0.0
 40
0.0
 40
0.0
 40
1.0
 40
1.0
 40
1.0
 40
1.0
 10
375.3805037739642
 20
84.03678554458529
 30
0.0
 10
373.8107184431988
 20
83.31833163817398
 30
0.0
 10
372.7815825500333
 20
81.77462779843983
 30
0.0
 10
372.7221579174712
 20
80.04926675988249
 30
0.0
  0
LINE
  5
217
330
70
100
AcDbEntity
  8
1
 62
    18
420
        0
370
    25
100
AcDbLine
 10
372.7260962162832
 20
80.04926675985039
 30
0.0
 11
372.722157917468
 21
79.94702268844919
 31
0.0
  0
LINE
  5
218
330
70
100
AcDbEntity
  8
1
 62
    18
420
        0
370
    25
100
AcDbLine
 10
375.3805037739494
 20
78.61784976021301
 30
0.0
 11
375.3805037739494
 21
78.51560568880152
 31
0.0
  0
LINE
  5
219
330
70
100
AcDbEntity
  8
1
 62
    18
420
        0
370
    25
100
AcDbLine
 10
375.3805037739494
 20
78.51560568880152
 30
0.0
 11
380.2882192012919
 21
78.51560568880152
 31
0.0
  0
LINE
  5
21A
330
70
100
AcDbEntity
  8
1
 62
    18
420
        0
370
    25
100
AcDbLine
 10
374.051330845708
 20
78.61784976021301
 30
0.0
 11
380.2882192012919
 21
78.61784976021301
 31
0.0
  0
LINE
  5
21B
330
70
100
AcDbEntity
  8
1
 62
    18
420
        0
370
    25
100
AcDbLine
 10
372.722157917468
 20
79.94702268844919
 30
0.0
 11
380.2882192012919
 21
79.94702268844919
 31
0.0
  0
SPLINE
  5
21C
330
70
100
AcDbEntity
  8
1
 62
    18
420
        0
370
    25
100
AcDbSpline
210
0.0
220
0.0
230
1.0
 70
     8
 71
     3
 72
     8
 73
     4
 74
     0
 42
0.0000000001
 43
0.0000000001
 40
0.0
 40
0.0
 40
0.0
 40
0.0
 40
1.0
 40
1.0
 40
1.0
 40
1.0
 10
372.7221579174687
 20
79.94702268844919
 30
0.0
 10
372.7221579174687
 20
79.21294075029471
 30
0.0
 10
373.3172489075536
 20
78.61784976020979
 30
0.0
 10
374.051330845708
 20
78.61784976020979
 30
0.0
  0
SPLINE
  5
21D
330
70
100
AcDbEntity
  8
1
 62
    18
420
        0
370
    25
100
AcDbSpline
210
0.0
220
0.0
230
1.0
 70
     8
 71
     3
 72
     8
 73
     4
 74
     0
 42
0.0000000001
 43
0.0000000001
 40
0.0
 40
0.0
 40
0.0
 40
0.0
 40
1.0
 40
1.0
 40
1.0
 40
1.0
 10
376.4555479167327
 20
84.90390451454482
 30
0.0
 10
376.137037053123
 20
84.87804628576061
 30
0.0
 10
375.8917241309612
 20
84.612010595481
 30
0.0
 10
375.8917241309612
 20
84.29245180866177
 30
0.0
  0
LINE
  5
21E
330
70
100
AcDbEntity
  8
1
 62
    18
420
        0
370
    25
100
AcDbLine
 10
375.8917241309631
 20
84.03678554456925
 30
0.0
 11
375.8917241309631
 21
84.29245180866177
 31
0.0
  0
LINE
  5
21F
330
70
100
AcDbEntity
  8
1
 62
    18
420
        0
370
    25
100
AcDbLine
 10
375.3805037739494
 20
84.03678554456925
 30
0.0
 11
380.2882192012919
 21
84.03678554456925
 31
0.0
  0
SPLINE
  5
220
330
70
100
AcDbEntity
  8
1
 62
    18
420
        0
370
    25
100
AcDbSpline
210
0.0
220
0.0
230
1.0
 70
     8
 71
     3
 72
     8
 73
     4
 74
     0
 42
0.0000000001
 43
0.0000000001
 40
0.0
 40
0.0
 40
0.0
 40
0.0
 40
1.0
 40
1.0
 40
1.0
 40
1.0
 10
384.1208904860475
 20
84.9039045145275
 30
0.0
 10
381.5699726460299
 20
85.11100017329651
 30
0.0
 10
379.0064657565539
 20
85.11100017329651
 30
0.0
 10
376.4555479165363
 20
84.9039045145275
 30
0.0
  0
SPLINE
  5
221
330
70
100
AcDbEntity
  8
1
 62
    18
420
        0
370
    25
100
AcDbSpline
210
0.0
220
0.0
230
1.0
 70
     8
 71
     3
 72
    14
 73
    10
 74
     0
 42
0.0000000001
 43
0.0000000001
 40
0.0
 40
0.0
 40
0.0
 40
0.0
 40
1.0
 40
1.0
 40
1.0
 40
2.0
 40
2.0
 40
2.0
 40
3.0
 40
3.0
 40
3.0
 40
3.0
 10
394.5538725843407
 20
78.78682470610346
 30
0.0
 10
394.9934445553497
 20
79.07275201312273
 30
0.0
 10
395.433016526358
 20
79.35867932015293
 30
0.0
 10
395.3444796784856
 20
79.63956670907193
 30
0.0
 10
395.2570974459162
 20
79.91679102566031
 30
0.0
 10
394.6552907882626
 20
80.18910601885849
 30
0.0
 10
394.5538725843432
 20
80.47151014540856
 30
0.0
 10
394.4470051940103
 20
80.76908780757447
 30
0.0
 10
394.8957424362486
 20
81.0778679049415
 30
0.0
 10
395.3444796784876
 20
81.38664800231497
 30
0.0
  0
SPLINE
  5
222
330
70
100
AcDbEntity
  8
1
 62
    18
420
        0
370
    25
100
AcDbSpline
210
0.0
220
0.0
230
1.0
 70
     8
 71
     3
 72
     8
 73
     4
 74
     0
 42
0.0000000001
 43
0.0000000001
 40
0.0
 40
0.0
 40
0.0
 40
0.0
 40
1.0
 40
1.0
 40
1.0
 40
1.0
 10
387.8542804851139
 20
80.04926675988249
 30
0.0
 10
387.7948558525519
 20
81.77462779843983
 30
0.0
 10
386.7657199593864
 20
83.31833163817398
 30
0.0
 10
385.195934628621
 20
84.03678554458529
 30
0.0
  0
LINE
  5
223
330
70
100
AcDbEntity
  8
1
 62
     4
420
    65535
370
    25
100
AcDbLine
 10
395.323924434479
 20
79.46828303074203
 30
0.0
 11
387.7650708681428
 21
79.46828303074203
 31
0.0
  0
LINE
  5
224
330
70
100
AcDbEntity
  8
1
 62
     4
420
    65535
370
    25
100
AcDbLine
 10
372.8113675344398
 20
79.46828303074203
 30
0.0
 11
327.3910535150212
 21
79.46828303073175
 31
0.0
  0
LINE
  5
225
330
70
100
AcDbEntity
  8
1
 62
    18
420
        0
370
    25
100
AcDbLine
 10
385.195934628637
 20
78.61784976021301
 30
0.0
 11
385.195934628637
 21
78.51560568880152
 31
0.0
  0
LINE
  5
226
330
70
100
AcDbEntity
  8
1
 62
    18
420
        0
370
    25
100
AcDbLine
 10
387.8503421862994
 20
80.04926675985039
 30
0.0
 11
387.8542804851159
 21
79.94702268844919
 31
0.0
  0
SPLINE
  5
227
330
70
100
AcDbEntity
  8
1
 62
    18
420
        0
370
    25
100
AcDbSpline
210
0.0
220
0.0
230
1.0
 70
     8
 71
     3
 72
     8
 73
     4
 74
     0
 42
0.0000000001
 43
0.0000000001
 40
0.0
 40
0.0
 40
0.0
 40
0.0
 40
1.0
 40
1.0
 40
1.0
 40
1.0
 10
386.5251075568745
 20
78.61784976020979
 30
0.0
 10
387.259189495029
 20
78.61784976020979
 30
0.0
 10
387.8542804851139
 20
79.21294075029471
 30
0.0
 10
387.8542804851139
 20
79.94702268844919
 30
0.0
  0
LINE
  5
228
330
70
100
AcDbEntity
  8
1
 62
    18
420
        0
370
    25
100
AcDbLine
 10
387.8542804851159
 20
79.94702268844919
 30
0.0
 11
387.1149376955766
 21
79.94702268844919
 31
0.0
  0
SPLINE
  5
229
330
70
100
AcDbEntity
  8
1
 62
     4
420
    65535
370
    25
100
AcDbSpline
210
0.0
220
0.0
230
1.0
 70
     8
 71
     3
 72
    14
 73
    10
 74
     0
 42
0.0000000001
 43
0.0000000001
 40
0.0
 40
0.0
 40
0.0
 40
0.0
 40
1.0
 40
1.0
 40
1.0
 40
2.0
 40
2.0
 40
2.0
 40
3.0
 40
3.0
 40
3.0
 40
3.0
 10
395.9162626724219
 20
78.76318833045043
 30
0.0
 10
396.3558346434322
 20
79.04911563747998
 30
0.0
 10
396.7954066144443
 20
79.33504294452622
 30
0.0
 10
396.70686976657
 20
79.61593033344458
 30
0.0
 10
396.6194875339994
 20
79.89315465003105
 30
0.0
 10
396.0176808763431
 20
80.16546964321191
 30
0.0
 10
395.9162626724206
 20
80.44787376975682
 30
0.0
 10
395.8093952820844
 20
80.74545143191953
 30
0.0
 10
396.2581325243273
 20
81.05423152929878
 30
0.0
 10
396.7068697665688
 20
81.36301162667223
 30
0.0
  0
LINE
  5
22A
330
70
100
AcDbEntity
  8
1
 62
     4
420
    65535
370
    25
100
AcDbLine
 10
394.5557165971333
 20
80.66273118827815
 30
0.0
 11
387.7914085468844
 21
80.66273118827815
 31
0.0
  0
LINE
  5
22B
330
70
100
AcDbEntity
  8
1
 62
     4
420
    65535
370
    25
100
AcDbLine
 10
372.7850298556994
 20
80.66273118827815
 30
0.0
 11
327.3910535150212
 21
80.66273118827815
 31
0.0
  0
LINE
  5
22C
330
70
100
AcDbEntity
  8
1
 62
    18
420
        0
370
    25
100
AcDbLine
 10
384.684714271622
 20
84.03678554456925
 30
0.0
 11
384.684714271622
 21
84.29245180866177
 31
0.0
  0
LINE
  5
22D
330
70
100
AcDbEntity
  8
1
 62
    18
420
        0
370
    25
100
AcDbLine
 10
384.684714271622
 20
84.03678554456925
 30
0.0
 11
384.684714271622
 21
84.29245180866177
 31
0.0
  0
LINE
  5
22E
330
70
100
AcDbEntity
  8
1
 62
     4
420
    65535
370
    25
100
AcDbLine
 10
404.0998333686736
 20
133.1613153442346
 30
0.0
 11
404.0998333686736
 21
86.67678977556141
 31
0.0
  0
LINE
  5
22F
330
70
100
AcDbEntity
  8
1
 62
     4
420
    65535
370
    25
100
AcDbLine
 10
407.1671555107636
 20
142.9767461989145
 30
0.0
 11
404.713297797091
 21
142.9767461989145
 31
0.0
  0
LINE
  5
230
330
70
100
AcDbEntity
  8
1
 62
     4
420
    65535
370
    25
100
AcDbLine
 10
406.9626673679573
 20
142.363281770497
 30
0.0
 11
404.713297797091
 21
142.363281770497
 31
0.0
  0
LINE
  5
231
330
70
100
AcDbEntity
  8
1
 62
     4
420
    65535
370
    25
100
AcDbLine
 10
407.1671555107636
 20
142.5677699133097
 30
0.0
 11
404.713297797091
 21
142.5677699133097
 31
0.0
  0
LINE
  5
232
330
70
100
AcDbEntity
  8
1
 62
     4
420
    65535
370
    25
100
AcDbLine
 10
406.3492029395373
 20
136.8421019147396
 30
0.0
 11
404.713297797091
 21
136.8421019147396
 31
0.0
  0
LINE
  5
233
330
70
100
AcDbEntity
  8
1
 62
     4
420
    65535
370
    25
100
AcDbLine
 10
405.9402266539273
 20
136.4331256291347
 30
0.0
 11
404.713297797091
 21
136.4331256291347
 31
0.0
  0
LINE
  5
234
330
70
100
AcDbEntity
  8
1
 62
     4
420
    65535
370
    25
100
AcDbLine
 10
404.713297797091
 20
133.1613153442346
 30
0.0
 11
405.5436318756088
 21
133.1613153442346
 31
0.0
  0
SPLINE
  5
235
330
70
100
AcDbEntity
  8
1
 62
     4
420
    65535
370
    25
100
AcDbSpline
210
0.0
220
0.0
230
1.0
 70
     8
 71
     3
 72
    11
 73
     7
 74
     0
 42
0.0000000001
 43
0.0000000001
 40
0.0
 40
0.0
 40
0.0
 40
0.0
 40
1.0
 40
1.0
 40
1.0
 40
2.0
 40
2.0
 40
2.0
 40
2.0
 10
403.0773926546449
 20
137.455566343157
 30
0.0
 10
403.1712147784271
 20
137.4776959685918
 30
0.0
 10
403.2311892747984
 20
137.5686985685369
 30
0.0
 10
403.2818807974498
 20
137.6600544859633
 30
0.0
 10
404.1186748597681
 20
139.168119054996
 30
0.0
 10
402.4258585831382
 20
140.7724626377062
 30
0.0
 10
402.4639282262261
 20
142.363281770497
 30
0.0
  0
LINE
  5
236
330
70
100
AcDbEntity
  8
1
 62
     4
420
    65535
370
    25
100
AcDbLine
 10
403.6788738003791
 20
133.3530478671471
 30
0.0
 11
403.4863689402548
 21
136.4331256291347
 31
0.0
  0
SPLINE
  5
237
330
70
100
AcDbEntity
  8
1
 62
     4
420
    65535
370
    25
100
AcDbSpline
210
0.0
220
0.0
230
1.0
 70
     8
 71
     3
 72
     8
 73
     4
 74
     0
 42
0.0000000001
 43
0.0000000001
 40
0.0
 40
0.0
 40
0.0
 40
0.0
 40
1.0
 40
1.0
 40
1.0
 40
1.0
 10
403.6788738003791
 20
133.3530478671489
 30
0.0
 10
403.6856095748813
 20
133.2452754751221
 30
0.0
 10
403.7749810387547
 20
133.1613153442307
 30
0.0
 10
403.8829637185759
 20
133.1613153442307
 30
0.0
  0
LINE
  5
238
330
70
100
AcDbEntity
  8
1
 62
     4
420
    65535
370
    25
100
AcDbLine
 10
404.713297797091
 20
133.1613153442346
 30
0.0
 11
403.8829637185759
 21
133.1613153442346
 31
0.0
  0
LINE
  5
239
330
70
100
AcDbEntity
  8
1
 62
     4
420
    65535
370
    25
100
AcDbLine
 10
403.4863689402548
 20
136.4331256291347
 30
0.0
 11
403.0773926546449
 21
136.8421019147396
 31
0.0
  0
LINE
  5
23A
330
70
100
AcDbEntity
  8
1
 62
     4
420
    65535
370
    25
100
AcDbLine
 10
403.0773926546449
 20
136.8421019147396
 30
0.0
 11
404.713297797091
 21
136.8421019147396
 31
0.0
  0
LINE
  5
23B
330
70
100
AcDbEntity
  8
1
 62
     4
420
    65535
370
    25
100
AcDbLine
 10
403.4863689402548
 20
136.4331256291347
 30
0.0
 11
404.713297797091
 21
136.4331256291347
 31
0.0
  0
LINE
  5
23C
330
70
100
AcDbEntity
  8
1
 62
     4
420
    65535
370
    25
100
AcDbLine
 10
403.0773926546449
 20
136.8421019147396
 30
0.0
 11
403.0773926546449
 21
137.455566343157
 31
0.0
  0
LINE
  5
23D
330
70
100
AcDbEntity
  8
1
 62
     4
420
    65535
370
    25
100
AcDbLine
 10
402.2594400834198
 20
142.5677699133097
 30
0.0
 11
402.2594400834198
 21
142.9767461989145
 31
0.0
  0
LINE
  5
23E
330
70
100
AcDbEntity
  8
1
 62
     4
420
    65535
370
    25
100
AcDbLine
 10
403.5886130116585
 20
146.4530446266171
 30
0.0
 11
403.5886130116585
 21
142.9767461989145
 31
0.0
  0
LINE
  5
23F
330
70
100
AcDbEntity
  8
1
 62
     4
420
    65535
370
    25
100
AcDbLine
 10
403.2818807974498
 20
142.9767461989145
 30
0.0
 11
403.2818807974498
 21
146.4530446266171
 31
0.0
  0
LINE
  5
240
330
70
100
AcDbEntity
  8
1
 62
     4
420
    65535
370
    25
100
AcDbLine
 10
403.2818807974498
 20
146.4530446266171
 30
0.0
 11
403.5886130116585
 21
146.4530446266171
 31
0.0
  0
LINE
  5
241
330
70
100
AcDbEntity
  8
1
 62
     4
420
    65535
370
    25
100
AcDbLine
 10
402.4639282262261
 20
142.363281770497
 30
0.0
 11
404.713297797091
 21
142.363281770497
 31
0.0
  0
LINE
  5
242
330
70
100
AcDbEntity
  8
1
 62
     4
420
    65535
370
    25
100
AcDbLine
 10
402.4639282262261
 20
142.363281770497
 30
0.0
 11
402.2594400834198
 21
142.5677699133097
 31
0.0
  0
LINE
  5
243
330
70
100
AcDbEntity
  8
1
 62
     4
420
    65535
370
    25
100
AcDbLine
 10
402.2594400834198
 20
142.5677699133097
 30
0.0
 11
404.713297797091
 21
142.5677699133097
 31
0.0
  0
LINE
  5
244
330
70
100
AcDbEntity
  8
1
 62
     4
420
    65535
370
    25
100
AcDbLine
 10
402.2594400834198
 20
142.9767461989145
 30
0.0
 11
404.713297797091
 21
142.9767461989145
 31
0.0
  0
SPLINE
  5
245
330
70
100
AcDbEntity
  8
1
 62
     4
420
    65535
370
    25
100
AcDbSpline
210
0.0
220
0.0
230
1.0
 70
     8
 71
     3
 72
    11
 73
     7
 74
     0
 42
0.0000000001
 43
0.0000000001
 40
0.0
 40
0.0
 40
0.0
 40
0.0
 40
1.0
 40
1.0
 40
1.0
 40
2.0
 40
2.0
 40
2.0
 40
2.0
 10
406.3492029395373
 20
137.455566343157
 30
0.0
 10
406.255380815755
 20
137.4776959685918
 30
0.0
 10
406.1954063193836
 20
137.5686985685324
 30
0.0
 10
406.1447147967323
 20
137.660054485955
 30
0.0
 10
405.3079207344088
 20
139.1681190549273
 30
0.0
 10
407.0007370110452
 20
140.7724626377062
 30
0.0
 10
406.9626673679573
 20
142.363281770497
 30
0.0
  0
LINE
  5
246
330
70
100
AcDbEntity
  8
1
 62
     4
420
    65535
370
    25
100
AcDbLine
 10
405.7477217938044
 20
133.3530478671471
 30
0.0
 11
405.9402266539273
 21
136.4331256291347
 31
0.0
  0
SPLINE
  5
247
330
70
100
AcDbEntity
  8
1
 62
     4
420
    65535
370
    25
100
AcDbSpline
210
0.0
220
0.0
230
1.0
 70
     8
 71
     3
 72
     8
 73
     4
 74
     0
 42
0.0000000001
 43
0.0000000001
 40
0.0
 40
0.0
 40
0.0
 40
0.0
 40
1.0
 40
1.0
 40
1.0
 40
1.0
 10
405.5436318756088
 20
133.1613153442307
 30
0.0
 10
405.65161455543
 20
133.1613153442307
 30
0.0
 10
405.7409860193033
 20
133.2452754751221
 30
0.0
 10
405.7477217938056
 20
133.3530478671489
 30
0.0
  0
LINE
  5
248
330
70
100
AcDbEntity
  8
1
 62
     4
420
    65535
370
    25
100
AcDbLine
 10
405.9402266539273
 20
136.4331256291347
 30
0.0
 11
406.3492029395373
 21
136.8421019147396
 31
0.0
  0
LINE
  5
249
330
70
100
AcDbEntity
  8
1
 62
     4
420
    65535
370
    25
100
AcDbLine
 10
406.3492029395373
 20
136.8421019147396
 30
0.0
 11
406.3492029395373
 21
137.455566343157
 31
0.0
  0
LINE
  5
24A
330
70
100
AcDbEntity
  8
1
 62
     4
420
    65535
370
    25
100
AcDbLine
 10
406.1447147967336
 20
142.9767461989145
 30
0.0
 11
406.1447147967336
 21
146.4530446266171
 31
0.0
  0
LINE
  5
24B
330
70
100
AcDbEntity
  8
1
 62
     4
420
    65535
370
    25
100
AcDbLine
 10
405.8379825825236
 20
146.4530446266171
 30
0.0
 11
405.8379825825236
 21
142.9767461989145
 31
0.0
  0
LINE
  5
24C
330
70
100
AcDbEntity
  8
1
 62
     4
420
    65535
370
    25
100
AcDbLine
 10
407.1671555107636
 20
142.5677699133097
 30
0.0
 11
407.1671555107636
 21
142.9767461989145
 31
0.0
  0
LINE
  5
24D
330
70
100
AcDbEntity
  8
1
 62
     4
420
    65535
370
    25
100
AcDbLine
 10
406.9626673679573
 20
142.363281770497
 30
0.0
 11
407.1671555107636
 21
142.5677699133097
 31
0.0
  0
LINE
  5
24E
330
70
100
AcDbEntity
  8
1
 62
     4
420
    65535
370
    25
100
AcDbLine
 10
406.1447147967336
 20
146.4530446266171
 30
0.0
 11
405.8379825825236
 21
146.4530446266171
 31
0.0
  0
SPLINE
  5
24F
330
70
100
AcDbEntity
  8
1
 62
     4
420
    65535
370
    25
100
AcDbSpline
210
0.0
220
0.0
230
1.0
 70
     8
 71
     3
 72
     8
 73
     4
 74
     0
 42
0.0000000001
 43
0.0000000001
 40
0.0
 40
0.0
 40
0.0
 40
0.0
 40
1.0
 40
1.0
 40
1.0
 40
1.0
 10
398.0695344317358
 20
79.45204268108489
 30
0.0
 10
402.0596520733999
 20
79.45204268108489
 30
0.0
 10
405.2942815262123
 20
82.68667213389733
 30
0.0
 10
405.2942815262123
 20
86.67678977556141
 30
0.0
  0
SPLINE
  5
250
330
70
100
AcDbEntity
  8
1
 62
     4
420
    65535
370
    25
100
AcDbSpline
210
0.0
220
0.0
230
1.0
 70
     8
 71
     3
 72
     8
 73
     4
 74
     0
 42
0.0000000001
 43
0.0000000001
 40
0.0
 40
0.0
 40
0.0
 40
0.0
 40
1.0
 40
1.0
 40
1.0
 40
1.0
 10
398.0695344317358
 20
80.64649083862297
 30
0.0
 10
401.3999765715277
 20
80.64649083862297
 30
0.0
 10
404.0998333686742
 20
83.3463476357695
 30
0.0
 10
404.0998333686742
 20
86.67678977556141
 30
0.0
  0
LINE
  5
251
330
70
100
AcDbEntity
  8
1
 62
     4
420
    65535
370
    25
100
AcDbLine
 10
405.3267622255086
 20
133.1613153442346
 30
0.0
 11
405.3267622255086
 21
86.67678977556141
 31
0.0
  0
LINE
  5
253
330
70
100
AcDbEntity
  8
中心線
  6
AI-Linetype-0
 62
     1
420
 16711680
370
    25
100
AcDbLine
 10
404.6970574474429
 20
148.3562800030321
 30
0.0
 11
404.6970574474429
 21
86.67678977556141
 31
0.0
  0
SPLINE
  5
255
330
70
100
AcDbEntity
  8
中心線
  6
AI-Linetype-1
 62
     1
420
 16711680
370
    25
100
AcDbSpline
210
0.0
220
0.0
230
1.0
 70
     8
 71
     3
 72
     8
 73
     4
 74
     0
 42
0.0000000001
 43
0.0000000001
 40
0.0
 40
0.0
 40
0.0
 40
0.0
 40
1.0
 40
1.0
 40
1.0
 40
1.0
 10
398.0695344317358
 20
80.04926675985361
 30
0.0
 10
401.7298143224635
 20
80.04926675985361
 30
0.0
 10
404.6970574474435
 20
83.01650988483373
 30
0.0
 10
404.6970574474435
 20
86.67678977556141
 30
0.0
  0
ENDSEC
  0
SECTION
  2
OBJECTS
  0
DICTIONARY
  5
C
330
0
100
AcDbDictionary
281
     1
  3
ACAD_COLOR
350
63
  3
ACAD_DETAILVIEWSTYLE
350
6A
  3
ACAD_GROUP
350
D
  3
ACAD_LAYOUT
350
62
  3
ACAD_MATERIAL
350
10
  3
ACAD_MLEADERSTYLE
350
66
  3
ACAD_MLINESTYLE
350
5F
  3
ACAD_PLOTSETTINGS
350
61
  3
ACAD_PLOTSTYLENAME
350
E
  3
ACAD_SCALELIST
350
42
  3
ACAD_SECTIONVIEWSTYLE
350
68
  3
ACAD_TABLESTYLE
350
64
  3
ACAD_VISUALSTYLE
350
29
  3
ACDB_RECOMPOSE_DATA
350
25F
  3
AcDbVariableDictionary
350
257
  0
DICTIONARY
  5
63
102
{ACAD_REACTORS
330
C
102
}
330
C
100
AcDbDictionary
281
     1
  0
DICTIONARY
  5
6A
102
{ACAD_REACTORS
330
C
102
}
330
C
100
AcDbDictionary
281
     1
  3
Imperial24
350
6B
  0
DICTIONARY
  5
D
102
{ACAD_REACTORS
330
C
102
}
330
C
100
AcDbDictionary
281
     1
  0
DICTIONARY
  5
62
102
{ACAD_REACTORS
330
C
102
}
330
C
100
AcDbDictionary
281
     1
  3
Layout1
350
6F
  3
Layout2
350
77
  3
Model
350
73
  0
DICTIONARY
  5
10
102
{ACAD_REACTORS
330
C
102
}
330
C
100
AcDbDictionary
281
     1
  3
ByBlock
350
19
  3
ByLayer
350
11
  3
Global
350
21
  0
DICTIONARY
  5
66
102
{ACAD_REACTORS
330
C
102
}
330
C
100
AcDbDictionary
281
     1
  3
Standard
350
67
  0
DICTIONARY
  5
5F
102
{ACAD_REACTORS
330
C
102
}
330
C
100
AcDbDictionary
281
     1
  3
Standard
350
60
  0
DICTIONARY
  5
61
102
{ACAD_REACTORS
330
C
102
}
330
C
100
AcDbDictionary
281
     1
  0
ACDBDICTIONARYWDFLT
  5
E
102
{ACAD_REACTORS
330
C
102
}
330
C
100
AcDbDictionary
281
     1
  3
Normal
350
F
100
AcDbDictionaryWithDefault
340
F
  0
DICTIONARY
  5
42
102
{ACAD_REACTORS
330
C
102
}
330
C
100
AcDbDictionary
281
     1
  3
A0
350
43
  3
A1
350
44
  3
A2
350
45
  3
A3
350
46
  3
A4
350
47
  3
A5
350
48
  3
A6
350
49
  3
A7
350
4A
  3
A8
350
4B
  3
A9
350
4C
  3
B0
350
4D
  3
B1
350
4E
  3
B2
350
4F
  3
B3
350
50
  3
B4
350
51
  3
B5
350
52
  3
B6
350
53
  0
DICTIONARY
  5
68
102
{ACAD_REACTORS
330
C
102
}
330
C
100
AcDbDictionary
281
     1
  3
Imperial24
350
69
  0
DICTIONARY
  5
64
102
{ACAD_REACTORS
330
C
102
}
330
C
100
AcDbDictionary
281
     1
  3
Standard
350
65
  0
DICTIONARY
  5
29
102
{ACAD_REACTORS
330
C
102
}
330
C
100
AcDbDictionary
281
     1
  3
2dWireframe
350
2F
  3
Basic
350
2E
  3
Brighten
350
35
  3
ColorChange
350
39
  3
Conceptual
350
32
  3
Dim
350
34
  3
EdgeColorOff
350
41
  3
Facepattern
350
38
  3
Flat
350
2A
  3
FlatWithEdges
350
2B
  3
Gouraud
350
2C
  3
GouraudWithEdges
350
2D
  3
Hidden
350
31
  3
JitterOff
350
3F
  3
Linepattern
350
37
  3
OverhangOff
350
40
  3
Realistic
350
33
  3
Shaded
350
3E
  3
Shaded with edges
350
3D
  3
Shades of Gray
350
3A
  3
Sketchy
350
3B
  3
Thicken
350
36
  3
Wireframe
350
30
  3
X-Ray
350
3C
  0
XRECORD
  5
25F
102
{ACAD_REACTORS
330
C
102
}
330
C
100
AcDbXrecord
280
     1
 90
        1
330
65
  0
DICTIONARY
  5
257
102
{ACAD_REACTORS
330
C
102
}
330
C
100
AcDbDictionary
281
     1
  3
CANNOSCALE
350
25C
  3
CMLEADERSTYLE
350
259
  3
CTABLESTYLE
350
258
  3
CVIEWDETAILSTYLE
350
25A
  3
CVIEWSECTIONSTYLE
350
25B
  0
ACDBDETAILVIEWSTYLE
  5
6B
102
{ACAD_REACTORS
330
6A
102
}
330
6A
100
AcDbModelDocViewStyle
 70
     0
  3
Imperial24
290
     1
300
Imperial24
 90
        0
100
AcDbDetailViewStyle
 70
     0
 71
     0
 90
        3
 71
     1
340
55
 62
   256
 40
0.24
340
0
 62
   256
 40
0.24
300

 40
0.36
280
     3
 71
     2
340
5D
 90
       25
 62
   256
 71
     3
340
55
 62
   256
 40
0.24
 90
        1
 40
0.75
 90
        1
300
%<\AcVar ViewType \f "%tc1">% %<\AcVar ViewDetailId>%\PSCALE %<\AcVar ViewScale \f "%sn">%
 71
     4
340
5D
 90
       25
 62
   256
340
5D
 90
       25
 62
   256
280
     0
  0
LAYOUT
  5
6F
102
{ACAD_REACTORS
330
62
102
}
330
62
100
AcDbPlotSettings
  1

  2

  4

  6

 40
0.0
 41
0.0
 42
0.0
 43
0.0
 44
0.0
 45
0.0
 46
0.0
 47
0.0
 48
0.0
 49
0.0
140
0.0
141
0.0
142
1.0
143
1.0
 70
   688
 72
     0
 73
     0
 74
     5
  7

 75
    16
147
1.0
 76
     0
 77
     2
 78
   300
148
0.0
149
0.0
100
AcDbLayout
  1
Layout1
 70
     1
 71
     1
 10
0.0
 20
0.0
 11
12.0
 21
9.0
 12
0.0
 22
0.0
 32
0.0
 14
0.0
 24
0.0
 34
0.0
 15
0.0
 25
0.0
 35
0.0
146
0.0
 13
0.0
 23
0.0
 33
0.0
 16
1.0
 26
0.0
 36
0.0
 17
0.0
 27
1.0
 37
0.0
 76
     0
330
6C
  0
LAYOUT
  5
77
102
{ACAD_REACTORS
330
62
102
}
330
62
100
AcDbPlotSettings
  1

  2

  4

  6

 40
0.0
 41
0.0
 42
0.0
 43
0.0
 44
0.0
 45
0.0
 46
0.0
 47
0.0
 48
0.0
 49
0.0
140
0.0
141
0.0
142
1.0
143
1.0
 70
   688
 72
     0
 73
     0
 74
     5
  7

 75
    16
147
1.0
 76
     0
 77
     2
 78
   300
148
0.0
149
0.0
100
AcDbLayout
  1
Layout2
 70
     1
 71
     2
 10
0.0
 20
0.0
 11
12.0
 21
9.0
 12
0.0
 22
0.0
 32
0.0
 14
0.0
 24
0.0
 34
0.0
 15
0.0
 25
0.0
 35
0.0
146
0.0
 13
0.0
 23
0.0
 33
0.0
 16
1.0
 26
0.0
 36
0.0
 17
0.0
 27
1.0
 37
0.0
 76
     0
330
74
  0
LAYOUT
  5
73
102
{ACAD_REACTORS
330
62
102
}
330
62
100
AcDbPlotSettings
  1

  2

  4

  6

 40
0.0
 41
0.0
 42
0.0
 43
0.0
 44
0.0
 45
0.0
 46
0.0
 47
0.0
 48
0.0
 49
0.0
140
0.0
141
0.0
142
1.0
143
1.0
 70
  1712
 72
     0
 73
     0
 74
     0
  7

 75
     0
147
1.0
 76
     0
 77
     2
 78
   300
148
0.0
149
0.0
100
AcDbLayout
  1
Model
 70
     1
 71
     0
 10
0.0
 20
0.0
 11
12.0
 21
9.0
 12
0.0
 22
0.0
 32
0.0
 14
0.0
 24
0.0
 34
0.0
 15
0.0
 25
0.0
 35
0.0
146
0.0
 13
0.0
 23
0.0
 33
0.0
 16
1.0
 26
0.0
 36
0.0
 17
0.0
 27
1.0
 37
0.0
 76
     0
330
70
  0
MATERIAL
  5
19
102
{ACAD_XDICTIONARY
360
1A
102
}
102
{ACAD_REACTORS
330
10
102
}
330
10
100
AcDbMaterial
  1
ByBlock
 72
     0
 43
0.0208333333333333
 43
0.0
 43
0.0
 43
0.0
 43
0.0
 43
0.0208333333333333
 43
0.0
 43
0.0
 43
0.0
 43
0.0
 43
1.0
 43
0.0
 43
0.0
 43
0.0
 43
0.0
 43
1.0
 77
     0
 47
0.0208333333333333
 47
0.0
 47
0.0
 47
0.0
 47
0.0
 47
0.0208333333333333
 47
0.0
 47
0.0
 47
0.0
 47
0.0
 47
1.0
 47
0.0
 47
0.0
 47
0.0
 47
0.0
 47
1.0
171
     0
 49
0.0208333333333333
 49
0.0
 49
0.0
 49
0.0
 49
0.0
 49
0.0208333333333333
 49
0.0
 49
0.0
 49
0.0
 49
0.0
 49
1.0
 49
0.0
 49
0.0
 49
0.0
 49
0.0
 49
1.0
175
     0
142
0.0208333333333333
142
0.0
142
0.0
142
0.0
142
0.0
142
0.0208333333333333
142
0.0
142
0.0
142
0.0
142
0.0
142
1.0
142
0.0
142
0.0
142
0.0
142
0.0
142
1.0
179
     0
144
0.0208333333333333
144
0.0
144
0.0
144
0.0
144
0.0
144
0.0208333333333333
144
0.0
144
0.0
144
0.0
144
0.0
144
1.0
144
0.0
144
0.0
144
0.0
144
0.0
144
1.0
147
0.0208333333333333
147
0.0
147
0.0
147
0.0
147
0.0
147
0.0208333333333333
147
0.0
147
0.0
147
0.0
147
0.0
147
1.0
147
0.0
147
0.0
147
0.0
147
0.0
147
1.0
  0
MATERIAL
  5
11
102
{ACAD_XDICTIONARY
360
12
102
}
102
{ACAD_REACTORS
330
10
102
}
330
10
100
AcDbMaterial
  1
ByLayer
 72
     0
 43
0.0208333333333333
 43
0.0
 43
0.0
 43
0.0
 43
0.0
 43
0.0208333333333333
 43
0.0
 43
0.0
 43
0.0
 43
0.0
 43
1.0
 43
0.0
 43
0.0
 43
0.0
 43
0.0
 43
1.0
 77
     0
 47
0.0208333333333333
 47
0.0
 47
0.0
 47
0.0
 47
0.0
 47
0.0208333333333333
 47
0.0
 47
0.0
 47
0.0
 47
0.0
 47
1.0
 47
0.0
 47
0.0
 47
0.0
 47
0.0
 47
1.0
171
     0
 49
0.0208333333333333
 49
0.0
 49
0.0
 49
0.0
 49
0.0
 49
0.0208333333333333
 49
0.0
 49
0.0
 49
0.0
 49
0.0
 49
1.0
 49
0.0
 49
0.0
 49
0.0
 49
0.0
 49
1.0
175
     0
142
0.0208333333333333
142
0.0
142
0.0
142
0.0
142
0.0
142
0.0208333333333333
142
0.0
142
0.0
142
0.0
142
0.0
142
1.0
142
0.0
142
0.0
142
0.0
142
0.0
142
1.0
179
     0
144
0.0208333333333333
144
0.0
144
0.0
144
0.0
144
0.0
144
0.0208333333333333
144
0.0
144
0.0
144
0.0
144
0.0
144
1.0
144
0.0
144
0.0
144
0.0
144
0.0
144
1.0
147
0.0208333333333333
147
0.0
147
0.0
147
0.0
147
0.0
147
0.0208333333333333
147
0.0
147
0.0
147
0.0
147
0.0
147
1.0
147
0.0
147
0.0
147
0.0
147
0.0
147
1.0
  0
MATERIAL
  5
21
102
{ACAD_XDICTIONARY
360
22
102
}
102
{ACAD_REACTORS
330
10
102
}
330
10
100
AcDbMaterial
  1
Global
 72
     0
 43
0.0208333333333333
 43
0.0
 43
0.0
 43
0.0
 43
0.0
 43
0.0208333333333333
 43
0.0
 43
0.0
 43
0.0
 43
0.0
 43
1.0
 43
0.0
 43
0.0
 43
0.0
 43
0.0
 43
1.0
 77
     0
 47
0.0208333333333333
 47
0.0
 47
0.0
 47
0.0
 47
0.0
 47
0.0208333333333333
 47
0.0
 47
0.0
 47
0.0
 47
0.0
 47
1.0
 47
0.0
 47
0.0
 47
0.0
 47
0.0
 47
1.0
171
     0
 49
0.0208333333333333
 49
0.0
 49
0.0
 49
0.0
 49
0.0
 49
0.0208333333333333
 49
0.0
 49
0.0
 49
0.0
 49
0.0
 49
1.0
 49
0.0
 49
0.0
 49
0.0
 49
0.0
 49
1.0
175
     0
142
0.0208333333333333
142
0.0
142
0.0
142
0.0
142
0.0
142
0.0208333333333333
142
0.0
142
0.0
142
0.0
142
0.0
142
1.0
142
0.0
142
0.0
142
0.0
142
0.0
142
1.0
179
     0
144
0.0208333333333333
144
0.0
144
0.0
144
0.0
144
0.0
144
0.0208333333333333
144
0.0
144
0.0
144
0.0
144
0.0
144
1.0
144
0.0
144
0.0
144
0.0
144
0.0
144
1.0
147
0.0208333333333333
147
0.0
147
0.0
147
0.0
147
0.0
147
0.0208333333333333
147
0.0
147
0.0
147
0.0
147
0.0
147
1.0
147
0.0
147
0.0
147
0.0
147
0.0
147
1.0
  0
MLEADERSTYLE
  5
67
102
{ACAD_REACTORS
330
66
102
}
330
66
100
AcDbMLeaderStyle
179
     2
170
     2
171
     1
172
     0
 90
        2
 40
0.0
 41
0.0
173
     1
 91
-1056964608
340
5B
 92
       -2
290
     1
 42
0.09
291
     1
 43
0.36
  3
Standard
 44
0.18
300

342
55
174
     1
178
     6
175
     1
176
     0
 93
-1056964608
 45
0.18
292
     0
297
     0
 46
0.18
 94
-1056964608
 47
1.0
 49
1.0
140
1.0
293
     1
141
0.0
294
     1
177
     0
142
1.0
295
     1
296
     0
143
0.125
271
     0
272
     9
273
     9
298
     1
  0
MLINESTYLE
  5
60
102
{ACAD_REACTORS
330
5F
102
}
330
5F
100
AcDbMlineStyle
  2
STANDARD
 70
     0
  3

 62
   256
 51
90.0
 52
90.0
 71
     2
 49
0.5
 62
   256
  6
BYLAYER
 49
-0.5
 62
   256
  6
BYLAYER
  0
ACDBPLACEHOLDER
  5
F
102
{ACAD_REACTORS
330
E
102
}
330
E
  0
SCALE
  5
43
102
{ACAD_REACTORS
330
42
102
}
330
42
100
AcDbScale
 70
     0
300
1:1
140
1.0
141
1.0
290
     1
  0
SCALE
  5
44
102
{ACAD_REACTORS
330
42
102
}
330
42
100
AcDbScale
 70
     0
300
1/128" = 1'-0"
140
0.0078125
141
12.0
290
     0
  0
SCALE
  5
45
102
{ACAD_REACTORS
330
42
102
}
330
42
100
AcDbScale
 70
     0
300
1/64" = 1'-0"
140
0.015625
141
12.0
290
     0
  0
SCALE
  5
46
102
{ACAD_REACTORS
330
42
102
}
330
42
100
AcDbScale
 70
     0
300
1/32" = 1'-0"
140
0.03125
141
12.0
290
     0
  0
SCALE
  5
47
102
{ACAD_REACTORS
330
42
102
}
330
42
100
AcDbScale
 70
     0
300
1/16" = 1'-0"
140
0.0625
141
12.0
290
     0
  0
SCALE
  5
48
102
{ACAD_REACTORS
330
42
102
}
330
42
100
AcDbScale
 70
     0
300
3/32" = 1'-0"
140
0.09375
141
12.0
290
     0
  0
SCALE
  5
49
102
{ACAD_REACTORS
330
42
102
}
330
42
100
AcDbScale
 70
     0
300
1/8" = 1'-0"
140
0.125
141
12.0
290
     0
  0
SCALE
  5
4A
102
{ACAD_REACTORS
330
42
102
}
330
42
100
AcDbScale
 70
     0
300
3/16" = 1'-0"
140
0.1875
141
12.0
290
     0
  0
SCALE
  5
4B
102
{ACAD_REACTORS
330
42
102
}
330
42
100
AcDbScale
 70
     0
300
1/4" = 1'-0"
140
0.25
141
12.0
290
     0
  0
SCALE
  5
4C
102
{ACAD_REACTORS
330
42
102
}
330
42
100
AcDbScale
 70
     0
300
3/8" = 1'-0"
140
0.375
141
12.0
290
     0
  0
SCALE
  5
4D
102
{ACAD_REACTORS
330
42
102
}
330
42
100
AcDbScale
 70
     0
300
1/2" = 1'-0"
140
0.5
141
12.0
290
     0
  0
SCALE
  5
4E
102
{ACAD_REACTORS
330
42
102
}
330
42
100
AcDbScale
 70
     0
300
3/4" = 1'-0"
140
0.75
141
12.0
290
     0
  0
SCALE
  5
4F
102
{ACAD_REACTORS
330
42
102
}
330
42
100
AcDbScale
 70
     0
300
1" = 1'-0"
140
1.0
141
12.0
290
     0
  0
SCALE
  5
50
102
{ACAD_REACTORS
330
42
102
}
330
42
100
AcDbScale
 70
     0
300
1-1/2" = 1'-0"
140
1.5
141
12.0
290
     0
  0
SCALE
  5
51
102
{ACAD_REACTORS
330
42
102
}
330
42
100
AcDbScale
 70
     0
300
3" = 1'-0"
140
3.0
141
12.0
290
     0
  0
SCALE
  5
52
102
{ACAD_REACTORS
330
42
102
}
330
42
100
AcDbScale
 70
     0
300
6" = 1'-0"
140
6.0
141
12.0
290
     0
  0
SCALE
  5
53
102
{ACAD_REACTORS
330
42
102
}
330
42
100
AcDbScale
 70
     0
300
1'-0" = 1'-0"
140
12.0
141
12.0
290
     0
  0
ACDBSECTIONVIEWSTYLE
  5
69
102
{ACAD_REACTORS
330
68
102
}
330
68
100
AcDbModelDocViewStyle
 70
     0
  3
Imperial24
290
     1
300
Imperial24
 90
        0
100
AcDbSectionViewStyle
 70
     0
 71
     0
 90
       78
 71
     1
340
55
 62
   256
 40
0.24
340
0
340
0
 62
   256
 40
0.24
300
I, O, Q, S, X, Z
 40
0.48
 90
        3
 40
0.18
 90
        1
 71
     2
340
5D
 90
       25
 62
   256
340
5D
 90
       50
 62
   256
 40
0.24
 40
0.0
 40
0.24
 71
     3
340
55
 62
   256
 40
0.24
 90
        1
 40
0.75
 90
        1
300
%<\AcVar ViewType \f "%tc1">% %<\AcVar ViewSectionStartId>%-%<\AcVar ViewSectionEndId>%\PSCALE %<\AcVar ViewScale \f "%sn">%
 71
     4
 62
   256
 62
   257
300
ANSI31
 40
1.0
 90
        0
290
     0
290
     0
 90
        6
 40
0.0
 40
1.570796326794896
 40
0.2617993877991494
 40
1.308996938995747
 40
-0.2617993877991494
 40
1.832595714594046
  0
TABLESTYLE
  5
65
102
{ACAD_XDICTIONARY
360
25D
102
}
102
{ACAD_REACTORS
330
64
102
}
330
64
100
AcDbTableStyle
280
     0
  3
Standard
 70
     0
 71
     0
 40
0.06
 41
0.06
280
     0
281
     0
  7
Standard
140
0.18
170
     2
 62
     0
 63
     7
283
     0
 90
      512
 91
        0
  1

274
    -2
284
     1
 64
     0
275
    -2
285
     1
 65
     0
276
    -2
286
     1
 66
     0
277
    -2
287
     1
 67
     0
278
    -2
288
     1
 68
     0
279
    -2
289
     1
 69
     0
  7
Standard
140
0.25
170
     5
 62
     0
 63
     7
283
     0
 90
      512
 91
        0
  1

274
    -2
284
     1
 64
     0
275
    -2
285
     1
 65
     0
276
    -2
286
     1
 66
     0
277
    -2
287
     1
 67
     0
278
    -2
288
     1
 68
     0
279
    -2
289
     1
 69
     0
  7
Standard
140
0.18
170
     5
 62
     0
 63
     7
283
     0
 90
      512
 91
        0
  1

274
    -2
284
     1
 64
     0
275
    -2
285
     1
 65
     0
276
    -2
286
     1
 66
     0
277
    -2
287
     1
 67
     0
278
    -2
288
     1
 68
     0
279
    -2
289
     1
 69
     0
  0
VISUALSTYLE
  5
2F
102
{ACAD_REACTORS
330
29
102
}
330
29
100
AcDbVisualStyle
  2
2dWireframe
 70
     4
177
     3
291
     0
 70
    58
 90
        0
176
     1
 90
        2
176
     1
 90
        0
176
     1
 90
        0
176
     1
 40
0.6
176
     1
 40
30.0
176
     1
 62
     7
420
 16777215
176
     1
 90
        1
176
     1
 90
        4
176
     1
 62
     7
176
     1
 62
   257
176
     1
 90
        1
176
     1
 90
        1
176
     1
 40
1.0
176
     1
 90
        0
176
     1
 62
   257
176
     1
 40
1.0
176
     1
 90
        1
176
     1
 90
        6
176
     1
 90
        2
176
     1
 62
     7
176
     1
 90
        5
176
     1
 90
        0
176
     1
 90
        0
176
     1
290
     0
176
     1
 90
        1
176
     1
 40
0.0
176
     1
 90
        0
176
     1
290
     1
176
     1
290
     1
176
     1
290
     0
176
     1
290
     0
176
     1
290
     0
176
     1
290
     0
176
     1
290
     0
176
     1
290
     0
176
     1
290
     0
176
     1
 90
       50
176
     1
 40
0.0
176
     1
 40
1.0
176
     1
 90
        0
176
     1
 62
    18
420
        0
176
     1
 90
       50
176
     1
 90
        3
176
     1
 62
     5
420
      255
176
     1
290
     0
176
     1
 90
       50
176
     1
 90
       50
176
     1
 90
       50
176
     1
290
     0
176
     1
 90
       50
176
     1
 62
   256
176
     0
 40
1.0
176
     0
 90
        2
176
     1
  1
strokes_ogs.tif
176
     1
290
     0
176
     1
 40
1.0
176
     1
 40
1.0
176
     1
  0
VISUALSTYLE
  5
2E
102
{ACAD_REACTORS
330
29
102
}
330
29
100
AcDbVisualStyle
  2
Basic
 70
     7
177
     3
291
     1
 70
    58
 90
        1
176
     1
 90
        0
176
     1
 90
        1
176
     1
 90
        0
176
     1
 40
0.6
176
     1
 40
30.0
176
     1
 62
     7
420
 16777215
176
     1
 90
        0
176
     1
 90
        4
176
     1
 62
     7
176
     1
 62
   257
176
     1
 90
        1
176
     1
 90
        1
176
     1
 40
1.0
176
     1
 90
        8
176
     1
 62
     7
176
     1
 40
1.0
176
     1
 90
        1
176
     1
 90
        6
176
     1
 90
        2
176
     1
 62
     7
176
     1
 90
        5
176
     1
 90
        0
176
     1
 90
        0
176
     1
290
     0
176
     1
 90
        1
176
     1
 40
0.0
176
     1
 90
        0
176
     1
290
     0
176
     1
290
     1
176
     1
290
     1
176
     1
290
     0
176
     1
290
     0
176
     1
290
     0
176
     1
290
     0
176
     1
290
     0
176
     1
290
     0
176
     1
 90
       50
176
     1
 40
0.0
176
     1
 40
1.0
176
     1
 90
        0
176
     1
 62
    18
420
        0
176
     1
 90
       50
176
     1
 90
        3
176
     1
 62
     5
420
      255
176
     1
290
     0
176
     1
 90
       50
176
     1
 90
       50
176
     1
 90
       50
176
     1
290
     0
176
     1
 90
       50
176
     1
 62
   256
176
     0
 40
1.0
176
     0
 90
        2
176
     1
  1
strokes_ogs.tif
176
     1
290
     0
176
     1
 40
1.0
176
     1
 40
1.0
176
     1
  0
VISUALSTYLE
  5
35
102
{ACAD_REACTORS
330
29
102
}
330
29
100
AcDbVisualStyle
  2
Brighten
 70
    12
177
     3
291
     1
 70
    58
 90
        2
176
     1
 90
        2
176
     1
 90
        0
176
     1
 90
        0
176
     1
 40
0.6
176
     1
 40
30.0
176
     1
 62
     7
420
 16777215
176
     1
 90
        1
176
     1
 90
        4
176
     1
 62
     7
176
     1
 62
   257
176
     1
 90
        1
176
     1
 90
        1
176
     1
 40
1.0
176
     1
 90
        8
176
     1
 62
     7
176
     1
 40
1.0
176
     1
 90
        1
176
     1
 90
        6
176
     1
 90
        2
176
     1
 62
     7
176
     1
 90
        5
176
     1
 90
        0
176
     1
 90
        0
176
     1
290
     0
176
     1
 90
        1
176
     1
 40
50.0
176
     1
 90
        0
176
     1
290
     0
176
     1
290
     1
176
     1
290
     1
176
     1
290
     0
176
     1
290
     0
176
     1
290
     0
176
     1
290
     0
176
     1
290
     0
176
     1
290
     0
176
     1
 90
       50
176
     1
 40
0.0
176
     1
 40
1.0
176
     1
 90
        0
176
     1
 62
    18
420
        0
176
     1
 90
       50
176
     1
 90
        3
176
     1
 62
     5
420
      255
176
     1
290
     0
176
     1
 90
       50
176
     1
 90
       50
176
     1
 90
       50
176
     1
290
     0
176
     1
 90
       50
176
     1
 62
   256
176
     0
 40
1.0
176
     0
 90
        2
176
     1
  1
strokes_ogs.tif
176
     1
290
     0
176
     1
 40
1.0
176
     1
 40
1.0
176
     1
  0
VISUALSTYLE
  5
39
102
{ACAD_REACTORS
330
29
102
}
330
29
100
AcDbVisualStyle
  2
ColorChange
 70
    16
177
     3
291
     1
 70
    58
 90
        2
176
     1
 90
        2
176
     1
 90
        3
176
     1
 90
        0
176
     1
 40
0.6
176
     1
 40
30.0
176
     1
 62
     8
420
  8421504
176
     1
 90
        1
176
     1
 90
        4
176
     1
 62
     7
176
     1
 62
   257
176
     1
 90
        1
176
     1
 90
        1
176
     1
 40
1.0
176
     1
 90
        8
176
     1
 62
     8
420
  8421504
176
     1
 40
1.0
176
     1
 90
        1
176
     1
 90
        6
176
     1
 90
        2
176
     1
 62
     7
176
     1
 90
        5
176
     1
 90
        0
176
     1
 90
        0
176
     1
290
     0
176
     1
 90
        1
176
     1
 40
0.0
176
     1
 90
        0
176
     1
290
     0
176
     1
290
     1
176
     1
290
     1
176
     1
290
     0
176
     1
290
     0
176
     1
290
     0
176
     1
290
     0
176
     1
290
     0
176
     1
290
     0
176
     1
 90
       50
176
     1
 40
0.0
176
     1
 40
1.0
176
     1
 90
        0
176
     1
 62
    18
420
        0
176
     1
 90
       50
176
     1
 90
        3
176
     1
 62
     5
420
      255
176
     1
290
     0
176
     1
 90
       50
176
     1
 90
       50
176
     1
 90
       50
176
     1
290
     0
176
     1
 90
       50
176
     1
 62
   256
176
     0
 40
1.0
176
     0
 90
        2
176
     1
  1
strokes_ogs.tif
176
     1
290
     0
176
     1
 40
1.0
176
     1
 40
1.0
176
     1
  0
VISUALSTYLE
  5
32
102
{ACAD_REACTORS
330
29
102
}
330
29
100
AcDbVisualStyle
  2
Conceptual
 70
     9
177
     3
291
     0
 70
    58
 90
        3
176
     1
 90
        2
176
     1
 90
        0
176
     1
 90
        0
176
     1
 40
0.6
176
     1
 40
30.0
176
     1
 62
     7
420
 16777215
176
     1
 90
        2
176
     1
 90
        2
176
     1
 62
     7
176
     1
 62
   257
176
     1
 90
        1
176
     1
 90
        1
176
     1
 40
179.0
176
     1
 90
        8
176
     1
 62
     7
176
     1
 40
1.0
176
     1
 90
        1
176
     1
 90
        6
176
     1
 90
        2
176
     1
 62
     7
176
     1
 90
        3
176
     1
 90
        0
176
     1
 90
        0
176
     1
290
     0
176
     1
 90
        1
176
     1
 40
0.0
176
     1
 90
        0
176
     1
290
     0
176
     1
290
     1
176
     1
290
     1
176
     1
290
     0
176
     1
290
     0
176
     1
290
     0
176
     1
290
     0
176
     1
290
     0
176
     1
290
     0
176
     1
 90
       50
176
     1
 40
0.0
176
     1
 40
1.0
176
     1
 90
        0
176
     1
 62
    18
420
        0
176
     1
 90
       50
176
     1
 90
        3
176
     1
 62
     5
420
      255
176
     1
290
     0
176
     1
 90
       50
176
     1
 90
       50
176
     1
 90
       50
176
     1
290
     0
176
     1
 90
       50
176
     1
 62
   256
176
     0
 40
1.0
176
     0
 90
        2
176
     1
  1
strokes_ogs.tif
176
     1
290
     0
176
     1
 40
1.0
176
     1
 40
1.0
176
     1
  0
VISUALSTYLE
  5
34
102
{ACAD_REACTORS
330
29
102
}
330
29
100
AcDbVisualStyle
  2
Dim
 70
    11
177
     3
291
     1
 70
    58
 90
        2
176
     1
 90
        2
176
     1
 90
        0
176
     1
 90
        0
176
     1
 40
0.6
176
     1
 40
30.0
176
     1
 62
     7
420
 16777215
176
     1
 90
        1
176
     1
 90
        4
176
     1
 62
     7
176
     1
 62
   257
176
     1
 90
        1
176
     1
 90
        1
176
     1
 40
1.0
176
     1
 90
        8
176
     1
 62
     7
176
     1
 40
1.0
176
     1
 90
        1
176
     1
 90
        6
176
     1
 90
        2
176
     1
 62
     7
176
     1
 90
        5
176
     1
 90
        0
176
     1
 90
        0
176
     1
290
     0
176
     1
 90
        1
176
     1
 40
-50.0
176
     1
 90
        0
176
     1
290
     0
176
     1
290
     1
176
     1
290
     1
176
     1
290
     0
176
     1
290
     0
176
     1
290
     0
176
     1
290
     0
176
     1
290
     0
176
     1
290
     0
176
     1
 90
       50
176
     1
 40
0.0
176
     1
 40
1.0
176
     1
 90
        0
176
     1
 62
    18
420
        0
176
     1
 90
       50
176
     1
 90
        3
176
     1
 62
     5
420
      255
176
     1
290
     0
176
     1
 90
       50
176
     1
 90
       50
176
     1
 90
       50
176
     1
290
     0
176
     1
 90
       50
176
     1
 62
   256
176
     0
 40
1.0
176
     0
 90
        2
176
     1
  1
strokes_ogs.tif
176
     1
290
     0
176
     1
 40
1.0
176
     1
 40
1.0
176
     1
  0
VISUALSTYLE
  5
41
102
{ACAD_REACTORS
330
29
102
}
330
29
100
AcDbVisualStyle
  2
EdgeColorOff
 70
    22
177
     3
291
     1
 70
    58
 90
        2
176
     0
 90
        2
176
     0
 90
        0
176
     0
 90
        0
176
     0
 40
0.6
176
     0
 40
30.0
176
     0
 62
     7
420
 16777215
176
     0
 90
        1
176
     0
 90
        4
176
     0
 62
     7
176
     0
 62
   257
176
     0
 90
        1
176
     0
 90
        1
176
     0
 40
1.0
176
     0
 90
        8
176
     2
 62
     7
176
     0
 40
1.0
176
     0
 90
        1
176
     0
 90
        6
176
     0
 90
        2
176
     0
 62
     7
176
     0
 90
        5
176
     0
 90
        0
176
     0
 90
        0
176
     0
290
     0
176
     0
 90
        1
176
     0
 40
0.0
176
     0
 90
        0
176
     0
290
     0
176
     0
290
     1
176
     0
290
     1
176
     0
290
     0
176
     0
290
     0
176
     0
290
     0
176
     0
290
     0
176
     0
290
     0
176
     0
290
     0
176
     0
 90
       50
176
     0
 40
0.0
176
     0
 40
1.0
176
     0
 90
        0
176
     0
 62
    18
420
        0
176
     0
 90
       50
176
     0
 90
        3
176
     0
 62
     5
420
      255
176
     0
290
     0
176
     0
 90
       50
176
     0
 90
       50
176
     0
 90
       50
176
     0
290
     0
176
     0
 90
       50
176
     0
 62
   256
176
     0
 40
1.0
176
     0
 90
        2
176
     0
  1
strokes_ogs.tif
176
     0
290
     0
176
     0
 40
1.0
176
     0
 40
1.0
176
     0
  0
VISUALSTYLE
  5
38
102
{ACAD_REACTORS
330
29
102
}
330
29
100
AcDbVisualStyle
  2
Facepattern
 70
    15
177
     3
291
     1
 70
    58
 90
        2
176
     1
 90
        2
176
     1
 90
        0
176
     1
 90
        0
176
     1
 40
0.6
176
     1
 40
30.0
176
     1
 62
     7
420
 16777215
176
     1
 90
        1
176
     1
 90
        4
176
     1
 62
     7
176
     1
 62
   257
176
     1
 90
        1
176
     1
 90
        1
176
     1
 40
1.0
176
     1
 90
        8
176
     1
 62
     7
176
     1
 40
1.0
176
     1
 90
        1
176
     1
 90
        6
176
     1
 90
        2
176
     1
 62
     7
176
     1
 90
        5
176
     1
 90
        0
176
     1
 90
        0
176
     1
290
     0
176
     1
 90
        1
176
     1
 40
0.0
176
     1
 90
        0
176
     1
290
     0
176
     1
290
     1
176
     1
290
     1
176
     1
290
     0
176
     1
290
     0
176
     1
290
     0
176
     1
290
     0
176
     1
290
     0
176
     1
290
     0
176
     1
 90
       50
176
     1
 40
0.0
176
     1
 40
1.0
176
     1
 90
        0
176
     1
 62
    18
420
        0
176
     1
 90
       50
176
     1
 90
        3
176
     1
 62
     5
420
      255
176
     1
290
     0
176
     1
 90
       50
176
     1
 90
       50
176
     1
 90
       50
176
     1
290
     0
176
     1
 90
       50
176
     1
 62
   256
176
     0
 40
1.0
176
     0
 90
        2
176
     1
  1
strokes_ogs.tif
176
     1
290
     0
176
     1
 40
1.0
176
     1
 40
1.0
176
     1
  0
VISUALSTYLE
  5
2A
102
{ACAD_REACTORS
330
29
102
}
330
29
100
AcDbVisualStyle
  2
Flat
 70
     0
177
     3
291
     1
 70
    58
 90
        2
176
     1
 90
        1
176
     1
 90
        1
176
     1
 90
        2
176
     1
 40
0.6
176
     1
 40
30.0
176
     1
 62
     7
420
 16777215
176
     1
 90
        0
176
     1
 90
        0
176
     1
 62
     7
176
     1
 62
   257
176
     1
 90
        1
176
     1
 90
        1
176
     1
 40
1.0
176
     1
 90
        8
176
     1
 62
     7
176
     1
 40
1.0
176
     1
 90
        1
176
     1
 90
        6
176
     1
 90
        2
176
     1
 62
     7
176
     1
 90
        5
176
     1
 90
        0
176
     1
 90
        0
176
     1
290
     0
176
     1
 90
       13
176
     1
 40
0.0
176
     1
 90
        0
176
     1
290
     0
176
     1
290
     1
176
     1
290
     1
176
     1
290
     0
176
     1
290
     0
176
     1
290
     0
176
     1
290
     0
176
     1
290
     0
176
     1
290
     0
176
     1
 90
       50
176
     1
 40
0.0
176
     1
 40
1.0
176
     1
 90
        0
176
     1
 62
    18
420
        0
176
     1
 90
       50
176
     1
 90
        3
176
     1
 62
     5
420
      255
176
     1
290
     0
176
     1
 90
       50
176
     1
 90
       50
176
     1
 90
       50
176
     1
290
     0
176
     1
 90
       50
176
     1
 62
   256
176
     0
 40
1.0
176
     0
 90
        2
176
     1
  1
strokes_ogs.tif
176
     1
290
     0
176
     1
 40
1.0
176
     1
 40
1.0
176
     1
  0
VISUALSTYLE
  5
2B
102
{ACAD_REACTORS
330
29
102
}
330
29
100
AcDbVisualStyle
  2
FlatWithEdges
 70
     1
177
     3
291
     1
 70
    58
 90
        2
176
     1
 90
        1
176
     1
 90
        1
176
     1
 90
        2
176
     1
 40
0.6
176
     1
 40
30.0
176
     1
 62
     7
420
 16777215
176
     1
 90
        1
176
     1
 90
        0
176
     1
 62
     7
176
     1
 62
   257
176
     1
 90
        1
176
     1
 90
        1
176
     1
 40
1.0
176
     1
 90
        0
176
     1
 62
   257
176
     1
 40
1.0
176
     1
 90
        1
176
     1
 90
        6
176
     1
 90
        2
176
     1
 62
     7
176
     1
 90
        5
176
     1
 90
        0
176
     1
 90
        0
176
     1
290
     0
176
     1
 90
       13
176
     1
 40
0.0
176
     1
 90
        0
176
     1
290
     0
176
     1
290
     1
176
     1
290
     1
176
     1
290
     0
176
     1
290
     0
176
     1
290
     0
176
     1
290
     0
176
     1
290
     0
176
     1
290
     0
176
     1
 90
       50
176
     1
 40
0.0
176
     1
 40
1.0
176
     1
 90
        0
176
     1
 62
    18
420
        0
176
     1
 90
       50
176
     1
 90
        3
176
     1
 62
     5
420
      255
176
     1
290
     0
176
     1
 90
       50
176
     1
 90
       50
176
     1
 90
       50
176
     1
290
     0
176
     1
 90
       50
176
     1
 62
   256
176
     0
 40
1.0
176
     0
 90
        2
176
     1
  1
strokes_ogs.tif
176
     1
290
     0
176
     1
 40
1.0
176
     1
 40
1.0
176
     1
  0
VISUALSTYLE
  5
2C
102
{ACAD_REACTORS
330
29
102
}
330
29
100
AcDbVisualStyle
  2
Gouraud
 70
     2
177
     3
291
     1
 70
    58
 90
        2
176
     1
 90
        2
176
     1
 90
        1
176
     1
 90
        2
176
     1
 40
0.6
176
     1
 40
30.0
176
     1
 62
     7
420
 16777215
176
     1
 90
        0
176
     1
 90
        0
176
     1
 62
     7
176
     1
 62
   257
176
     1
 90
        1
176
     1
 90
        1
176
     1
 40
1.0
176
     1
 90
        0
176
     1
 62
     7
176
     1
 40
1.0
176
     1
 90
        1
176
     1
 90
        6
176
     1
 90
        2
176
     1
 62
     7
176
     1
 90
        5
176
     1
 90
        0
176
     1
 90
        0
176
     1
290
     0
176
     1
 90
       13
176
     1
 40
0.0
176
     1
 90
        0
176
     1
290
     0
176
     1
290
     1
176
     1
290
     1
176
     1
290
     0
176
     1
290
     0
176
     1
290
     0
176
     1
290
     0
176
     1
290
     0
176
     1
290
     0
176
     1
 90
       50
176
     1
 40
0.0
176
     1
 40
1.0
176
     1
 90
        0
176
     1
 62
    18
420
        0
176
     1
 90
       50
176
     1
 90
        3
176
     1
 62
     5
420
      255
176
     1
290
     0
176
     1
 90
       50
176
     1
 90
       50
176
     1
 90
       50
176
     1
290
     0
176
     1
 90
       50
176
     1
 62
   256
176
     0
 40
1.0
176
     0
 90
        2
176
     1
  1
strokes_ogs.tif
176
     1
290
     0
176
     1
 40
1.0
176
     1
 40
1.0
176
     1
  0
VISUALSTYLE
  5
2D
102
{ACAD_REACTORS
330
29
102
}
330
29
100
AcDbVisualStyle
  2
GouraudWithEdges
 70
     3
177
     3
291
     1
 70
    58
 90
        2
176
     1
 90
        2
176
     1
 90
        1
176
     1
 90
        2
176
     1
 40
0.6
176
     1
 40
30.0
176
     1
 62
     7
420
 16777215
176
     1
 90
        1
176
     1
 90
        0
176
     1
 62
     7
176
     1
 62
   257
176
     1
 90
        1
176
     1
 90
        1
176
     1
 40
1.0
176
     1
 90
        0
176
     1
 62
   257
176
     1
 40
1.0
176
     1
 90
        1
176
     1
 90
        6
176
     1
 90
        2
176
     1
 62
     7
176
     1
 90
        5
176
     1
 90
        0
176
     1
 90
        0
176
     1
290
     0
176
     1
 90
       13
176
     1
 40
0.0
176
     1
 90
        0
176
     1
290
     0
176
     1
290
     1
176
     1
290
     1
176
     1
290
     0
176
     1
290
     0
176
     1
290
     0
176
     1
290
     0
176
     1
290
     0
176
     1
290
     0
176
     1
 90
       50
176
     1
 40
0.0
176
     1
 40
1.0
176
     1
 90
        0
176
     1
 62
    18
420
        0
176
     1
 90
       50
176
     1
 90
        3
176
     1
 62
     5
420
      255
176
     1
290
     0
176
     1
 90
       50
176
     1
 90
       50
176
     1
 90
       50
176
     1
290
     0
176
     1
 90
       50
176
     1
 62
   256
176
     0
 40
1.0
176
     0
 90
        2
176
     1
  1
strokes_ogs.tif
176
     1
290
     0
176
     1
 40
1.0
176
     1
 40
1.0
176
     1
  0
VISUALSTYLE
  5
31
102
{ACAD_REACTORS
330
29
102
}
330
29
100
AcDbVisualStyle
  2
Hidden
 70
     6
177
     3
291
     0
 70
    58
 90
        1
176
     1
 90
        2
176
     1
 90
        2
176
     1
 90
        0
176
     1
 40
0.6
176
     1
 40
30.0
176
     1
 62
     7
420
 16777215
176
     1
 90
        2
176
     1
 90
        2
176
     1
 62
     7
176
     1
 62
   257
176
     1
 90
        2
176
     1
 90
        1
176
     1
 40
40.0
176
     1
 90
        0
176
     1
 62
   257
176
     1
 40
1.0
176
     1
 90
        1
176
     1
 90
        6
176
     1
 90
        2
176
     1
 62
     7
176
     1
 90
        3
176
     1
 90
        0
176
     1
 90
        0
176
     1
290
     0
176
     1
 90
        1
176
     1
 40
0.0
176
     1
 90
        0
176
     1
290
     0
176
     1
290
     1
176
     1
290
     1
176
     1
290
     0
176
     1
290
     0
176
     1
290
     0
176
     1
290
     0
176
     1
290
     0
176
     1
290
     0
176
     1
 90
       50
176
     1
 40
0.0
176
     1
 40
1.0
176
     1
 90
        0
176
     1
 62
    18
420
        0
176
     1
 90
       50
176
     1
 90
        3
176
     1
 62
     5
420
      255
176
     1
290
     0
176
     1
 90
       50
176
     1
 90
       50
176
     1
 90
       50
176
     1
290
     0
176
     1
 90
       50
176
     1
 62
   256
176
     0
 40
1.0
176
     0
 90
        2
176
     1
  1
strokes_ogs.tif
176
     1
290
     0
176
     1
 40
1.0
176
     1
 40
1.0
176
     1
  0
VISUALSTYLE
  5
3F
102
{ACAD_REACTORS
330
29
102
}
330
29
100
AcDbVisualStyle
  2
JitterOff
 70
    20
177
     3
291
     1
 70
    58
 90
        2
176
     0
 90
        2
176
     0
 90
        0
176
     0
 90
        0
176
     0
 40
0.6
176
     0
 40
30.0
176
     0
 62
     7
420
 16777215
176
     0
 90
        1
176
     0
 90
        4
176
     0
 62
     7
176
     0
 62
   257
176
     0
 90
        1
176
     0
 90
        1
176
     0
 40
1.0
176
     0
 90
       10
176
     2
 62
     7
176
     0
 40
1.0
176
     0
 90
        1
176
     0
 90
        6
176
     0
 90
        2
176
     0
 62
     7
176
     0
 90
        5
176
     0
 90
        0
176
     0
 90
        0
176
     0
290
     0
176
     0
 90
        1
176
     0
 40
0.0
176
     0
 90
        0
176
     0
290
     0
176
     0
290
     1
176
     0
290
     1
176
     0
290
     0
176
     0
290
     0
176
     0
290
     0
176
     0
290
     0
176
     0
290
     0
176
     0
290
     0
176
     0
 90
       50
176
     0
 40
0.0
176
     0
 40
1.0
176
     0
 90
        0
176
     0
 62
    18
420
        0
176
     0
 90
       50
176
     0
 90
        3
176
     0
 62
     5
420
      255
176
     0
290
     0
176
     0
 90
       50
176
     0
 90
       50
176
     0
 90
       50
176
     0
290
     0
176
     0
 90
       50
176
     0
 62
   256
176
     0
 40
1.0
176
     0
 90
        2
176
     0
  1
strokes_ogs.tif
176
     0
290
     0
176
     0
 40
1.0
176
     0
 40
1.0
176
     0
  0
VISUALSTYLE
  5
37
102
{ACAD_REACTORS
330
29
102
}
330
29
100
AcDbVisualStyle
  2
Linepattern
 70
    14
177
     3
291
     1
 70
    58
 90
        2
176
     1
 90
        2
176
     1
 90
        0
176
     1
 90
        0
176
     1
 40
0.6
176
     1
 40
30.0
176
     1
 62
     7
420
 16777215
176
     1
 90
        1
176
     1
 90
        4
176
     1
 62
     7
176
     1
 62
   257
176
     1
 90
        7
176
     1
 90
        7
176
     1
 40
1.0
176
     1
 90
        8
176
     1
 62
     7
176
     1
 40
1.0
176
     1
 90
        1
176
     1
 90
        6
176
     1
 90
        2
176
     1
 62
     7
176
     1
 90
        5
176
     1
 90
        0
176
     1
 90
        0
176
     1
290
     0
176
     1
 90
        1
176
     1
 40
0.0
176
     1
 90
        0
176
     1
290
     0
176
     1
290
     1
176
     1
290
     1
176
     1
290
     0
176
     1
290
     0
176
     1
290
     0
176
     1
290
     0
176
     1
290
     0
176
     1
290
     0
176
     1
 90
       50
176
     1
 40
0.0
176
     1
 40
1.0
176
     1
 90
        0
176
     1
 62
    18
420
        0
176
     1
 90
       50
176
     1
 90
        3
176
     1
 62
     5
420
      255
176
     1
290
     0
176
     1
 90
       50
176
     1
 90
       50
176
     1
 90
       50
176
     1
290
     0
176
     1
 90
       50
176
     1
 62
   256
176
     0
 40
1.0
176
     0
 90
        2
176
     1
  1
strokes_ogs.tif
176
     1
290
     0
176
     1
 40
1.0
176
     1
 40
1.0
176
     1
  0
VISUALSTYLE
  5
40
102
{ACAD_REACTORS
330
29
102
}
330
29
100
AcDbVisualStyle
  2
OverhangOff
 70
    21
177
     3
291
     1
 70
    58
 90
        2
176
     0
 90
        2
176
     0
 90
        0
176
     0
 90
        0
176
     0
 40
0.6
176
     0
 40
30.0
176
     0
 62
     7
420
 16777215
176
     0
 90
        1
176
     0
 90
        4
176
     0
 62
     7
176
     0
 62
   257
176
     0
 90
        1
176
     0
 90
        1
176
     0
 40
1.0
176
     0
 90
        9
176
     2
 62
     7
176
     0
 40
1.0
176
     0
 90
        1
176
     0
 90
        6
176
     0
 90
        2
176
     0
 62
     7
176
     0
 90
        5
176
     0
 90
        0
176
     0
 90
        0
176
     0
290
     0
176
     0
 90
        1
176
     0
 40
0.0
176
     0
 90
        0
176
     0
290
     0
176
     0
290
     1
176
     0
290
     1
176
     0
290
     0
176
     0
290
     0
176
     0
290
     0
176
     0
290
     0
176
     0
290
     0
176
     0
290
     0
176
     0
 90
       50
176
     0
 40
0.0
176
     0
 40
1.0
176
     0
 90
        0
176
     0
 62
    18
420
        0
176
     0
 90
       50
176
     0
 90
        3
176
     0
 62
     5
420
      255
176
     0
290
     0
176
     0
 90
       50
176
     0
 90
       50
176
     0
 90
       50
176
     0
290
     0
176
     0
 90
       50
176
     0
 62
   256
176
     0
 40
1.0
176
     0
 90
        2
176
     0
  1
strokes_ogs.tif
176
     0
290
     0
176
     0
 40
1.0
176
     0
 40
1.0
176
     0
  0
VISUALSTYLE
  5
33
102
{ACAD_REACTORS
330
29
102
}
330
29
100
AcDbVisualStyle
  2
Realistic
 70
     8
177
     3
291
     0
 70
    58
 90
        2
176
     1
 90
        3
176
     1
 90
        0
176
     1
 90
        2
176
     1
 40
0.6
176
     1
 40
30.0
176
     1
 62
     7
420
 16777215
176
     1
 90
        0
176
     1
 90
        0
176
     1
 62
     7
176
     1
 62
   257
176
     1
 90
        1
176
     1
 90
        1
176
     1
 40
1.0
176
     1
 90
        8
176
     1
 62
   257
176
     1
 40
1.0
176
     1
 90
        1
176
     1
 90
        6
176
     1
 90
        2
176
     1
 62
     7
176
     1
 90
        3
176
     1
 90
        0
176
     1
 90
        0
176
     1
290
     0
176
     1
 90
       13
176
     1
 40
0.0
176
     1
 90
        0
176
     1
290
     0
176
     1
290
     1
176
     1
290
     1
176
     1
290
     0
176
     1
290
     0
176
     1
290
     0
176
     1
290
     0
176
     1
290
     0
176
     1
290
     0
176
     1
 90
       50
176
     1
 40
0.0
176
     1
 40
1.0
176
     1
 90
        0
176
     1
 62
    18
420
        0
176
     1
 90
       50
176
     1
 90
        3
176
     1
 62
     5
420
      255
176
     1
290
     0
176
     1
 90
       50
176
     1
 90
       50
176
     1
 90
       50
176
     1
290
     0
176
     1
 90
       50
176
     1
 62
   256
176
     0
 40
1.0
176
     0
 90
        2
176
     1
  1
strokes_ogs.tif
176
     1
290
     0
176
     1
 40
1.0
176
     1
 40
1.0
176
     1
  0
VISUALSTYLE
  5
3E
102
{ACAD_REACTORS
330
29
102
}
330
29
100
AcDbVisualStyle
  2
Shaded
 70
    27
177
     3
291
     0
 70
    58
 90
        2
176
     1
 90
        2
176
     1
 90
        1
176
     1
 90
        2
176
     1
 40
0.6
176
     1
 40
30.0
176
     1
 62
     7
420
 16777215
176
     1
 90
        0
176
     1
 90
        4
176
     1
 62
     7
176
     1
 62
   257
176
     1
 90
        1
176
     1
 90
        1
176
     1
 40
1.0
176
     1
 90
        8
176
     1
 62
   257
176
     1
 40
1.0
176
     1
 90
        1
176
     1
 90
        6
176
     1
 90
        2
176
     1
 62
     8
420
  7895160
176
     1
 90
        3
176
     1
 90
        0
176
     1
 90
        0
176
     1
290
     0
176
     1
 90
        5
176
     1
 40
0.0
176
     1
 90
        0
176
     1
290
     0
176
     1
290
     1
176
     1
290
     1
176
     1
290
     0
176
     1
290
     0
176
     1
290
     0
176
     1
290
     0
176
     1
290
     0
176
     1
290
     0
176
     1
 90
       50
176
     1
 40
0.0
176
     1
 40
1.0
176
     1
 90
        0
176
     1
 62
    18
420
        0
176
     1
 90
       50
176
     1
 90
        3
176
     1
 62
     5
420
      255
176
     1
290
     0
176
     1
 90
       50
176
     1
 90
       50
176
     1
 90
       50
176
     1
290
     0
176
     1
 90
       50
176
     1
 62
   256
176
     0
 40
1.0
176
     0
 90
        2
176
     1
  1
strokes_ogs.tif
176
     1
290
     0
176
     1
 40
1.0
176
     1
 40
1.0
176
     1
  0
VISUALSTYLE
  5
3D
102
{ACAD_REACTORS
330
29
102
}
330
29
100
AcDbVisualStyle
  2
Shaded with edges
 70
    26
177
     3
291
     0
 70
    58
 90
        2
176
     1
 90
        2
176
     1
 90
        1
176
     1
 90
        2
176
     1
 40
0.6
176
     1
 40
30.0
176
     1
 62
     7
420
 16777215
176
     1
 90
        1
176
     1
 90
        2
176
     1
 62
     7
176
     1
 62
   257
176
     1
 90
        2
176
     1
 90
        1
176
     1
 40
1.0
176
     1
 90
        8
176
     1
 62
   257
176
     1
 40
1.0
176
     1
 90
        1
176
     1
 90
        6
176
     1
 90
        2
176
     1
 62
     7
176
     1
 90
        3
176
     1
 90
        0
176
     1
 90
        0
176
     1
290
     0
176
     1
 90
        5
176
     1
 40
0.0
176
     1
 90
        0
176
     1
290
     0
176
     1
290
     1
176
     1
290
     1
176
     1
290
     0
176
     1
290
     0
176
     1
290
     0
176
     1
290
     0
176
     1
290
     0
176
     1
290
     0
176
     1
 90
       50
176
     1
 40
0.0
176
     1
 40
1.0
176
     1
 90
        0
176
     1
 62
    18
420
        0
176
     1
 90
       50
176
     1
 90
        3
176
     1
 62
     5
420
      255
176
     1
290
     0
176
     1
 90
       50
176
     1
 90
       50
176
     1
 90
       50
176
     1
290
     0
176
     1
 90
       50
176
     1
 62
   256
176
     0
 40
1.0
176
     0
 90
        2
176
     1
  1
strokes_ogs.tif
176
     1
290
     0
176
     1
 40
1.0
176
     1
 40
1.0
176
     1
  0
VISUALSTYLE
  5
3A
102
{ACAD_REACTORS
330
29
102
}
330
29
100
AcDbVisualStyle
  2
Shades of Gray
 70
    23
177
     3
291
     0
 70
    58
 90
        2
176
     1
 90
        2
176
     1
 90
        3
176
     1
 90
        0
176
     1
 40
0.6
176
     1
 40
30.0
176
     1
 62
     7
420
 16777215
176
     1
 90
        2
176
     1
 90
        2
176
     1
 62
     7
176
     1
 62
     7
176
     1
 90
        1
176
     1
 90
        1
176
     1
 40
40.0
176
     1
 90
        8
176
     1
 62
     7
176
     1
 40
1.0
176
     1
 90
        1
176
     1
 90
        6
176
     1
 90
        2
176
     1
 62
     7
176
     1
 90
        3
176
     1
 90
        0
176
     1
 90
        0
176
     1
290
     0
176
     1
 90
        1
176
     1
 40
0.0
176
     1
 90
        0
176
     1
290
     0
176
     1
290
     1
176
     1
290
     1
176
     1
290
     0
176
     1
290
     0
176
     1
290
     0
176
     1
290
     0
176
     1
290
     0
176
     1
290
     0
176
     1
 90
       50
176
     1
 40
0.0
176
     1
 40
1.0
176
     1
 90
        0
176
     1
 62
    18
420
        0
176
     1
 90
       50
176
     1
 90
        3
176
     1
 62
     5
420
      255
176
     1
290
     0
176
     1
 90
       50
176
     1
 90
       50
176
     1
 90
       50
176
     1
290
     0
176
     1
 90
       50
176
     1
 62
   256
176
     0
 40
1.0
176
     0
 90
        2
176
     1
  1
strokes_ogs.tif
176
     1
290
     0
176
     1
 40
1.0
176
     1
 40
1.0
176
     1
  0
VISUALSTYLE
  5
3B
102
{ACAD_REACTORS
330
29
102
}
330
29
100
AcDbVisualStyle
  2
Sketchy
 70
    24
177
     3
291
     0
 70
    58
 90
        1
176
     1
 90
        2
176
     1
 90
        2
176
     1
 90
        0
176
     1
 40
0.6
176
     1
 40
30.0
176
     1
 62
     7
420
 16777215
176
     1
 90
        2
176
     1
 90
        2
176
     1
 62
     7
176
     1
 62
     7
176
     1
 90
        1
176
     1
 90
        1
176
     1
 40
40.0
176
     1
 90
       11
176
     1
 62
     7
176
     1
 40
1.0
176
     1
 90
        1
176
     1
 90
        6
176
     1
 90
        2
176
     1
 62
     7
176
     1
 90
        6
176
     1
 90
        0
176
     1
 90
        0
176
     1
290
     0
176
     1
 90
        1
176
     1
 40
0.0
176
     1
 90
        0
176
     1
290
     0
176
     1
290
     1
176
     1
290
     1
176
     1
290
     0
176
     1
290
     0
176
     1
290
     0
176
     1
290
     0
176
     1
290
     0
176
     1
290
     0
176
     1
 90
       50
176
     1
 40
0.0
176
     1
 40
1.0
176
     1
 90
        0
176
     1
 62
    18
420
        0
176
     1
 90
       50
176
     1
 90
        3
176
     1
 62
     5
420
      255
176
     1
290
     0
176
     1
 90
       50
176
     1
 90
       50
176
     1
 90
       50
176
     1
290
     0
176
     1
 90
       50
176
     1
 62
   256
176
     0
 40
1.0
176
     0
 90
        2
176
     1
  1
strokes_ogs.tif
176
     1
290
     0
176
     1
 40
1.0
176
     1
 40
1.0
176
     1
  0
VISUALSTYLE
  5
36
102
{ACAD_REACTORS
330
29
102
}
330
29
100
AcDbVisualStyle
  2
Thicken
 70
    13
177
     3
291
     1
 70
    58
 90
        2
176
     1
 90
        2
176
     1
 90
        0
176
     1
 90
        0
176
     1
 40
0.6
176
     1
 40
30.0
176
     1
 62
     7
420
 16777215
176
     1
 90
        1
176
     1
 90
        4
176
     1
 62
     7
176
     1
 62
   257
176
     1
 90
        1
176
     1
 90
        1
176
     1
 40
1.0
176
     1
 90
       12
176
     1
 62
     7
176
     1
 40
1.0
176
     1
 90
        1
176
     1
 90
        6
176
     1
 90
        2
176
     1
 62
     7
176
     1
 90
        5
176
     1
 90
        0
176
     1
 90
        0
176
     1
290
     0
176
     1
 90
        1
176
     1
 40
0.0
176
     1
 90
        0
176
     1
290
     0
176
     1
290
     1
176
     1
290
     1
176
     1
290
     0
176
     1
290
     0
176
     1
290
     0
176
     1
290
     0
176
     1
290
     0
176
     1
290
     0
176
     1
 90
       50
176
     1
 40
0.0
176
     1
 40
1.0
176
     1
 90
        0
176
     1
 62
    18
420
        0
176
     1
 90
       50
176
     1
 90
        3
176
     1
 62
     5
420
      255
176
     1
290
     0
176
     1
 90
       50
176
     1
 90
       50
176
     1
 90
       50
176
     1
290
     0
176
     1
 90
       50
176
     1
 62
   256
176
     0
 40
1.0
176
     0
 90
        2
176
     1
  1
strokes_ogs.tif
176
     1
290
     0
176
     1
 40
1.0
176
     1
 40
1.0
176
     1
  0
VISUALSTYLE
  5
30
102
{ACAD_REACTORS
330
29
102
}
330
29
100
AcDbVisualStyle
  2
Wireframe
 70
     5
177
     3
291
     0
 70
    58
 90
        0
176
     1
 90
        2
176
     1
 90
        0
176
     1
 90
        0
176
     1
 40
0.6
176
     1
 40
30.0
176
     1
 62
     7
420
 16777215
176
     1
 90
        1
176
     1
 90
        4
176
     1
 62
     7
176
     1
 62
   257
176
     1
 90
        1
176
     1
 90
        1
176
     1
 40
1.0
176
     1
 90
        0
176
     1
 62
   257
176
     1
 40
1.0
176
     1
 90
        1
176
     1
 90
        6
176
     1
 90
        2
176
     1
 62
     7
176
     1
 90
        3
176
     1
 90
        0
176
     1
 90
        0
176
     1
290
     0
176
     1
 90
        1
176
     1
 40
0.0
176
     1
 90
        0
176
     1
290
     0
176
     1
290
     1
176
     1
290
     1
176
     1
290
     0
176
     1
290
     0
176
     1
290
     0
176
     1
290
     0
176
     1
290
     0
176
     1
290
     0
176
     1
 90
       50
176
     1
 40
0.0
176
     1
 40
1.0
176
     1
 90
        0
176
     1
 62
    18
420
        0
176
     1
 90
       50
176
     1
 90
        3
176
     1
 62
     5
420
      255
176
     1
290
     0
176
     1
 90
       50
176
     1
 90
       50
176
     1
 90
       50
176
     1
290
     0
176
     1
 90
       50
176
     1
 62
   256
176
     0
 40
1.0
176
     0
 90
        2
176
     1
  1
strokes_ogs.tif
176
     1
290
     0
176
     1
 40
1.0
176
     1
 40
1.0
176
     1
  0
VISUALSTYLE
  5
3C
102
{ACAD_REACTORS
330
29
102
}
330
29
100
AcDbVisualStyle
  2
X-Ray
 70
    25
177
     3
291
     0
 70
    58
 90
        2
176
     1
 90
        2
176
     1
 90
        1
176
     1
 90
        1
176
     1
 40
0.5
176
     1
 40
30.0
176
     1
 62
     7
420
 16777215
176
     1
 90
        1
176
     1
 90
        0
176
     1
 62
     7
176
     1
 62
   257
176
     1
 90
        1
176
     1
 90
        1
176
     1
 40
1.0
176
     1
 90
        8
176
     1
 62
     7
176
     1
 40
1.0
176
     1
 90
        1
176
     1
 90
        6
176
     1
 90
        2
176
     1
 62
     7
176
     1
 90
        3
176
     1
 90
        0
176
     1
 90
        0
176
     1
290
     0
176
     1
 90
       13
176
     1
 40
0.0
176
     1
 90
        0
176
     1
290
     0
176
     1
290
     1
176
     1
290
     1
176
     1
290
     0
176
     1
290
     0
176
     1
290
     0
176
     1
290
     0
176
     1
290
     0
176
     1
290
     0
176
     1
 90
       50
176
     1
 40
0.0
176
     1
 40
1.0
176
     1
 90
        0
176
     1
 62
    18
420
        0
176
     1
 90
       50
176
     1
 90
        3
176
     1
 62
     5
420
      255
176
     1
290
     0
176
     1
 90
       50
176
     1
 90
       50
176
     1
 90
       50
176
     1
290
     0
176
     1
 90
       50
176
     1
 62
   256
176
     0
 40
1.0
176
     0
 90
        2
176
     1
  1
strokes_ogs.tif
176
     1
290
     0
176
     1
 40
1.0
176
     1
 40
1.0
176
     1
  0
DICTIONARYVAR
  5
25C
102
{ACAD_REACTORS
330
257
102
}
330
257
100
DictionaryVariables
280
     0
  1
1:1
  0
DICTIONARYVAR
  5
259
102
{ACAD_REACTORS
330
257
102
}
330
257
100
DictionaryVariables
280
     0
  1
STANDARD
  0
DICTIONARYVAR
  5
258
102
{ACAD_REACTORS
330
257
102
}
330
257
100
DictionaryVariables
280
     0
  1
STANDARD
  0
DICTIONARYVAR
  5
25A
102
{ACAD_REACTORS
330
257
102
}
330
257
100
DictionaryVariables
280
     0
  1
Imperial24
  0
DICTIONARYVAR
  5
25B
102
{ACAD_REACTORS
330
257
102
}
330
257
100
DictionaryVariables
280
     0
  1
Imperial24
  0
DICTIONARY
  5
1A
330
19
100
AcDbDictionary
280
     1
281
     1
  3
BUMPTILE
360
1C
  3
DIFFUSETILE
360
1B
  3
OPACITYTILE
360
1F
  3
REFLECTIONTILE
360
1E
  3
REFRACTIONTILE
360
20
  3
SPECULARTILE
360
1D
  0
DICTIONARY
  5
12
330
11
100
AcDbDictionary
280
     1
281
     1
  3
BUMPTILE
360
14
  3
DIFFUSETILE
360
13
  3
OPACITYTILE
360
17
  3
REFLECTIONTILE
360
16
  3
REFRACTIONTILE
360
18
  3
SPECULARTILE
360
15
  0
DICTIONARY
  5
22
330
21
100
AcDbDictionary
280
     1
281
     1
  3
BUMPTILE
360
24
  3
DIFFUSETILE
360
23
  3
OPACITYTILE
360
27
  3
REFLECTIONTILE
360
26
  3
REFRACTIONTILE
360
28
  3
SPECULARTILE
360
25
  0
DICTIONARY
  5
25D
330
65
100
AcDbDictionary
280
     1
281
     1
  3
ACAD_ROUNDTRIP_2008_TABLESTYLE_CELLSTYLEMAP
360
25E
  0
XRECORD
  5
1C
102
{ACAD_REACTORS
330
1A
102
}
330
1A
100
AcDbXrecord
280
     1
270
     1
271
     1
  0
XRECORD
  5
1B
102
{ACAD_REACTORS
330
1A
102
}
330
1A
100
AcDbXrecord
280
     1
270
     1
271
     1
  0
XRECORD
  5
1F
102
{ACAD_REACTORS
330
1A
102
}
330
1A
100
AcDbXrecord
280
     1
270
     1
271
     1
  0
XRECORD
  5
1E
102
{ACAD_REACTORS
330
1A
102
}
330
1A
100
AcDbXrecord
280
     1
270
     1
271
     1
  0
XRECORD
  5
20
102
{ACAD_REACTORS
330
1A
102
}
330
1A
100
AcDbXrecord
280
     1
270
     1
271
     1
  0
XRECORD
  5
1D
102
{ACAD_REACTORS
330
1A
102
}
330
1A
100
AcDbXrecord
280
     1
270
     1
271
     1
  0
XRECORD
  5
14
102
{ACAD_REACTORS
330
12
102
}
330
12
100
AcDbXrecord
280
     1
270
     1
271
     1
  0
XRECORD
  5
13
102
{ACAD_REACTORS
330
12
102
}
330
12
100
AcDbXrecord
280
     1
270
     1
271
     1
  0
XRECORD
  5
17
102
{ACAD_REACTORS
330
12
102
}
330
12
100
AcDbXrecord
280
     1
270
     1
271
     1
  0
XRECORD
  5
16
102
{ACAD_REACTORS
330
12
102
}
330
12
100
AcDbXrecord
280
     1
270
     1
271
     1
  0
XRECORD
  5
18
102
{ACAD_REACTORS
330
12
102
}
330
12
100
AcDbXrecord
280
     1
270
     1
271
     1
  0
XRECORD
  5
15
102
{ACAD_REACTORS
330
12
102
}
330
12
100
AcDbXrecord
280
     1
270
     1
271
     1
  0
XRECORD
  5
24
102
{ACAD_REACTORS
330
22
102
}
330
22
100
AcDbXrecord
280
     1
270
     1
271
     1
  0
XRECORD
  5
23
102
{ACAD_REACTORS
330
22
102
}
330
22
100
AcDbXrecord
280
     1
270
     1
271
     1
  0
XRECORD
  5
27
102
{ACAD_REACTORS
330
22
102
}
330
22
100
AcDbXrecord
280
     1
270
     1
271
     1
  0
XRECORD
  5
26
102
{ACAD_REACTORS
330
22
102
}
330
22
100
AcDbXrecord
280
     1
270
     1
271
     1
  0
XRECORD
  5
28
102
{ACAD_REACTORS
330
22
102
}
330
22
100
AcDbXrecord
280
     1
270
     1
271
     1
  0
XRECORD
  5
25
102
{ACAD_REACTORS
330
22
102
}
330
22
100
AcDbXrecord
280
     1
270
     1
271
     1
  0
CELLSTYLEMAP
  5
25E
102
{ACAD_REACTORS
330
25D
102
}
330
25D
100
AcDbCellStyleMap
 90
        3
300
CELLSTYLE
  1
TABLEFORMAT_BEGIN
 90
        5
170
     1
 91
        0
 92
    32768
 62
   257
 93
        1
300
CONTENTFORMAT
  1
CONTENTFORMAT_BEGIN
 90
        0
 91
        0
 92
      512
 93
        0
300

 40
0.0
140
1.0
 94
        5
 62
     0
340
55
144
0.25
309
CONTENTFORMAT_END
171
     0
 94
        0
309
TABLEFORMAT_END
  1
CELLSTYLE_BEGIN
 90
        1
 91
        1
300
_TITLE
309
CELLSTYLE_END
300
CELLSTYLE
  1
TABLEFORMAT_BEGIN
 90
        5
170
     1
 91
        0
 92
        0
 62
   257
 93
        1
300
CONTENTFORMAT
  1
CONTENTFORMAT_BEGIN
 90
        0
 91
        0
 92
      512
 93
        0
300

 40
0.0
140
1.0
 94
        5
 62
     0
340
55
144
0.18
309
CONTENTFORMAT_END
171
     0
 94
        0
309
TABLEFORMAT_END
  1
CELLSTYLE_BEGIN
 90
        2
 91
        1
300
_HEADER
309
CELLSTYLE_END
300
CELLSTYLE
  1
TABLEFORMAT_BEGIN
 90
        5
170
     1
 91
        0
 92
        0
 62
   257
 93
        1
300
CONTENTFORMAT
  1
CONTENTFORMAT_BEGIN
 90
        0
 91
        0
 92
      512
 93
        0
300

 40
0.0
140
1.0
 94
        2
 62
     0
340
55
144
0.18
309
CONTENTFORMAT_END
171
     0
 94
        0
309
TABLEFORMAT_END
  1
CELLSTYLE_BEGIN
 90
        3
 91
        2
300
_DATA
309
CELLSTYLE_END
  0
ENDSEC
  0
EOF
