  0
SECTION
  2
HEADER
  9
$ACADVER
  1
AC1032
  9
$ACADMAINTVER
 90
      228
  9
$DWGCODEPAGE
  3
ANSI_932
  9
$REQUIREDVERSIONS
160
                 0
  9
$INSBASE
 10
0.0
 20
0.0
 30
0.0
  9
$EXTMIN
 10
1.000000000000000E+20
 20
1.000000000000000E+20
 30
1.000000000000000E+20
  9
$EXTMAX
 10
-1.000000000000000E+20
 20
-1.000000000000000E+20
 30
-1.000000000000000E+20
  9
$LIMMIN
 10
0.0
 20
0.0
  9
$LIMMAX
 10
12.0
 20
9.0
  9
$ORTHOMODE
 70
     0
  9
$REGENMODE
 70
     1
  9
$FILLMODE
 70
     1
  9
$QTEXTMODE
 70
     0
  9
$MIRRTEXT
 70
     0
  9
$LTSCALE
 40
1.0
  9
$ATTMODE
 70
     1
  9
$TEXTSIZE
 40
0.2
  9
$TRACEWID
 40
0.05
  9
$TEXTSTYLE
  7
Standard
  9
$CLAYER
  8
0
  9
$CELTYPE
  6
ByLayer
  9
$CECOLOR
 62
   256
  9
$CELTSCALE
 40
1.0
  9
$DISPSILH
 70
     0
  9
$DIMSCALE
 40
1.0
  9
$DIMASZ
 40
0.18
  9
$DIMEXO
 40
0.0625
  9
$DIMDLI
 40
0.38
  9
$DIMRND
 40
0.0
  9
$DIMDLE
 40
0.0
  9
$DIMEXE
 40
0.18
  9
$DIMTP
 40
0.0
  9
$DIMTM
 40
0.0
  9
$DIMTXT
 40
0.18
  9
$DIMCEN
 40
0.09
  9
$DIMTSZ
 40
0.0
  9
$DIMTOL
 70
     0
  9
$DIMLIM
 70
     0
  9
$DIMTIH
 70
     1
  9
$DIMTOH
 70
     1
  9
$DIMSE1
 70
     0
  9
$DIMSE2
 70
     0
  9
$DIMTAD
 70
     0
  9
$DIMZIN
 70
     0
  9
$DIMBLK
  1

  9
$DIMASO
 70
     1
  9
$DIMSHO
 70
     1
  9
$DIMPOST
  1

  9
$DIMAPOST
  1

  9
$DIMALT
 70
     0
  9
$DIMALTD
 70
     2
  9
$DIMALTF
 40
25.4
  9
$DIMLFAC
 40
1.0
  9
$DIMTOFL
 70
     0
  9
$DIMTVP
 40
0.0
  9
$DIMTIX
 70
     0
  9
$DIMSOXD
 70
     0
  9
$DIMSAH
 70
     0
  9
$DIMBLK1
  1

  9
$DIMBLK2
  1

  9
$DIMSTYLE
  2
Standard
  9
$DIMCLRD
 70
     0
  9
$DIMCLRE
 70
     0
  9
$DIMCLRT
 70
     0
  9
$DIMTFAC
 40
1.0
  9
$DIMGAP
 40
0.09
  9
$DIMJUST
 70
     0
  9
$DIMSD1
 70
     0
  9
$DIMSD2
 70
     0
  9
$DIMTOLJ
 70
     1
  9
$DIMTZIN
 70
     0
  9
$DIMALTZ
 70
     0
  9
$DIMALTTZ
 70
     0
  9
$DIMUPT
 70
     0
  9
$DIMDEC
 70
     4
  9
$DIMTDEC
 70
     4
  9
$DIMALTU
 70
     2
  9
$DIMALTTD
 70
     2
  9
$DIMTXSTY
  7
Standard
  9
$DIMAUNIT
 70
     0
  9
$DIMADEC
 70
     0
  9
$DIMALTRND
 40
0.0
  9
$DIMAZIN
 70
     0
  9
$DIMDSEP
 70
    46
  9
$DIMATFIT
 70
     3
  9
$DIMFRAC
 70
     0
  9
$DIMLDRBLK
  1

  9
$DIMLUNIT
 70
     2
  9
$DIMLWD
 70
    -2
  9
$DIMLWE
 70
    -2
  9
$DIMTMOVE
 70
     0
  9
$DIMFXL
 40
1.0
  9
$DIMFXLON
 70
     0
  9
$DIMJOGANG
 40
0.7853981633974483
  9
$DIMTFILL
 70
     0
  9
$DIMTFILLCLR
 70
     0
  9
$DIMARCSYM
 70
     0
  9
$DIMLTYPE
  6

  9
$DIMLTEX1
  6

  9
$DIMLTEX2
  6

  9
$DIMTXTDIRECTION
 70
     0
  9
$LUNITS
 70
     2
  9
$LUPREC
 70
     4
  9
$SKETCHINC
 40
0.1
  9
$FILLETRAD
 40
0.0
  9
$AUNITS
 70
     0
  9
$AUPREC
 70
     0
  9
$MENU
  1
.
  9
$ELEVATION
 40
0.0
  9
$PELEVATION
 40
0.0
  9
$THICKNESS
 40
0.0
  9
$LIMCHECK
 70
     0
  9
$CHAMFERA
 40
0.0
  9
$CHAMFERB
 40
0.0
  9
$CHAMFERC
 40
0.0
  9
$CHAMFERD
 40
0.0
  9
$SKPOLY
 70
     0
  9
$TDCREATE
 40
2460363.793807870
  9
$TDUCREATE
 40
2460363.418807870
  9
$TDUPDATE
 40
2460363.793807870
  9
$TDUUPDATE
 40
2460363.418807870
  9
$TDINDWG
 40
0.0000000000
  9
$TDUSRTIMER
 40
0.0000000000
  9
$USRTIMER
 70
     1
  9
$ANGBASE
 50
0.0
  9
$ANGDIR
 70
     0
  9
$PDMODE
 70
     0
  9
$PDSIZE
 40
0.0
  9
$PLINEWID
 40
0.0
  9
$SPLFRAME
 70
     0
  9
$SPLINETYPE
 70
     6
  9
$SPLINESEGS
 70
     8
  9
$HANDSEED
  5
264
  9
$SURFTAB1
 70
     6
  9
$SURFTAB2
 70
     6
  9
$SURFTYPE
 70
     6
  9
$SURFU
 70
     6
  9
$SURFV
 70
     6
  9
$UCSBASE
  2

  9
$UCSNAME
  2

  9
$UCSORG
 10
0.0
 20
0.0
 30
0.0
  9
$UCSXDIR
 10
1.0
 20
0.0
 30
0.0
  9
$UCSYDIR
 10
0.0
 20
1.0
 30
0.0
  9
$UCSORTHOREF
  2

  9
$UCSORTHOVIEW
 70
     0
  9
$UCSORGTOP
 10
0.0
 20
0.0
 30
0.0
  9
$UCSORGBOTTOM
 10
0.0
 20
0.0
 30
0.0
  9
$UCSORGLEFT
 10
0.0
 20
0.0
 30
0.0
  9
$UCSORGRIGHT
 10
0.0
 20
0.0
 30
0.0
  9
$UCSORGFRONT
 10
0.0
 20
0.0
 30
0.0
  9
$UCSORGBACK
 10
0.0
 20
0.0
 30
0.0
  9
$PUCSBASE
  2

  9
$PUCSNAME
  2

  9
$PUCSORG
 10
0.0
 20
0.0
 30
0.0
  9
$PUCSXDIR
 10
1.0
 20
0.0
 30
0.0
  9
$PUCSYDIR
 10
0.0
 20
1.0
 30
0.0
  9
$PUCSORTHOREF
  2

  9
$PUCSORTHOVIEW
 70
     0
  9
$PUCSORGTOP
 10
0.0
 20
0.0
 30
0.0
  9
$PUCSORGBOTTOM
 10
0.0
 20
0.0
 30
0.0
  9
$PUCSORGLEFT
 10
0.0
 20
0.0
 30
0.0
  9
$PUCSORGRIGHT
 10
0.0
 20
0.0
 30
0.0
  9
$PUCSORGFRONT
 10
0.0
 20
0.0
 30
0.0
  9
$PUCSORGBACK
 10
0.0
 20
0.0
 30
0.0
  9
$USERI1
 70
     0
  9
$USERI2
 70
     0
  9
$USERI3
 70
     0
  9
$USERI4
 70
     0
  9
$USERI5
 70
     0
  9
$USERR1
 40
0.0
  9
$USERR2
 40
0.0
  9
$USERR3
 40
0.0
  9
$USERR4
 40
0.0
  9
$USERR5
 40
0.0
  9
$WORLDVIEW
 70
     1
  9
$SHADEDGE
 70
     3
  9
$SHADEDIF
 70
    70
  9
$TILEMODE
 70
     1
  9
$MAXACTVP
 70
    64
  9
$PINSBASE
 10
0.0
 20
0.0
 30
0.0
  9
$PLIMCHECK
 70
     0
  9
$PEXTMIN
 10
1.000000000000000E+20
 20
1.000000000000000E+20
 30
1.000000000000000E+20
  9
$PEXTMAX
 10
-1.000000000000000E+20
 20
-1.000000000000000E+20
 30
-1.000000000000000E+20
  9
$PLIMMIN
 10
0.0
 20
0.0
  9
$PLIMMAX
 10
12.0
 20
9.0
  9
$UNITMODE
 70
     0
  9
$VISRETAIN
 70
     1
  9
$PLINEGEN
 70
     0
  9
$PSLTSCALE
 70
     1
  9
$TREEDEPTH
 70
  3020
  9
$CMLSTYLE
  2
Standard
  9
$CMLJUST
 70
     0
  9
$CMLSCALE
 40
1.0
  9
$PROXYGRAPHICS
 70
     1
  9
$MEASUREMENT
 70
     0
  9
$CELWEIGHT
370
    -1
  9
$ENDCAPS
280
     0
  9
$JOINSTYLE
280
     0
  9
$LWDISPLAY
290
     1
  9
$INSUNITS
 70
     4
  9
$HYPERLINKBASE
  1

  9
$STYLESHEET
  1

  9
$XEDIT
290
     1
  9
$CEPSNTYPE
380
     0
  9
$PSTYLEMODE
290
     1
  9
$FINGERPRINTGUID
  2
{4C0D80CA-F024-F14F-9089-E4099EA42885}
  9
$VERSIONGUID
  2
{964BED30-5EF5-6245-83FF-7B825CB910B8}
  9
$EXTNAMES
290
     1
  9
$PSVPSCALE
 40
0.0
  9
$OLESTARTUP
290
     0
  9
$SORTENTS
280
   127
  9
$INDEXCTL
280
     0
  9
$HIDETEXT
280
     1
  9
$XCLIPFRAME
280
     2
  9
$HALOGAP
280
     0
  9
$OBSCOLOR
 70
   257
  9
$OBSLTYPE
280
     0
  9
$INTERSECTIONDISPLAY
280
     0
  9
$INTERSECTIONCOLOR
 70
   257
  9
$DIMASSOC
280
     2
  9
$PROJECTNAME
  1

  9
$CAMERADISPLAY
290
     0
  9
$LENSLENGTH
 40
50.0
  9
$CAMERAHEIGHT
 40
0.0
  9
$STEPSPERSEC
 40
2.0
  9
$STEPSIZE
 40
6.0
  9
$3DDWFPREC
 40
2.0
  9
$PSOLWIDTH
 40
0.25
  9
$PSOLHEIGHT
 40
4.0
  9
$LOFTANG1
 40
1.570796326794896
  9
$LOFTANG2
 40
1.570796326794896
  9
$LOFTMAG1
 40
0.0
  9
$LOFTMAG2
 40
0.0
  9
$LOFTPARAM
 70
     7
  9
$LOFTNORMALS
280
     1
  9
$LATITUDE
 40
37.795
  9
$LONGITUDE
 40
-122.394
  9
$NORTHDIRECTION
 40
0.0
  9
$TIMEZONE
 70
 -8000
  9
$LIGHTGLYPHDISPLAY
280
     1
  9
$TILEMODELIGHTSYNCH
280
     1
  9
$CMATERIAL
347
11
  9
$SOLIDHIST
280
     0
  9
$SHOWHIST
280
     1
  9
$DWFFRAME
280
     2
  9
$DGNFRAME
280
     0
  9
$REALWORLDSCALE
290
     1
  9
$INTERFERECOLOR
 62
     1
  9
$INTERFEREOBJVS
345
33
  9
$INTERFEREVPVS
346
30
  9
$CSHADOW
280
     0
  9
$SHADOWPLANELOCATION
 40
0.0
  0
ENDSEC
  0
SECTION
  2
CLASSES
  0
CLASS
  1
ACDBDICTIONARYWDFLT
  2
AcDbDictionaryWithDefault
  3
ObjectDBX Classes
 90
        0
 91
        1
280
     0
281
     0
  0
CLASS
  1
MATERIAL
  2
AcDbMaterial
  3
ObjectDBX Classes
 90
     1153
 91
        3
280
     0
281
     0
  0
CLASS
  1
VISUALSTYLE
  2
AcDbVisualStyle
  3
ObjectDBX Classes
 90
     4095
 91
       24
280
     0
281
     0
  0
CLASS
  1
SCALE
  2
AcDbScale
  3
ObjectDBX Classes
 90
     1153
 91
       17
280
     0
281
     0
  0
CLASS
  1
TABLESTYLE
  2
AcDbTableStyle
  3
ObjectDBX Classes
 90
     4095
 91
        1
280
     0
281
     0
  0
CLASS
  1
MLEADERSTYLE
  2
AcDbMLeaderStyle
  3
ACDB_MLEADERSTYLE_CLASS
 90
     4095
 91
        1
280
     0
281
     0
  0
CLASS
  1
ACDBSECTIONVIEWSTYLE
  2
AcDbSectionViewStyle
  3
ObjectDBX Classes
 90
     1025
 91
        1
280
     0
281
     0
  0
CLASS
  1
ACDBDETAILVIEWSTYLE
  2
AcDbDetailViewStyle
  3
ObjectDBX Classes
 90
     1025
 91
        1
280
     0
281
     0
  0
CLASS
  1
DICTIONARYVAR
  2
AcDbDictionaryVar
  3
ObjectDBX Classes
 90
        0
 91
        5
280
     0
281
     0
  0
CLASS
  1
CELLSTYLEMAP
  2
AcDbCellStyleMap
  3
ObjectDBX Classes
 90
     1152
 91
        1
280
     0
281
     0
  0
ENDSEC
  0
SECTION
  2
TABLES
  0
TABLE
  2
VPORT
  5
8
330
0
100
AcDbSymbolTable
 70
     1
  0
VPORT
  5
57
330
8
100
AcDbSymbolTableRecord
100
AcDbViewportTableRecord
  2
*Active
 70
     0
 10
0.0
 20
0.0
 11
1.0
 21
1.0
 12
0.0
 22
0.0
 13
0.0
 23
0.0
 14
1.0
 24
1.0
 15
0.0
 25
0.0
 16
0.0
 26
0.0
 36
1.0
 17
338.666666582
 27
190.4999999523751
 37
0.0
 40
388.8749999028449
 41
1.776612021857632
 42
50.0
 43
0.0
 44
0.0
 50
0.0
 51
0.0
 71
     0
 72
   100
 73
     1
 74
     1
 75
     0
 76
     0
 77
     0
 78
     0
281
     0
 65
     1
110
0.0
120
0.0
130
0.0
111
1.0
121
0.0
131
0.0
112
0.0
122
1.0
132
0.0
 79
     0
146
0.0
 60
     3
 61
     5
292
     1
282
     1
141
0.0
142
0.0
 63
   250
421
  3355443
  0
ENDTAB
  0
TABLE
  2
LTYPE
  5
5
330
0
100
AcDbSymbolTable
 70
     7
  0
LTYPE
  5
5B
330
5
100
AcDbSymbolTableRecord
100
AcDbLinetypeTableRecord
  2
ByBlock
 70
     0
  3

 72
    65
 73
     0
 40
0.0
  0
LTYPE
  5
5C
330
5
100
AcDbSymbolTableRecord
100
AcDbLinetypeTableRecord
  2
ByLayer
 70
     0
  3

 72
    65
 73
     0
 40
0.0
  0
LTYPE
  5
5D
330
5
100
AcDbSymbolTableRecord
100
AcDbLinetypeTableRecord
  2
Continuous
 70
     0
  3
Solid line
 72
    65
 73
     0
 40
0.0
  0
LTYPE
  5
22F
330
5
100
AcDbSymbolTableRecord
100
AcDbLinetypeTableRecord
  2
AI-Linetype-0
 70
     0
  3
Adobe Illustrator Linetype No. 0
 72
    65
 73
     4
 40
240.3928474222652
 49
226.7857050010835
 74
     0
 49
-4.535714140393883
 74
     0
 49
4.535714140393883
 74
     0
 49
-4.535714140393883
 74
     0
  0
LTYPE
  5
231
330
5
100
AcDbSymbolTableRecord
100
AcDbLinetypeTableRecord
  2
AI-Linetype-1
 70
     0
  3
Adobe Illustrator Linetype No. 1
 72
    65
 73
     4
 40
240.3928474222652
 49
226.7857050010835
 74
     0
 49
-4.535714140393883
 74
     0
 49
4.535714140393883
 74
     0
 49
-4.535714140393883
 74
     0
  0
LTYPE
  5
233
330
5
100
AcDbSymbolTableRecord
100
AcDbLinetypeTableRecord
  2
AI-Linetype-2
 70
     0
  3
Adobe Illustrator Linetype No. 2
 72
    65
 73
     4
 40
240.3928474222652
 49
226.7857050010835
 74
     0
 49
-4.535714140393883
 74
     0
 49
4.535714140393883
 74
     0
 49
-4.535714140393883
 74
     0
  0
LTYPE
  5
235
330
5
100
AcDbSymbolTableRecord
100
AcDbLinetypeTableRecord
  2
AI-Linetype-3
 70
     0
  3
Adobe Illustrator Linetype No. 3
 72
    65
 73
     4
 40
240.3928474222652
 49
226.7857050010835
 74
     0
 49
-4.535714140393883
 74
     0
 49
4.535714140393883
 74
     0
 49
-4.535714140393883
 74
     0
  0
LTYPE
  5
237
330
5
100
AcDbSymbolTableRecord
100
AcDbLinetypeTableRecord
  2
AI-Linetype-4
 70
     0
  3
Adobe Illustrator Linetype No. 4
 72
    65
 73
     4
 40
240.3928474222652
 49
226.7857050010835
 74
     0
 49
-4.535714140393883
 74
     0
 49
4.535714140393883
 74
     0
 49
-4.535714140393883
 74
     0
  0
LTYPE
  5
239
330
5
100
AcDbSymbolTableRecord
100
AcDbLinetypeTableRecord
  2
AI-Linetype-5
 70
     0
  3
Adobe Illustrator Linetype No. 5
 72
    65
 73
     4
 40
240.3928474222652
 49
226.7857050010835
 74
     0
 49
-4.535714140393883
 74
     0
 49
4.535714140393883
 74
     0
 49
-4.535714140393883
 74
     0
  0
ENDTAB
  0
TABLE
  2
LAYER
  5
2
330
0
100
AcDbSymbolTable
 70
     8
  0
LAYER
  5
54
330
2
100
AcDbSymbolTableRecord
100
AcDbLayerTableRecord
  2
0
 70
     0
 62
     7
  6
Continuous
370
    -3
390
F
347
21
348
0
  0
LAYER
  5
78
330
2
100
AcDbSymbolTableRecord
100
AcDbLayerTableRecord
  2
FLAME
 70
     0
 62
     7
  6
Continuous
370
     0
390
F
347
21
348
0
  0
LAYER
  5
80
330
2
100
AcDbSymbolTableRecord
100
AcDbLayerTableRecord
  2
SPEC
 70
     0
 62
     7
  6
Continuous
370
     0
390
F
347
21
348
0
  0
LAYER
  5
94
330
2
100
AcDbSymbolTableRecord
100
AcDbLayerTableRecord
  2
HONTAI
 70
     0
 62
     7
  6
Continuous
370
     0
390
F
347
21
348
0
  0
LAYER
  5
228
330
2
100
AcDbSymbolTableRecord
100
AcDbLayerTableRecord
  2
DIM
 70
     0
 62
     7
  6
Continuous
370
     0
390
F
347
21
348
0
  0
LAYER
  5
22D
330
2
100
AcDbSymbolTableRecord
100
AcDbLayerTableRecord
  2
CL
 70
     0
 62
     7
  6
Continuous
370
     0
390
F
347
21
348
0
  0
LAYER
  5
23A
330
2
100
AcDbSymbolTableRecord
100
AcDbLayerTableRecord
  2
1-CL
 70
     0
 62
     7
  6
Continuous
370
     0
390
F
347
21
348
0
  0
LAYER
  5
23C
330
2
100
AcDbSymbolTableRecord
100
AcDbLayerTableRecord
  2
0-HONTAI
 70
     0
 62
     7
  6
Continuous
370
     0
390
F
347
21
348
0
  0
ENDTAB
  0
TABLE
  2
STYLE
  5
3
330
0
100
AcDbSymbolTable
 70
     2
  0
STYLE
  5
55
330
3
100
AcDbSymbolTableRecord
100
AcDbTextStyleTableRecord
  2
Standard
 70
     0
 40
0.0
 41
1.0
 50
0.0
 71
     0
 42
0.2
  3
txt
  4

  0
STYLE
  5
5A
330
3
100
AcDbSymbolTableRecord
100
AcDbTextStyleTableRecord
  2
Annotative
 70
     0
 40
0.0
 41
1.0
 50
0.0
 71
     0
 42
0.2
  3
txt
  4

1001
AcadAnnotative
1000
AnnotativeData
1002
{
1070
     1
1070
     1
1002
}
  0
ENDTAB
  0
TABLE
  2
VIEW
  5
6
330
0
100
AcDbSymbolTable
 70
     0
  0
ENDTAB
  0
TABLE
  2
UCS
  5
7
330
0
100
AcDbSymbolTable
 70
     0
  0
ENDTAB
  0
TABLE
  2
APPID
  5
9
330
0
100
AcDbSymbolTable
 70
     2
  0
APPID
  5
56
330
9
100
AcDbSymbolTableRecord
100
AcDbRegAppTableRecord
  2
ACAD
 70
     0
  0
APPID
  5
5E
330
9
100
AcDbSymbolTableRecord
100
AcDbRegAppTableRecord
  2
AcadAnnotative
 70
     0
  0
ENDTAB
  0
TABLE
  2
DIMSTYLE
  5
A
330
0
100
AcDbSymbolTable
 70
     2
100
AcDbDimStyleTable
 71
     0
  0
DIMSTYLE
105
58
330
A
100
AcDbSymbolTableRecord
100
AcDbDimStyleTableRecord
  2
Standard
 70
     0
340
55
  0
DIMSTYLE
105
59
330
A
100
AcDbSymbolTableRecord
100
AcDbDimStyleTableRecord
  2
Annotative
 70
     0
340
55
1001
AcadAnnotative
1000
AnnotativeData
1002
{
1070
     1
1070
     1
1002
}
  0
ENDTAB
  0
TABLE
  2
BLOCK_RECORD
  5
1
330
0
100
AcDbSymbolTable
 70
     2
  0
BLOCK_RECORD
  5
70
330
1
100
AcDbSymbolTableRecord
100
AcDbBlockTableRecord
  2
*Model_Space
340
73
 70
     0
280
     1
281
     0
  0
BLOCK_RECORD
  5
6C
330
1
100
AcDbSymbolTableRecord
100
AcDbBlockTableRecord
  2
*Paper_Space
340
6F
 70
     0
280
     1
281
     0
  0
BLOCK_RECORD
  5
74
330
1
100
AcDbSymbolTableRecord
100
AcDbBlockTableRecord
  2
*Paper_Space0
340
77
 70
     0
280
     1
281
     0
  0
BLOCK_RECORD
  5
82
330
1
100
AcDbSymbolTableRecord
100
AcDbBlockTableRecord
  2
Block_0
340
0
102
{BLKREFS
331
83
102
}
 70
     0
280
     1
281
     0
  0
ENDTAB
  0
ENDSEC
  0
SECTION
  2
BLOCKS
  0
BLOCK
  5
71
330
70
100
AcDbEntity
  8
0
100
AcDbBlockBegin
  2
*Model_Space
 70
     0
 10
0.0
 20
0.0
 30
0.0
  3
*Model_Space
  1

  0
ENDBLK
  5
72
330
70
100
AcDbEntity
  8
0
100
AcDbBlockEnd
  0
BLOCK
  5
6D
330
6C
100
AcDbEntity
 67
     1
  8
0
100
AcDbBlockBegin
  2
*Paper_Space
 70
     0
 10
0.0
 20
0.0
 30
0.0
  3
*Paper_Space
  1

  0
ENDBLK
  5
6E
330
6C
100
AcDbEntity
 67
     1
  8
0
100
AcDbBlockEnd
  0
BLOCK
  5
75
330
74
100
AcDbEntity
 67
     1
  8
0
100
AcDbBlockBegin
  2
*Paper_Space0
 70
     0
 10
0.0
 20
0.0
 30
0.0
  3
*Paper_Space0
  1

  0
ENDBLK
  5
76
330
74
100
AcDbEntity
 67
     1
  8
0
100
AcDbBlockEnd
  0
BLOCK
  5
84
330
82
100
AcDbEntity
  8
0
100
AcDbBlockBegin
  2
Block_0
 70
     0
 10
0.0
 20
0.0
 30
0.0
  3
Block_0
  1

  0
MTEXT
  5
86
330
82
100
AcDbEntity
  8
SPEC
100
AcDbMText
 10
187.6349293557605
 20
24.28965110171568
 30
0.0
 40
0.2
 41
0.0
 46
0.0
 71
     7
 72
     1
  1
\C9;\c12632256;\FKozuka Gothic Pr6N R|b0|i0|c128;\H7.493000;\W1.000000;E26 LED
 73
     1
 44
1.0
  0
MTEXT
  5
87
330
82
100
AcDbEntity
  8
SPEC
100
AcDbMText
 10
240.0859267588262
 20
24.28965110171568
 30
0.0
 40
0.2
 41
0.0
 46
0.0
 71
     7
 72
     1
  1
\C9;\c12632256;\FMS PGothic|b0|i0|c128;\H7.493000;\W1.000000;電球
 73
     1
 44
1.0
  0
MTEXT
  5
88
330
82
100
AcDbEntity
  8
SPEC
100
AcDbMText
 10
261.8837564449457
 20
24.28965110171568
 30
0.0
 40
0.2
 41
0.0
 46
0.0
 71
     7
 72
     1
  1
\C9;\c12632256;\FKozuka Gothic Pr6N R|b0|i0|c128;\H7.493000;\W1.000000;(100
 73
     1
 44
1.0
  0
MTEXT
  5
89
330
82
100
AcDbEntity
  8
SPEC
100
AcDbMText
 10
284.3627461040396
 20
24.28965110171568
 30
0.0
 40
0.2
 41
0.0
 46
0.0
 71
     7
 72
     1
  1
\C9;\c12632256;\FMS PGothic|b0|i0|c128;\H7.493000;\W1.000000;相当
 73
     1
 44
1.0
  0
MTEXT
  5
8A
330
82
100
AcDbEntity
  8
SPEC
100
AcDbMText
 10
306.1605757901591
 20
24.28965110171568
 30
0.0
 40
0.2
 41
0.0
 46
0.0
 71
     7
 72
     1
  1
\C9;\c12632256;\FKozuka Gothic Pr6N R|b0|i0|c128;\H7.493000;\W1.000000;,
 73
     1
 44
1.0
  0
MTEXT
  5
8B
330
82
100
AcDbEntity
  8
SPEC
100
AcDbMText
 10
309.9070740666747
 20
24.28965110171568
 30
0.0
 40
0.2
 41
0.0
 46
0.0
 71
     7
 72
     1
  1
\C9;\c12632256;\FMS PGothic|b0|i0|c128;\H7.493000;\W1.000000;電球色
 73
     1
 44
1.0
  0
MTEXT
  5
8C
330
82
100
AcDbEntity
  8
SPEC
100
AcDbMText
 10
342.6037862980839
 20
24.28965110171568
 30
0.0
 40
0.2
 41
0.0
 46
0.0
 71
     7
 72
     1
  1
\C9;\c12632256;\FKozuka Gothic Pr6N R|b0|i0|c128;\H7.493000;\W1.000000;,
 73
     1
 44
1.0
  0
MTEXT
  5
8D
330
82
100
AcDbEntity
  8
SPEC
100
AcDbMText
 10
346.3502845745995
 20
24.28965110171568
 30
0.0
 40
0.2
 41
0.0
 46
0.0
 71
     7
 72
     1
  1
\C9;\c12632256;\FMS PGothic|b0|i0|c128;\H7.493000;\W1.000000;全方向
 73
     1
 44
1.0
  0
MTEXT
  5
8E
330
82
100
AcDbEntity
  8
SPEC
100
AcDbMText
 10
379.0470183378555
 20
24.28965110171568
 30
0.0
 40
0.2
 41
0.0
 46
0.0
 71
     7
 72
     1
  1
\C9;\c12632256;\FKozuka Gothic Pr6N R|b0|i0|c128;\H7.493000;\W1.000000;/
 73
     1
 44
1.0
  0
MTEXT
  5
8F
330
82
100
AcDbEntity
  8
SPEC
100
AcDbMText
 10
386.5400148908867
 20
24.28965110171568
 30
0.0
 40
0.2
 41
0.0
 46
0.0
 71
     7
 72
     1
  1
\C9;\c12632256;\FMS PGothic|b0|i0|c128;\H7.493000;\W1.000000;広配光ﾀｲﾌﾟ
 73
     1
 44
1.0
  0
MTEXT
  5
90
330
82
100
AcDbEntity
  8
SPEC
100
AcDbMText
 10
439.6296253376838
 20
24.28965110171568
 30
0.0
 40
0.2
 41
0.0
 46
0.0
 71
     7
 72
     1
  1
\C9;\c12632256;\FKozuka Gothic Pr6N R|b0|i0|c128;\H7.493000;\W1.000000;)
 73
     1
 44
1.0
  0
MTEXT
  5
91
330
82
100
AcDbEntity
  8
SPEC
100
AcDbMText
 10
444.6249707276024
 20
24.28965110171568
 30
0.0
 40
0.2
 41
0.0
 46
0.0
 71
     7
 72
     1
  1
\C9;\c12632256;\FMS PGothic|b0|i0|c128;\H7.493000;\W1.000000;ｘ
 73
     1
 44
1.0
  0
MTEXT
  5
92
330
82
100
AcDbEntity
  8
SPEC
100
AcDbMText
 10
450.2872866034655
 20
24.28965110171568
 30
0.0
 40
0.2
 41
0.0
 46
0.0
 71
     7
 72
     1
  1
\C9;\c12632256;\FKozuka Gothic Pr6N R|b0|i0|c128;\H7.493000;\W1.000000;1
 73
     1
 44
1.0
  0
MTEXT
  5
93
330
82
100
AcDbEntity
  8
SPEC
100
AcDbMText
 10
455.2826319933841
 20
24.28965110171568
 30
0.0
 40
0.2
 41
0.0
 46
0.0
 71
     7
 72
     1
  1
\C9;\c12632256;\FMS PGothic|b0|i0|c128;\H7.493000;\W1.000000;灯
 73
     1
 44
1.0
  0
ENDBLK
  5
85
330
82
100
AcDbEntity
  8
0
100
AcDbBlockEnd
  0
ENDSEC
  0
SECTION
  2
ENTITIES
  0
LINE
  5
79
330
70
100
AcDbEntity
  8
FLAME
 62
     2
420
 16776960
370
    25
100
AcDbLine
 10
501.9523808268929
 20
380.9999999047501
 30
0.0
 11
501.9523808268929
 21
0.0
 31
0.0
  0
LINE
  5
7A
330
70
100
AcDbEntity
  8
FLAME
 62
     2
420
 16776960
370
    25
100
AcDbLine
 10
175.380952337107
 20
0.0
 30
0.0
 11
175.380952337107
 21
380.9999999047501
 31
0.0
  0
LINE
  5
7B
330
70
100
AcDbEntity
  8
FLAME
 62
     2
420
 16776960
370
    25
100
AcDbLine
 10
501.9523808268929
 20
0.0
 30
0.0
 11
175.380952337107
 21
0.0
 31
0.0
  0
LINE
  5
7C
330
70
100
AcDbEntity
  8
FLAME
 62
     2
420
 16776960
370
    25
100
AcDbLine
 10
501.9523808268929
 20
18.14285713832436
 30
0.0
 11
175.380952337107
 21
18.14285713832436
 31
0.0
  0
LINE
  5
7D
330
70
100
AcDbEntity
  8
FLAME
 62
     2
420
 16776960
370
    25
100
AcDbLine
 10
501.9523808268929
 20
36.28571427663846
 30
0.0
 11
175.380952337107
 21
36.28571427663846
 31
0.0
  0
LINE
  5
7E
330
70
100
AcDbEntity
  8
FLAME
 62
     2
420
 16776960
370
    25
100
AcDbLine
 10
501.9523808268929
 20
54.42857141496283
 30
0.0
 11
175.380952337107
 21
54.42857141496283
 31
0.0
  0
LINE
  5
7F
330
70
100
AcDbEntity
  8
FLAME
 62
     2
420
 16776960
370
    25
100
AcDbLine
 10
501.9523808268929
 20
380.9999999047501
 30
0.0
 11
175.380952337107
 21
380.9999999047501
 31
0.0
  0
MTEXT
  5
81
330
70
100
AcDbEntity
  8
SPEC
100
AcDbMText
 10
187.6349293557605
 20
41.1836753530328
 30
0.0
 40
0.2
 41
0.0
 46
0.0
 71
     7
 72
     1
  1
\C9;\c12632256;\FKozuka Gothic Pr6N R|b0|i0|c128;\H9.071429;\W1.000000;KT328TLO / KT328TSO
 73
     1
 44
1.0
  0
INSERT
  5
83
330
70
100
AcDbEntity
  8
SPEC
100
AcDbBlockReference
  2
Block_0
 10
0.0
 20
0.0
 30
0.0
  0
LINE
  5
95
330
70
100
AcDbEntity
  8
HONTAI
 62
     2
420
 16776960
370
    25
100
AcDbLine
 10
318.3041766053971
 20
238.6355342607177
 30
0.0
 11
318.30417660539
 21
102.6849146752192
 31
0.0
  0
LINE
  5
96
330
70
100
AcDbEntity
  8
HONTAI
 62
     2
420
 16776960
370
    25
100
AcDbLine
 10
318.30417660539
 20
146.4999146642696
 30
0.0
 11
326.686176603294
 21
146.4999146642696
 31
0.0
  0
LINE
  5
97
330
70
100
AcDbEntity
  8
HONTAI
 62
     2
420
 16776960
370
    25
100
AcDbLine
 10
280.5851766148198
 20
100.8848930449711
 30
0.0
 11
280.5851766148198
 21
99.16455169929612
 31
0.0
  0
SPLINE
  5
98
330
70
100
AcDbEntity
  8
HONTAI
 62
     2
420
 16776960
370
    25
100
AcDbSpline
210
0.0
220
0.0
230
1.0
 70
     8
 71
     3
 72
     8
 73
     4
 74
     0
 42
0.0000000001
 43
0.0000000001
 40
0.0
 40
0.0
 40
0.0
 40
0.0
 40
1.0
 40
1.0
 40
1.0
 40
1.0
 10
283.6073317578559
 20
105.5863456077794
 30
0.0
 10
281.9950326075863
 20
104.5026965209409
 30
0.0
 10
280.9015378106476
 20
102.8015879834339
 30
0.0
 10
280.5851766148198
 20
100.8848930449679
 30
0.0
  0
LINE
  5
99
330
70
100
AcDbEntity
  8
HONTAI
 62
     9
420
 12632256
370
    25
100
AcDbLine
 10
299.6351766100573
 20
354.1449146123604
 30
0.0
 11
289.7811856635708
 21
351.477914613028
 31
0.0
  0
LINE
  5
9A
330
70
100
AcDbEntity
  8
HONTAI
 62
     9
420
 12632256
370
    25
100
AcDbLine
 10
289.7811856635708
 20
351.477914613028
 30
0.0
 11
291.6861856630937
 21
342.8592837220727
 31
0.0
  0
LINE
  5
9B
330
70
100
AcDbEntity
  8
HONTAI
 62
     9
420
 12632256
370
    25
100
AcDbLine
 10
291.6861856630937
 20
342.8592837220727
 30
0.0
 11
293.591185662618
 21
341.2923185189795
 31
0.0
  0
LINE
  5
9C
330
70
100
AcDbEntity
  8
HONTAI
 62
     9
420
 12632256
370
    25
100
AcDbLine
 10
293.591185662618
 20
341.2923185189795
 30
0.0
 11
242.4851766243448
 21
249.2376741733334
 31
0.0
  0
LINE
  5
9D
330
70
100
AcDbEntity
  8
HONTAI
 62
     9
420
 12632256
370
    25
100
AcDbLine
 10
242.4851766243448
 20
249.2376741733334
 30
0.0
 11
246.295176623392
 21
246.2916060821744
 31
0.0
  0
LINE
  5
9E
330
70
100
AcDbEntity
  8
HONTAI
 62
     9
420
 12632256
370
    25
100
AcDbLine
 10
320.502796325636
 20
351.8581630126406
 30
0.0
 11
320.0249644255649
 21
347.5460654066533
 31
0.0
  0
LINE
  5
9F
330
70
100
AcDbEntity
  8
HONTAI
 62
     9
420
 12632256
370
    25
100
AcDbLine
 10
318.6058396174948
 20
351.8581630126406
 30
0.0
 11
316.8144516932635
 21
347.5460654066533
 31
0.0
  0
LINE
  5
A0
330
70
100
AcDbEntity
  8
HONTAI
 62
     9
420
 12632256
370
    25
100
AcDbLine
 10
316.5785732347855
 20
351.8581630126406
 30
0.0
 11
314.0281727075643
 21
347.5460654066533
 31
0.0
  0
LINE
  5
A1
330
70
100
AcDbEntity
  8
HONTAI
 62
     9
420
 12632256
370
    25
100
AcDbLine
 10
314.6765961298719
 20
351.9467873642893
 30
0.0
 11
311.3063327340299
 21
347.5460654066533
 31
0.0
  0
LINE
  5
A2
330
70
100
AcDbEntity
  8
HONTAI
 62
     9
420
 12632256
370
    25
100
AcDbLine
 10
312.8341231433674
 20
352.0442399331947
 30
0.0
 11
308.6696466183548
 21
347.5460654066533
 31
0.0
  0
LINE
  5
A3
330
70
100
AcDbEntity
  8
HONTAI
 62
     9
420
 12632256
370
    25
100
AcDbLine
 10
311.065176607199
 20
352.130864438894
 30
0.0
 11
306.1381811339602
 21
347.914523714965
 31
0.0
  0
LINE
  5
A4
330
70
100
AcDbEntity
  8
HONTAI
 62
     9
420
 12632256
370
    25
100
AcDbLine
 10
309.3832192726383
 20
352.2612422281114
 30
0.0
 11
303.7312022617186
 21
347.914523714965
 31
0.0
  0
LINE
  5
A5
330
70
100
AcDbEntity
  8
HONTAI
 62
     9
420
 12632256
370
    25
100
AcDbLine
 10
307.8010518505809
 20
352.3378979200029
 30
0.0
 11
301.4670285642151
 21
348.1852252952792
 31
0.0
  0
LINE
  5
A6
330
70
100
AcDbEntity
  8
HONTAI
 62
     9
420
 12632256
370
    25
100
AcDbLine
 10
306.330715590464
 20
352.4912169077449
 30
0.0
 11
299.362891770449
 21
348.4811188513226
 31
0.0
  0
LINE
  5
A7
330
70
100
AcDbEntity
  8
HONTAI
 62
     9
420
 12632256
370
    25
100
AcDbLine
 10
304.9834006390235
 20
352.6226364418197
 30
0.0
 11
297.4348056319236
 21
348.776761476121
 31
0.0
  0
LINE
  5
A8
330
70
100
AcDbEntity
  8
HONTAI
 62
     9
420
 12632256
370
    25
100
AcDbLine
 10
303.7693608765798
 20
352.8276548690201
 30
0.0
 11
295.697444048366
 21
348.9807381584742
 31
0.0
  0
LINE
  5
A9
330
70
100
AcDbEntity
  8
HONTAI
 62
     9
420
 12632256
370
    25
100
AcDbLine
 10
302.6978358787848
 20
352.9862738287222
 30
0.0
 11
294.1640293904695
 21
349.3095949546969
 31
0.0
  0
LINE
  5
AA
330
70
100
AcDbEntity
  8
HONTAI
 62
     9
420
 12632256
370
    25
100
AcDbLine
 10
301.7769805978668
 20
353.1720617981538
 30
0.0
 11
292.8462318696763
 21
349.6762967443142
 31
0.0
  0
LINE
  5
AB
330
70
100
AcDbEntity
  8
HONTAI
 62
     9
420
 12632256
370
    25
100
AcDbLine
 10
301.0138032985535
 20
353.3457822561343
 30
0.0
 11
291.7540807208451
 21
350.0429985339521
 31
0.0
  0
LINE
  5
AC
330
70
100
AcDbEntity
  8
HONTAI
 62
     9
420
 12632256
370
    25
100
AcDbLine
 10
300.4141122208998
 20
353.5482229351505
 30
0.0
 11
290.8958878736726
 21
350.3734825812466
 31
0.0
  0
LINE
  5
AD
330
70
100
AcDbEntity
  8
HONTAI
 62
     9
420
 12632256
370
    25
100
AcDbLine
 10
299.9824713761102
 20
353.7423220513998
 30
0.0
 11
290.278184693903
 21
350.7688209481548
 31
0.0
  0
LINE
  5
AE
330
70
100
AcDbEntity
  8
HONTAI
 62
     9
420
 12632256
370
    25
100
AcDbLine
 10
299.7221658116573
 20
353.9347939166082
 30
0.0
 11
289.9056722757249
 21
351.2141478597047
 31
0.0
  0
LINE
  5
AF
330
70
100
AcDbEntity
  8
HONTAI
 62
     9
420
 12632256
370
    25
100
AcDbLine
 10
320.0249644255649
 20
347.5460654066533
 30
0.0
 11
322.495176604342
 21
341.129804782923
 31
0.0
  0
LINE
  5
B0
330
70
100
AcDbEntity
  8
HONTAI
 62
     9
420
 12632256
370
    25
100
AcDbLine
 10
316.8144516932635
 20
347.5460654066533
 30
0.0
 11
319.8099961155561
 21
341.129804782923
 31
0.0
  0
LINE
  5
B1
330
70
100
AcDbEntity
  8
HONTAI
 62
     9
420
 12632256
370
    25
100
AcDbLine
 10
314.0281727075643
 20
347.5460654066533
 30
0.0
 11
317.145251471641
 21
341.129804782923
 31
0.0
  0
LINE
  5
B2
330
70
100
AcDbEntity
  8
HONTAI
 62
     9
420
 12632256
370
    25
100
AcDbLine
 10
311.3063327340299
 20
347.5460654066533
 30
0.0
 11
314.5212229883554
 21
341.129804782923
 31
0.0
  0
LINE
  5
B3
330
70
100
AcDbEntity
  8
HONTAI
 62
     9
420
 12632256
370
    25
100
AcDbLine
 10
308.6696466183548
 20
347.5460654066533
 30
0.0
 11
311.9578811068996
 21
341.129804782923
 31
0.0
  0
LINE
  5
B4
330
70
100
AcDbEntity
  8
HONTAI
 62
     9
420
 12632256
370
    25
100
AcDbLine
 10
306.1381811339602
 20
347.914523714965
 30
0.0
 11
309.4747344067684
 21
341.3174253108141
 31
0.0
  0
LINE
  5
B5
330
70
100
AcDbEntity
  8
HONTAI
 62
     9
420
 12632256
370
    25
100
AcDbLine
 10
303.7312022617186
 20
347.914523714965
 30
0.0
 11
307.0906811337211
 21
341.3174253108141
 31
0.0
  0
LINE
  5
B6
330
70
100
AcDbEntity
  8
HONTAI
 62
     9
420
 12632256
370
    25
100
AcDbLine
 10
301.4670285642228
 20
348.1852252952792
 30
0.0
 11
304.8238653726942
 21
341.4864693229467
 31
0.0
  0
LINE
  5
B7
330
70
100
AcDbEntity
  8
HONTAI
 62
     9
420
 12632256
370
    25
100
AcDbLine
 10
299.362891770449
 20
348.4811188513226
 30
0.0
 11
302.6915389603645
 21
341.8949549660512
 31
0.0
  0
LINE
  5
B8
330
70
100
AcDbEntity
  8
HONTAI
 62
     9
420
 12632256
370
    25
100
AcDbLine
 10
297.4348056319236
 20
348.776761476121
 30
0.0
 11
300.7099301882756
 21
342.0092731558984
 31
0.0
  0
LINE
  5
B9
330
70
100
AcDbEntity
  8
HONTAI
 62
     9
420
 12632256
370
    25
100
AcDbLine
 10
295.697444048366
 20
348.9807381584742
 30
0.0
 11
298.8941202957025
 21
342.1532544599245
 31
0.0
  0
LINE
  5
BA
330
70
100
AcDbEntity
  8
HONTAI
 62
     9
420
 12632256
370
    25
100
AcDbLine
 10
294.1640293904625
 20
349.3095949546969
 30
0.0
 11
297.2579286923432
 21
342.3404187491828
 31
0.0
  0
LINE
  5
BB
330
70
100
AcDbEntity
  8
HONTAI
 62
     9
420
 12632256
370
    25
100
AcDbLine
 10
292.8462318696763
 20
349.6762967443142
 30
0.0
 11
295.8138077842625
 21
342.5879814275746
 31
0.0
  0
LINE
  5
BC
330
70
100
AcDbEntity
  8
HONTAI
 62
     9
420
 12632256
370
    25
100
AcDbLine
 10
291.7540807208451
 20
350.0429985339418
 30
0.0
 11
294.5727482035502
 21
342.5879814275746
 31
0.0
  0
LINE
  5
BD
330
70
100
AcDbEntity
  8
HONTAI
 62
     9
420
 12632256
370
    25
100
AcDbLine
 10
290.8958878736726
 20
350.3734825812466
 30
0.0
 11
293.5441951629938
 21
342.7885591322231
 31
0.0
  0
LINE
  5
BE
330
70
100
AcDbEntity
  8
HONTAI
 62
     9
420
 12632256
370
    25
100
AcDbLine
 10
290.278184693903
 20
350.7688209481548
 30
0.0
 11
292.7359765722902
 21
342.8592837220727
 31
0.0
  0
LINE
  5
BF
330
70
100
AcDbEntity
  8
HONTAI
 62
     9
420
 12632256
370
    25
100
AcDbLine
 10
289.9056722757249
 20
351.2141478597047
 30
0.0
 11
292.154243462922
 21
342.8592837220727
 31
0.0
  0
LINE
  5
C0
330
70
100
AcDbEntity
  8
HONTAI
 62
     9
420
 12632256
370
    25
100
AcDbLine
 10
322.495176604342
 20
351.6734928278215
 30
0.0
 11
320.0249644255649
 21
347.5460654066533
 31
0.0
  0
LINE
  5
C1
330
70
100
AcDbEntity
  8
HONTAI
 62
     9
420
 12632256
370
    25
100
AcDbLine
 10
320.502796325636
 20
351.8581630126406
 30
0.0
 11
316.8144516932635
 21
347.5460654066533
 31
0.0
  0
LINE
  5
C2
330
70
100
AcDbEntity
  8
HONTAI
 62
     9
420
 12632256
370
    25
100
AcDbLine
 10
318.6058396174948
 20
351.8581630126406
 30
0.0
 11
314.0281727075643
 21
347.5460654066533
 31
0.0
  0
LINE
  5
C3
330
70
100
AcDbEntity
  8
HONTAI
 62
     9
420
 12632256
370
    25
100
AcDbLine
 10
316.5785732347855
 20
351.8581630126406
 30
0.0
 11
311.3063327340299
 21
347.5460654066533
 31
0.0
  0
LINE
  5
C4
330
70
100
AcDbEntity
  8
HONTAI
 62
     9
420
 12632256
370
    25
100
AcDbLine
 10
314.6765961298719
 20
351.9467873642893
 30
0.0
 11
308.6696466183548
 21
347.5460654066533
 31
0.0
  0
LINE
  5
C5
330
70
100
AcDbEntity
  8
HONTAI
 62
     9
420
 12632256
370
    25
100
AcDbLine
 10
312.8341231433674
 20
352.0442399331947
 30
0.0
 11
306.1381811339602
 21
347.914523714965
 31
0.0
  0
LINE
  5
C6
330
70
100
AcDbEntity
  8
HONTAI
 62
     9
420
 12632256
370
    25
100
AcDbLine
 10
311.065176607199
 20
352.130864438894
 30
0.0
 11
303.7312022617186
 21
347.914523714965
 31
0.0
  0
LINE
  5
C7
330
70
100
AcDbEntity
  8
HONTAI
 62
     9
420
 12632256
370
    25
100
AcDbLine
 10
309.3832192726383
 20
352.2612422281114
 30
0.0
 11
301.4670285642151
 21
348.1852252952792
 31
0.0
  0
LINE
  5
C8
330
70
100
AcDbEntity
  8
HONTAI
 62
     9
420
 12632256
370
    25
100
AcDbLine
 10
307.8010518505809
 20
352.3378979200029
 30
0.0
 11
299.362891770449
 21
348.4811188513226
 31
0.0
  0
LINE
  5
C9
330
70
100
AcDbEntity
  8
HONTAI
 62
     9
420
 12632256
370
    25
100
AcDbLine
 10
306.330715590464
 20
352.4912169077449
 30
0.0
 11
297.4348056319236
 21
348.776761476121
 31
0.0
  0
LINE
  5
CA
330
70
100
AcDbEntity
  8
HONTAI
 62
     9
420
 12632256
370
    25
100
AcDbLine
 10
304.9834006390235
 20
352.6226364418197
 30
0.0
 11
295.697444048366
 21
348.9807381584742
 31
0.0
  0
LINE
  5
CB
330
70
100
AcDbEntity
  8
HONTAI
 62
     9
420
 12632256
370
    25
100
AcDbLine
 10
303.7693608765798
 20
352.8276548690201
 30
0.0
 11
294.1640293904695
 21
349.3095949546969
 31
0.0
  0
LINE
  5
CC
330
70
100
AcDbEntity
  8
HONTAI
 62
     9
420
 12632256
370
    25
100
AcDbLine
 10
302.6978358787848
 20
352.9862738287222
 30
0.0
 11
292.8462318696763
 21
349.6762967443142
 31
0.0
  0
LINE
  5
CD
330
70
100
AcDbEntity
  8
HONTAI
 62
     9
420
 12632256
370
    25
100
AcDbLine
 10
301.7769805978668
 20
353.1720617981538
 30
0.0
 11
291.7540807208451
 21
350.0429985339521
 31
0.0
  0
LINE
  5
CE
330
70
100
AcDbEntity
  8
HONTAI
 62
     9
420
 12632256
370
    25
100
AcDbLine
 10
301.0138032985535
 20
353.3457822561343
 30
0.0
 11
290.8958878736726
 21
350.3734825812466
 31
0.0
  0
LINE
  5
CF
330
70
100
AcDbEntity
  8
HONTAI
 62
     9
420
 12632256
370
    25
100
AcDbLine
 10
300.4141122208998
 20
353.5482229351505
 30
0.0
 11
290.278184693903
 21
350.7688209481548
 31
0.0
  0
LINE
  5
D0
330
70
100
AcDbEntity
  8
HONTAI
 62
     9
420
 12632256
370
    25
100
AcDbLine
 10
299.9824713761102
 20
353.7423220513998
 30
0.0
 11
289.9056722757249
 21
351.2141478597047
 31
0.0
  0
LINE
  5
D1
330
70
100
AcDbEntity
  8
HONTAI
 62
     9
420
 12632256
370
    25
100
AcDbLine
 10
299.7221658116573
 20
353.9347939166082
 30
0.0
 11
289.7811856635708
 21
351.477914613028
 31
0.0
  0
LINE
  5
D2
330
70
100
AcDbEntity
  8
HONTAI
 62
     9
420
 12632256
370
    25
100
AcDbLine
 10
289.7811856635708
 20
351.477914613028
 30
0.0
 11
291.8034231751212
 21
342.8592837220727
 31
0.0
  0
LINE
  5
D3
330
70
100
AcDbEntity
  8
HONTAI
 62
     9
420
 12632256
370
    25
100
AcDbLine
 10
319.9969178229974
 20
347.6455598470147
 30
0.0
 11
319.8099961155561
 21
341.129804782923
 31
0.0
  0
LINE
  5
D4
330
70
100
AcDbEntity
  8
HONTAI
 62
     9
420
 12632256
370
    25
100
AcDbLine
 10
316.8144516932635
 20
347.5460654066533
 30
0.0
 11
317.145251471641
 21
341.129804782923
 31
0.0
  0
LINE
  5
D5
330
70
100
AcDbEntity
  8
HONTAI
 62
     9
420
 12632256
370
    25
100
AcDbLine
 10
314.5212229883554
 20
341.129804782923
 30
0.0
 11
314.0281727075643
 21
347.5460654066533
 31
0.0
  0
LINE
  5
D6
330
70
100
AcDbEntity
  8
HONTAI
 62
     9
420
 12632256
370
    25
100
AcDbLine
 10
311.3063327340299
 20
347.5460654066533
 30
0.0
 11
311.9578811068996
 21
341.129804782923
 31
0.0
  0
LINE
  5
D7
330
70
100
AcDbEntity
  8
HONTAI
 62
     9
420
 12632256
370
    25
100
AcDbLine
 10
308.6696466183548
 20
347.5460654066533
 30
0.0
 11
309.4747344067684
 21
341.3174253108141
 31
0.0
  0
LINE
  5
D8
330
70
100
AcDbEntity
  8
HONTAI
 62
     9
420
 12632256
370
    25
100
AcDbLine
 10
306.1381811339602
 20
347.914523714965
 30
0.0
 11
307.0906811337211
 21
341.3174253108141
 31
0.0
  0
LINE
  5
D9
330
70
100
AcDbEntity
  8
HONTAI
 62
     9
420
 12632256
370
    25
100
AcDbLine
 10
303.7312022617186
 20
347.914523714965
 30
0.0
 11
304.8238653726942
 21
341.4864693229467
 31
0.0
  0
LINE
  5
DA
330
70
100
AcDbEntity
  8
HONTAI
 62
     9
420
 12632256
370
    25
100
AcDbLine
 10
301.4670285642228
 20
348.1852252952792
 30
0.0
 11
302.6915389603645
 21
341.8949549660512
 31
0.0
  0
LINE
  5
DB
330
70
100
AcDbEntity
  8
HONTAI
 62
     9
420
 12632256
370
    25
100
AcDbLine
 10
299.4777135597147
 20
348.1178325225843
 30
0.0
 11
300.7099301882756
 21
342.0092731558984
 31
0.0
  0
LINE
  5
DC
330
70
100
AcDbEntity
  8
HONTAI
 62
     9
420
 12632256
370
    25
100
AcDbLine
 10
297.4348056319236
 20
348.776761476121
 30
0.0
 11
298.8941202957025
 21
342.1532544599245
 31
0.0
  0
LINE
  5
DD
330
70
100
AcDbEntity
  8
HONTAI
 62
     9
420
 12632256
370
    25
100
AcDbLine
 10
295.697444048366
 20
348.9807381584742
 30
0.0
 11
297.2579286923432
 21
342.3404187491828
 31
0.0
  0
LINE
  5
DE
330
70
100
AcDbEntity
  8
HONTAI
 62
     9
420
 12632256
370
    25
100
AcDbLine
 10
294.1640293904625
 20
349.3095949546969
 30
0.0
 11
295.8138077842625
 21
342.5879814275746
 31
0.0
  0
LINE
  5
DF
330
70
100
AcDbEntity
  8
HONTAI
 62
     9
420
 12632256
370
    25
100
AcDbLine
 10
292.8462318696763
 20
349.6762967443142
 30
0.0
 11
294.5727482035502
 21
342.5879814275746
 31
0.0
  0
LINE
  5
E0
330
70
100
AcDbEntity
  8
HONTAI
 62
     9
420
 12632256
370
    25
100
AcDbLine
 10
291.7540807208451
 20
350.0429985339418
 30
0.0
 11
293.5441951629938
 21
342.7885591322231
 31
0.0
  0
LINE
  5
E1
330
70
100
AcDbEntity
  8
HONTAI
 62
     9
420
 12632256
370
    25
100
AcDbLine
 10
290.8958878736726
 20
350.3734825812466
 30
0.0
 11
292.7359765722902
 21
342.8592837220727
 31
0.0
  0
LINE
  5
E2
330
70
100
AcDbEntity
  8
HONTAI
 62
     9
420
 12632256
370
    25
100
AcDbLine
 10
290.278184693903
 20
350.7688209481548
 30
0.0
 11
292.154243462922
 21
342.8592837220727
 31
0.0
  0
LINE
  5
E3
330
70
100
AcDbEntity
  8
HONTAI
 62
     9
420
 12632256
370
    25
100
AcDbLine
 10
322.495176604342
 20
341.129804782923
 30
0.0
 11
319.9760278054451
 21
339.2248047834013
 31
0.0
  0
LINE
  5
E4
330
70
100
AcDbEntity
  8
HONTAI
 62
     9
420
 12632256
370
    25
100
AcDbLine
 10
319.9760278054451
 20
339.2248047834013
 30
0.0
 11
319.8099961155561
 21
341.129804782923
 31
0.0
  0
LINE
  5
E5
330
70
100
AcDbEntity
  8
HONTAI
 62
     9
420
 12632256
370
    25
100
AcDbLine
 10
319.8099961155561
 20
341.129804782923
 30
0.0
 11
317.4760512500115
 21
339.2248047834013
 31
0.0
  0
LINE
  5
E6
330
70
100
AcDbEntity
  8
HONTAI
 62
     9
420
 12632256
370
    25
100
AcDbLine
 10
317.4760512500115
 20
339.2248047834013
 30
0.0
 11
317.145251471641
 21
341.129804782923
 31
0.0
  0
LINE
  5
E7
330
70
100
AcDbEntity
  8
HONTAI
 62
     9
420
 12632256
370
    25
100
AcDbLine
 10
317.145251471641
 20
341.129804782923
 30
0.0
 11
315.0142732691542
 21
339.2248047834013
 31
0.0
  0
LINE
  5
E8
330
70
100
AcDbEntity
  8
HONTAI
 62
     9
420
 12632256
370
    25
100
AcDbLine
 10
315.0142732691542
 20
339.2248047834013
 30
0.0
 11
314.5212229883554
 21
341.129804782923
 31
0.0
  0
LINE
  5
E9
330
70
100
AcDbEntity
  8
HONTAI
 62
     9
420
 12632256
370
    25
100
AcDbLine
 10
314.5212229883554
 20
341.129804782923
 30
0.0
 11
312.6094294797685
 21
339.2248047834013
 31
0.0
  0
LINE
  5
EA
330
70
100
AcDbEntity
  8
HONTAI
 62
     9
420
 12632256
370
    25
100
AcDbLine
 10
312.6094294797685
 20
339.2248047834013
 30
0.0
 11
311.9578811068996
 21
341.129804782923
 31
0.0
  0
LINE
  5
EB
330
70
100
AcDbEntity
  8
HONTAI
 62
     9
420
 12632256
370
    25
100
AcDbLine
 10
311.9578811068996
 20
341.129804782923
 30
0.0
 11
310.2798221951749
 21
339.4124253112924
 31
0.0
  0
LINE
  5
EC
330
70
100
AcDbEntity
  8
HONTAI
 62
     9
420
 12632256
370
    25
100
AcDbLine
 10
310.2798221951749
 20
339.4124253112924
 30
0.0
 11
309.4747344067684
 21
341.3174253108141
 31
0.0
  0
LINE
  5
ED
330
70
100
AcDbEntity
  8
HONTAI
 62
     9
420
 12632256
370
    25
100
AcDbLine
 10
309.4747344067684
 20
341.3174253108141
 30
0.0
 11
308.0431811334832
 21
339.4124253112924
 31
0.0
  0
LINE
  5
EE
330
70
100
AcDbEntity
  8
HONTAI
 62
     9
420
 12632256
370
    25
100
AcDbLine
 10
308.0431811334832
 20
339.4124253112924
 30
0.0
 11
307.0906811337211
 21
341.3174253108141
 31
0.0
  0
LINE
  5
EF
330
70
100
AcDbEntity
  8
HONTAI
 62
     9
420
 12632256
370
    25
100
AcDbLine
 10
307.0906811337211
 20
341.3174253108141
 30
0.0
 11
305.916528483655
 21
339.5537072034914
 31
0.0
  0
LINE
  5
F0
330
70
100
AcDbEntity
  8
HONTAI
 62
     9
420
 12632256
370
    25
100
AcDbLine
 10
305.916528483655
 20
339.5537072034914
 30
0.0
 11
304.8238653726942
 21
341.4864693229467
 31
0.0
  0
LINE
  5
F1
330
70
100
AcDbEntity
  8
HONTAI
 62
     9
420
 12632256
370
    25
100
AcDbLine
 10
304.8238653726942
 20
341.4864693229467
 30
0.0
 11
303.9160493564914
 21
339.7138545625612
 31
0.0
  0
LINE
  5
F2
330
70
100
AcDbEntity
  8
HONTAI
 62
     9
420
 12632256
370
    25
100
AcDbLine
 10
303.9160493564914
 20
339.7138545625612
 30
0.0
 11
302.6915389603645
 21
341.8949549660512
 31
0.0
  0
LINE
  5
F3
330
70
100
AcDbEntity
  8
HONTAI
 62
     9
420
 12632256
370
    25
100
AcDbLine
 10
302.6915389603645
 20
341.8949549660512
 30
0.0
 11
302.0569686060739
 21
339.9899549665295
 31
0.0
  0
LINE
  5
F4
330
70
100
AcDbEntity
  8
HONTAI
 62
     9
420
 12632256
370
    25
100
AcDbLine
 10
302.0569686060739
 20
339.9899549665295
 30
0.0
 11
300.7099301882756
 21
342.0092731558984
 31
0.0
  0
LINE
  5
F5
330
70
100
AcDbEntity
  8
HONTAI
 62
     9
420
 12632256
370
    25
100
AcDbLine
 10
300.7099301882756
 20
342.0092731558984
 30
0.0
 11
300.3534349594448
 21
340.1042731563767
 31
0.0
  0
LINE
  5
F6
330
70
100
AcDbEntity
  8
HONTAI
 62
     9
420
 12632256
370
    25
100
AcDbLine
 10
300.3534349594448
 20
340.1042731563767
 30
0.0
 11
298.8941202957025
 21
342.1532544599245
 31
0.0
  0
LINE
  5
F7
330
70
100
AcDbEntity
  8
HONTAI
 62
     9
420
 12632256
370
    25
100
AcDbLine
 10
298.8941202957025
 20
342.1532544599245
 30
0.0
 11
298.8184133362909
 21
340.2482544604028
 31
0.0
  0
LINE
  5
F8
330
70
100
AcDbEntity
  8
HONTAI
 62
     9
420
 12632256
370
    25
100
AcDbLine
 10
298.8184133362909
 20
340.2482544604028
 30
0.0
 11
297.2579286923432
 21
342.3404187491828
 31
0.0
  0
LINE
  5
F9
330
70
100
AcDbEntity
  8
HONTAI
 62
     9
420
 12632256
370
    25
100
AcDbLine
 10
297.2579286923432
 20
342.3404187491828
 30
0.0
 11
297.463586178026
 21
340.4354187496611
 31
0.0
  0
LINE
  5
FA
330
70
100
AcDbEntity
  8
HONTAI
 62
     9
420
 12632256
370
    25
100
AcDbLine
 10
297.463586178026
 20
340.4354187496611
 30
0.0
 11
295.8138077842625
 21
342.5879814275746
 31
0.0
  0
LINE
  5
FB
330
70
100
AcDbEntity
  8
HONTAI
 62
     9
420
 12632256
370
    25
100
AcDbLine
 10
295.8138077842625
 20
342.5879814275746
 30
0.0
 11
296.2992645373875
 21
340.6829814280426
 31
0.0
  0
LINE
  5
FC
330
70
100
AcDbEntity
  8
HONTAI
 62
     9
420
 12632256
370
    25
100
AcDbLine
 10
296.2992645373875
 20
340.6829814280426
 30
0.0
 11
294.5760652708636
 21
342.5879814275746
 31
0.0
  0
LINE
  5
FD
330
70
100
AcDbEntity
  8
HONTAI
 62
     9
420
 12632256
370
    25
100
AcDbLine
 10
294.5760652708636
 20
342.5879814275746
 30
0.0
 11
295.3343096051066
 21
340.8656897868001
 31
0.0
  0
LINE
  5
FE
330
70
100
AcDbEntity
  8
HONTAI
 62
     9
420
 12632256
370
    25
100
AcDbLine
 10
295.3343096051066
 20
340.8656897868001
 30
0.0
 11
293.5441951629938
 21
342.7885591322231
 31
0.0
  0
LINE
  5
FF
330
70
100
AcDbEntity
  8
HONTAI
 62
     9
420
 12632256
370
    25
100
AcDbLine
 10
293.5441951629938
 20
342.7885591322231
 30
0.0
 11
294.5760652708636
 21
341.0153968854905
 31
0.0
  0
LINE
  5
100
330
70
100
AcDbEntity
  8
HONTAI
 62
     9
420
 12632256
370
    25
100
AcDbLine
 10
294.5760652708636
 20
341.0153968854905
 30
0.0
 11
292.7359765722902
 21
342.8592837220727
 31
0.0
  0
LINE
  5
101
330
70
100
AcDbEntity
  8
HONTAI
 62
     9
420
 12632256
370
    25
100
AcDbLine
 10
292.7359765722902
 20
342.8592837220727
 30
0.0
 11
294.0303022318967
 21
341.1577129185674
 31
0.0
  0
LINE
  5
102
330
70
100
AcDbEntity
  8
HONTAI
 62
     9
420
 12632256
370
    25
100
AcDbLine
 10
294.0303022318967
 20
341.1577129185674
 30
0.0
 11
292.154243462922
 21
342.8592837220727
 31
0.0
  0
LINE
  5
103
330
70
100
AcDbEntity
  8
HONTAI
 62
     9
420
 12632256
370
    25
100
AcDbLine
 10
292.154243462922
 20
342.8592837220727
 30
0.0
 11
293.7011740744584
 21
341.260381815688
 31
0.0
  0
LINE
  5
104
330
70
100
AcDbEntity
  8
HONTAI
 62
     9
420
 12632256
370
    25
100
AcDbLine
 10
293.7011740744584
 20
341.260381815688
 30
0.0
 11
291.8034231751212
 21
342.8592837220727
 31
0.0
  0
LINE
  5
105
330
70
100
AcDbEntity
  8
HONTAI
 62
     9
420
 12632256
370
    25
100
AcDbLine
 10
319.9760278054451
 20
339.2248047834013
 30
0.0
 11
315.5218456287979
 21
240.5405342602599
 31
0.0
  0
LINE
  5
106
330
70
100
AcDbEntity
  8
HONTAI
 62
     9
420
 12632256
370
    25
100
AcDbLine
 10
319.9760278054451
 20
339.2248047834013
 30
0.0
 11
322.495176604342
 21
240.5405342602394
 31
0.0
  0
LINE
  5
107
330
70
100
AcDbEntity
  8
HONTAI
 62
     9
420
 12632256
370
    25
100
AcDbLine
 10
315.5218456287979
 20
240.5405342602599
 30
0.0
 11
317.4760512500115
 21
339.2248047834013
 31
0.0
  0
LINE
  5
108
330
70
100
AcDbEntity
  8
HONTAI
 62
     2
420
 16776960
370
    25
100
AcDbLine
 10
317.4760512500115
 20
339.2248047834013
 30
0.0
 11
317.4760512500115
 21
339.2248047834013
 31
0.0
  0
LINE
  5
109
330
70
100
AcDbEntity
  8
HONTAI
 62
     9
420
 12632256
370
    25
100
AcDbLine
 10
317.4760512500115
 20
339.2248047834013
 30
0.0
 11
308.6015859126354
 21
240.5405342602599
 31
0.0
  0
LINE
  5
10A
330
70
100
AcDbEntity
  8
HONTAI
 62
     9
420
 12632256
370
    25
100
AcDbLine
 10
308.6015859126354
 20
240.5405342602599
 30
0.0
 11
315.0142732691542
 21
339.2248047834013
 31
0.0
  0
LINE
  5
10B
330
70
100
AcDbEntity
  8
HONTAI
 62
     9
420
 12632256
370
    25
100
AcDbLine
 10
315.0142732691542
 20
339.2248047834013
 30
0.0
 11
301.7870648108225
 21
240.8683949354927
 31
0.0
  0
LINE
  5
10C
330
70
100
AcDbEntity
  8
HONTAI
 62
     9
420
 12632256
370
    25
100
AcDbLine
 10
301.7870648108225
 20
240.8683949354927
 30
0.0
 11
312.6094294797685
 21
339.2248047834013
 31
0.0
  0
LINE
  5
10D
330
70
100
AcDbEntity
  8
HONTAI
 62
     9
420
 12632256
370
    25
100
AcDbLine
 10
312.6094294797685
 20
339.2248047834013
 30
0.0
 11
295.1301449436492
 21
240.8683949354927
 31
0.0
  0
LINE
  5
10E
330
70
100
AcDbEntity
  8
HONTAI
 62
     9
420
 12632256
370
    25
100
AcDbLine
 10
295.1301449436492
 20
240.8683949354927
 30
0.0
 11
310.2798221951749
 21
339.4124253112924
 31
0.0
  0
LINE
  5
10F
330
70
100
AcDbEntity
  8
HONTAI
 62
     9
420
 12632256
370
    25
100
AcDbLine
 10
310.2798221951749
 20
339.4124253112924
 30
0.0
 11
288.6814894908777
 21
241.1494075085843
 31
0.0
  0
LINE
  5
110
330
70
100
AcDbEntity
  8
HONTAI
 62
     9
420
 12632256
370
    25
100
AcDbLine
 10
288.6814894908777
 20
241.1494075085843
 30
0.0
 11
308.0431811334832
 21
339.4124253112924
 31
0.0
  0
LINE
  5
111
330
70
100
AcDbEntity
  8
HONTAI
 62
     9
420
 12632256
370
    25
100
AcDbLine
 10
308.0431811334832
 20
339.4124253112924
 30
0.0
 11
282.4901766142991
 21
241.9956465021761
 31
0.0
  0
LINE
  5
112
330
70
100
AcDbEntity
  8
HONTAI
 62
     9
420
 12632256
370
    25
100
AcDbLine
 10
282.4901766142991
 20
241.9956465021761
 30
0.0
 11
305.916528483655
 21
339.5537072034914
 31
0.0
  0
LINE
  5
113
330
70
100
AcDbEntity
  8
HONTAI
 62
     9
420
 12632256
370
    25
100
AcDbLine
 10
305.916528483655
 20
339.5537072034914
 30
0.0
 11
276.6033259433203
 21
242.334175557115
 31
0.0
  0
LINE
  5
114
330
70
100
AcDbEntity
  8
HONTAI
 62
     9
420
 12632256
370
    25
100
AcDbLine
 10
276.6033259433203
 20
242.334175557115
 30
0.0
 11
303.9160493564914
 21
339.7138545625612
 31
0.0
  0
LINE
  5
115
330
70
100
AcDbEntity
  8
HONTAI
 62
     9
420
 12632256
370
    25
100
AcDbLine
 10
303.9160493564914
 20
339.7138545625612
 30
0.0
 11
271.0657399661335
 21
243.0037741655729
 31
0.0
  0
LINE
  5
116
330
70
100
AcDbEntity
  8
HONTAI
 62
     9
420
 12632256
370
    25
100
AcDbLine
 10
271.0657399661335
 20
243.0037741655729
 30
0.0
 11
302.0569686060739
 21
339.9899549665295
 31
0.0
  0
LINE
  5
117
330
70
100
AcDbEntity
  8
HONTAI
 62
     9
420
 12632256
370
    25
100
AcDbLine
 10
302.0569686060739
 20
339.9899549665295
 30
0.0
 11
265.9195630557032
 21
243.7143277940075
 31
0.0
  0
LINE
  5
118
330
70
100
AcDbEntity
  8
HONTAI
 62
     9
420
 12632256
370
    25
100
AcDbLine
 10
265.9195630557032
 20
243.7143277940075
 30
0.0
 11
300.3534349594448
 21
340.1042731563767
 31
0.0
  0
LINE
  5
119
330
70
100
AcDbEntity
  8
HONTAI
 62
     9
420
 12632256
370
    25
100
AcDbLine
 10
300.3534349594448
 20
340.1042731563767
 30
0.0
 11
261.20396072567
 21
244.235397920214
 31
0.0
  0
LINE
  5
11A
330
70
100
AcDbEntity
  8
HONTAI
 62
     9
420
 12632256
370
    25
100
AcDbLine
 10
261.20396072567
 20
244.235397920214
 30
0.0
 11
298.8184133362909
 21
340.2482544604028
 31
0.0
  0
LINE
  5
11B
330
70
100
AcDbEntity
  8
HONTAI
 62
     9
420
 12632256
370
    25
100
AcDbLine
 10
298.8184133362909
 20
340.2482544604028
 30
0.0
 11
256.9548215571229
 21
244.9298387214519
 31
0.0
  0
LINE
  5
11C
330
70
100
AcDbEntity
  8
HONTAI
 62
     9
420
 12632256
370
    25
100
AcDbLine
 10
256.9548215571229
 20
244.9298387214519
 30
0.0
 11
297.463586178026
 21
340.4354187496611
 31
0.0
  0
LINE
  5
11D
330
70
100
AcDbEntity
  8
HONTAI
 62
     9
420
 12632256
370
    25
100
AcDbLine
 10
297.463586178026
 20
340.4354187496611
 30
0.0
 11
253.2044840648236
 21
245.7761841707173
 31
0.0
  0
LINE
  5
11E
330
70
100
AcDbEntity
  8
HONTAI
 62
     9
420
 12632256
370
    25
100
AcDbLine
 10
253.2044840648236
 20
245.7761841707173
 30
0.0
 11
296.2992645373875
 21
340.6829814280426
 31
0.0
  0
LINE
  5
11F
330
70
100
AcDbEntity
  8
HONTAI
 62
     9
420
 12632256
370
    25
100
AcDbLine
 10
296.2992645373875
 20
340.6829814280426
 30
0.0
 11
249.9814905816238
 21
246.2568543672533
 31
0.0
  0
LINE
  5
120
330
70
100
AcDbEntity
  8
HONTAI
 62
     9
420
 12632256
370
    25
100
AcDbLine
 10
249.9814905816238
 20
246.2568543672533
 30
0.0
 11
295.3343096051066
 21
340.8656897868001
 31
0.0
  0
LINE
  5
121
330
70
100
AcDbEntity
  8
HONTAI
 62
     9
420
 12632256
370
    25
100
AcDbLine
 10
295.3343096051066
 20
340.8656897868001
 30
0.0
 11
247.3103700340154
 21
247.0168490539928
 31
0.0
  0
LINE
  5
122
330
70
100
AcDbEntity
  8
HONTAI
 62
     9
420
 12632256
370
    25
100
AcDbLine
 10
247.3103700340154
 20
247.0168490539928
 30
0.0
 11
294.5760652708636
 21
341.0153968854905
 31
0.0
  0
LINE
  5
123
330
70
100
AcDbEntity
  8
HONTAI
 62
     9
420
 12632256
370
    25
100
AcDbLine
 10
294.5760652708636
 20
341.0153968854905
 30
0.0
 11
245.2114512622286
 21
247.6919681497272
 31
0.0
  0
LINE
  5
124
330
70
100
AcDbEntity
  8
HONTAI
 62
     9
420
 12632256
370
    25
100
AcDbLine
 10
245.2114512622286
 20
247.6919681497272
 30
0.0
 11
294.0303022318967
 21
341.1577129185674
 31
0.0
  0
LINE
  5
125
330
70
100
AcDbEntity
  8
HONTAI
 62
     9
420
 12632256
370
    25
100
AcDbLine
 10
294.0303022318967
 20
341.1577129185674
 30
0.0
 11
243.7007083054919
 21
248.4329376860756
 31
0.0
  0
LINE
  5
126
330
70
100
AcDbEntity
  8
HONTAI
 62
     9
420
 12632256
370
    25
100
AcDbLine
 10
243.7007083054919
 20
248.4329376860756
 30
0.0
 11
293.7011740744584
 21
341.260381815688
 31
0.0
  0
LINE
  5
127
330
70
100
AcDbEntity
  8
HONTAI
 62
     9
420
 12632256
370
    25
100
AcDbLine
 10
293.7011740744584
 20
341.260381815688
 30
0.0
 11
242.7896388299008
 21
249.0182005859059
 31
0.0
  0
LINE
  5
128
330
70
100
AcDbEntity
  8
HONTAI
 62
     9
420
 12632256
370
    25
100
AcDbLine
 10
242.7896388299008
 20
249.0182005859059
 30
0.0
 11
293.591185662573
 21
341.2923185188871
 31
0.0
  0
LINE
  5
129
330
70
100
AcDbEntity
  8
HONTAI
 62
     9
420
 12632256
370
    25
100
AcDbLine
 10
291.8034231751212
 20
342.8592837220727
 30
0.0
 11
293.591185662618
 21
341.2923185189795
 31
0.0
  0
LINE
  5
12A
330
70
100
AcDbEntity
  8
HONTAI
 62
     9
420
 12632256
370
    25
100
AcDbLine
 10
322.495176604342
 20
240.5405342602394
 30
0.0
 11
319.2377878854409
 21
238.6355342607177
 31
0.0
  0
LINE
  5
12B
330
70
100
AcDbEntity
  8
HONTAI
 62
     9
420
 12632256
370
    25
100
AcDbLine
 10
319.2377878854409
 20
238.6355342607177
 30
0.0
 11
315.5218456287979
 21
240.5405342602599
 31
0.0
  0
LINE
  5
12C
330
70
100
AcDbEntity
  8
HONTAI
 62
     9
420
 12632256
370
    25
100
AcDbLine
 10
315.5218456287979
 20
240.5405342602599
 30
0.0
 11
312.6149864768423
 21
238.6355342607177
 31
0.0
  0
LINE
  5
12D
330
70
100
AcDbEntity
  8
HONTAI
 62
     9
420
 12632256
370
    25
100
AcDbLine
 10
312.6149864768423
 20
238.6355342607177
 30
0.0
 11
308.6015859126354
 21
240.5405342602394
 31
0.0
  0
LINE
  5
12E
330
70
100
AcDbEntity
  8
HONTAI
 62
     9
420
 12632256
370
    25
100
AcDbLine
 10
308.6015859126354
 20
240.5405342602394
 30
0.0
 11
306.0181754208941
 21
238.6355342607177
 31
0.0
  0
LINE
  5
12F
330
70
100
AcDbEntity
  8
HONTAI
 62
     9
420
 12632256
370
    25
100
AcDbLine
 10
306.0181754208941
 20
238.6355342607177
 30
0.0
 11
301.7870648108225
 21
240.8683949354927
 31
0.0
  0
LINE
  5
130
330
70
100
AcDbEntity
  8
HONTAI
 62
     9
420
 12632256
370
    25
100
AcDbLine
 10
301.7870648108225
 20
240.8683949354927
 30
0.0
 11
299.6447975420407
 21
238.9633949359709
 31
0.0
  0
LINE
  5
131
330
70
100
AcDbEntity
  8
HONTAI
 62
     9
420
 12632256
370
    25
100
AcDbLine
 10
299.6447975420407
 20
238.9633949359709
 30
0.0
 11
295.1301449436492
 21
240.8683949354927
 31
0.0
  0
LINE
  5
132
330
70
100
AcDbEntity
  8
HONTAI
 62
     9
420
 12632256
370
    25
100
AcDbLine
 10
295.1301449436492
 20
240.8683949354927
 30
0.0
 11
293.396120985245
 21
239.2444075090626
 31
0.0
  0
LINE
  5
133
330
70
100
AcDbEntity
  8
HONTAI
 62
     9
420
 12632256
370
    25
100
AcDbLine
 10
293.396120985245
 20
239.2444075090626
 30
0.0
 11
288.6814894908777
 21
241.1494075085843
 31
0.0
  0
LINE
  5
134
330
70
100
AcDbEntity
  8
HONTAI
 62
     9
420
 12632256
370
    25
100
AcDbLine
 10
288.6814894908777
 20
241.1494075085843
 30
0.0
 11
287.3434208407608
 21
239.6675232038636
 31
0.0
  0
LINE
  5
135
330
70
100
AcDbEntity
  8
HONTAI
 62
     9
420
 12632256
370
    25
100
AcDbLine
 10
287.3434208407608
 20
239.6675232038636
 30
0.0
 11
282.4901766142991
 21
241.9956465021761
 31
0.0
  0
LINE
  5
136
330
70
100
AcDbEntity
  8
HONTAI
 62
     9
420
 12632256
370
    25
100
AcDbLine
 10
282.4901766142991
 20
241.9956465021761
 30
0.0
 11
281.5919143895462
 21
240.0906465026442
 31
0.0
  0
LINE
  5
137
330
70
100
AcDbEntity
  8
HONTAI
 62
     9
420
 12632256
370
    25
100
AcDbLine
 10
281.5919143895462
 20
240.0906465026442
 30
0.0
 11
276.6033259433203
 21
242.334175557115
 31
0.0
  0
LINE
  5
138
330
70
100
AcDbEntity
  8
HONTAI
 62
     9
420
 12632256
370
    25
100
AcDbLine
 10
276.6033259433203
 20
242.334175557115
 30
0.0
 11
276.1603080456185
 21
240.429175557583
 31
0.0
  0
LINE
  5
139
330
70
100
AcDbEntity
  8
HONTAI
 62
     9
420
 12632256
370
    25
100
AcDbLine
 10
276.1603080456185
 20
240.429175557583
 30
0.0
 11
271.0657399661335
 21
243.0037741655729
 31
0.0
  0
LINE
  5
13A
330
70
100
AcDbEntity
  8
HONTAI
 62
     9
420
 12632256
370
    25
100
AcDbLine
 10
271.0657399661335
 20
243.0037741655729
 30
0.0
 11
271.0657399661335
 21
241.0987741660512
 31
0.0
  0
LINE
  5
13B
330
70
100
AcDbEntity
  8
HONTAI
 62
     9
420
 12632256
370
    25
100
AcDbLine
 10
271.0657399661335
 20
241.0987741660512
 30
0.0
 11
265.9681782940518
 21
243.836572147687
 31
0.0
  0
LINE
  5
13C
330
70
100
AcDbEntity
  8
HONTAI
 62
     9
420
 12632256
370
    25
100
AcDbLine
 10
265.9681782940518
 20
243.836572147687
 30
0.0
 11
266.3595718136202
 21
241.8093277944858
 31
0.0
  0
LINE
  5
13D
330
70
100
AcDbEntity
  8
HONTAI
 62
     9
420
 12632256
370
    25
100
AcDbLine
 10
266.3595718136202
 20
241.8093277944858
 30
0.0
 11
261.20396072567
 21
244.235397920214
 31
0.0
  0
LINE
  5
13E
330
70
100
AcDbEntity
  8
HONTAI
 62
     9
420
 12632256
370
    25
100
AcDbLine
 10
261.20396072567
 20
244.235397920214
 30
0.0
 11
262.0821398262772
 21
242.3303979206924
 31
0.0
  0
LINE
  5
13F
330
70
100
AcDbEntity
  8
HONTAI
 62
     9
420
 12632256
370
    25
100
AcDbLine
 10
262.0821398262772
 20
242.3303979206924
 30
0.0
 11
256.9548215571229
 21
244.9298387214519
 31
0.0
  0
LINE
  5
140
330
70
100
AcDbEntity
  8
HONTAI
 62
     9
420
 12632256
370
    25
100
AcDbLine
 10
256.9548215571229
 20
244.9298387214519
 30
0.0
 11
258.2644875272048
 21
243.0248387219303
 31
0.0
  0
LINE
  5
141
330
70
100
AcDbEntity
  8
HONTAI
 62
     9
420
 12632256
370
    25
100
AcDbLine
 10
258.2644875272048
 20
243.0248387219303
 30
0.0
 11
253.2044840648236
 21
245.7761841707173
 31
0.0
  0
LINE
  5
142
330
70
100
AcDbEntity
  8
HONTAI
 62
     9
420
 12632256
370
    25
100
AcDbLine
 10
253.2044840648236
 20
245.7761841707173
 30
0.0
 11
254.9356695555558
 21
243.7282141961085
 31
0.0
  0
LINE
  5
143
330
70
100
AcDbEntity
  8
HONTAI
 62
     9
420
 12632256
370
    25
100
AcDbLine
 10
254.9356695555558
 20
243.7282141961085
 30
0.0
 11
249.9814905816238
 21
246.2568543672533
 31
0.0
  0
LINE
  5
144
330
70
100
AcDbEntity
  8
HONTAI
 62
     9
420
 12632256
370
    25
100
AcDbLine
 10
249.9814905816238
 20
246.2568543672533
 30
0.0
 11
252.1625610838386
 21
244.3518543677316
 31
0.0
  0
LINE
  5
145
330
70
100
AcDbEntity
  8
HONTAI
 62
     9
420
 12632256
370
    25
100
AcDbLine
 10
252.1625610838386
 20
244.3518543677316
 30
0.0
 11
247.3103700340154
 21
247.0168490539928
 31
0.0
  0
LINE
  5
146
330
70
100
AcDbEntity
  8
HONTAI
 62
     9
420
 12632256
370
    25
100
AcDbLine
 10
247.3103700340154
 20
247.0168490539928
 30
0.0
 11
249.8419607197493
 21
245.1118490544711
 31
0.0
  0
LINE
  5
147
330
70
100
AcDbEntity
  8
HONTAI
 62
     9
420
 12632256
370
    25
100
AcDbLine
 10
249.8419607197493
 20
245.1118490544711
 30
0.0
 11
245.2114512622286
 21
247.6919681497272
 31
0.0
  0
LINE
  5
148
330
70
100
AcDbEntity
  8
HONTAI
 62
     9
420
 12632256
370
    25
100
AcDbLine
 10
245.2114512622286
 20
247.6919681497272
 30
0.0
 11
248.1722272514966
 21
245.5922607157722
 31
0.0
  0
LINE
  5
149
330
70
100
AcDbEntity
  8
HONTAI
 62
     9
420
 12632256
370
    25
100
AcDbLine
 10
248.1722272514966
 20
245.5922607157722
 30
0.0
 11
243.7007083054919
 21
248.4329376860756
 31
0.0
  0
LINE
  5
14A
330
70
100
AcDbEntity
  8
HONTAI
 62
     9
420
 12632256
370
    25
100
AcDbLine
 10
243.7007083054919
 20
248.4329376860756
 30
0.0
 11
246.9557830842945
 21
246.0324093190152
 31
0.0
  0
LINE
  5
14B
330
70
100
AcDbEntity
  8
HONTAI
 62
     9
420
 12632256
370
    25
100
AcDbLine
 10
246.9557830842945
 20
246.0324093190152
 30
0.0
 11
242.7896388299008
 21
249.0182005859059
 31
0.0
  0
LINE
  5
14C
330
70
100
AcDbEntity
  8
HONTAI
 62
     9
420
 12632256
370
    25
100
AcDbLine
 10
242.7896388299008
 20
249.0182005859059
 30
0.0
 11
246.3706305097059
 21
246.2916060821744
 31
0.0
  0
LINE
  5
14D
330
70
100
AcDbEntity
  8
HONTAI
 62
     9
420
 12632256
370
    25
100
AcDbLine
 10
246.3706305097059
 20
246.2916060821744
 30
0.0
 11
242.4851766243448
 21
249.2376741733334
 31
0.0
  0
LINE
  5
14E
330
70
100
AcDbEntity
  8
HONTAI
 62
     2
420
 16776960
370
    25
100
AcDbLine
 10
326.6861766033017
 20
108.5546381637276
 30
0.0
 11
379.7512008608853
 21
108.5546381637276
 31
0.0
  0
LINE
  5
14F
330
70
100
AcDbEntity
  8
HONTAI
 62
     2
420
 16776960
370
    25
100
AcDbLine
 10
326.6861766033017
 20
110.8406381631598
 30
0.0
 11
380.337786368246
 21
110.8406381631598
 31
0.0
  0
LINE
  5
150
330
70
100
AcDbEntity
  8
HONTAI
 62
     2
420
 16776960
370
    25
100
AcDbLine
 10
381.8200380331409
 20
108.5546381637276
 30
0.0
 11
396.1371800623654
 21
108.5546381637276
 31
0.0
  0
LINE
  5
151
330
70
100
AcDbEntity
  8
HONTAI
 62
     2
420
 16776960
370
    25
100
AcDbLine
 10
382.4066235405009
 20
110.8406381631598
 30
0.0
 11
396.1371800623654
 21
110.8406381631495
 31
0.0
  0
LINE
  5
152
330
70
100
AcDbEntity
  8
HONTAI
 62
     2
420
 16776960
370
    25
100
AcDbLine
 10
418.9971800566501
 20
108.5546381637276
 30
0.0
 11
435.635183218418
 21
108.5546381637276
 31
0.0
  0
LINE
  5
153
330
70
100
AcDbEntity
  8
HONTAI
 62
     2
420
 16776960
370
    25
100
AcDbLine
 10
437.7040203906806
 20
108.5546381637276
 30
0.0
 11
456.5122507355568
 21
108.5546381637276
 31
0.0
  0
LINE
  5
154
330
70
100
AcDbEntity
  8
HONTAI
 62
     2
420
 16776960
370
    25
100
AcDbLine
 10
418.9971800566501
 20
110.8406381631495
 30
0.0
 11
436.2217687257794
 21
110.8406381631495
 31
0.0
  0
LINE
  5
155
330
70
100
AcDbEntity
  8
HONTAI
 62
     2
420
 16776960
370
    25
100
AcDbLine
 10
438.2906058980414
 20
110.8406381631495
 30
0.0
 11
456.5122507355568
 21
110.8406381631495
 31
0.0
  0
LINE
  5
156
330
70
100
AcDbEntity
  8
HONTAI
 62
     2
420
 16776960
370
    25
100
AcDbLine
 10
396.1371800623654
 20
111.6026381629603
 30
0.0
 11
396.1371800623654
 21
107.7926381639169
 31
0.0
  0
LINE
  5
157
330
70
100
AcDbEntity
  8
HONTAI
 62
     2
420
 16776960
370
    25
100
AcDbLine
 10
418.9971800566501
 20
111.6026381629705
 30
0.0
 11
418.9971800566501
 21
107.7926381639169
 31
0.0
  0
LINE
  5
158
330
70
100
AcDbEntity
  8
HONTAI
 62
     2
420
 16776960
370
    25
100
AcDbLine
 10
399.1851800616032
 20
104.7446381646842
 30
0.0
 11
415.9491800574117
 21
104.7446381646842
 31
0.0
  0
LINE
  5
159
330
70
100
AcDbEntity
  8
HONTAI
 62
     2
420
 16776960
370
    25
100
AcDbLine
 10
399.1851800616032
 20
114.6506381621929
 30
0.0
 11
415.9491800574117
 21
114.6506381621929
 31
0.0
  0
SPLINE
  5
15A
330
70
100
AcDbEntity
  8
HONTAI
 62
     2
420
 16776960
370
    25
100
AcDbSpline
210
0.0
220
0.0
230
1.0
 70
     8
 71
     3
 72
     8
 73
     4
 74
     0
 42
0.0000000001
 43
0.0000000001
 40
0.0
 40
0.0
 40
0.0
 40
0.0
 40
1.0
 40
1.0
 40
1.0
 40
1.0
 10
396.1371800623654
 20
107.7926381639169
 30
0.0
 10
396.1371800623654
 20
106.1092742468532
 30
0.0
 10
397.5018161445395
 20
104.7446381646791
 30
0.0
 10
399.1851800616032
 20
104.7446381646791
 30
0.0
  0
SPLINE
  5
15B
330
70
100
AcDbEntity
  8
HONTAI
 62
     2
420
 16776960
370
    25
100
AcDbSpline
210
0.0
220
0.0
230
1.0
 70
     8
 71
     3
 72
     8
 73
     4
 74
     0
 42
0.0000000001
 43
0.0000000001
 40
0.0
 40
0.0
 40
0.0
 40
0.0
 40
1.0
 40
1.0
 40
1.0
 40
1.0
 10
415.9491800574117
 20
104.7446381646791
 30
0.0
 10
417.6325439744753
 20
104.7446381646791
 30
0.0
 10
418.9971800566495
 20
106.1092742468532
 30
0.0
 10
418.9971800566495
 20
107.7926381639169
 30
0.0
  0
SPLINE
  5
15C
330
70
100
AcDbEntity
  8
HONTAI
 62
     2
420
 16776960
370
    25
100
AcDbSpline
210
0.0
220
0.0
230
1.0
 70
     8
 71
     3
 72
     8
 73
     4
 74
     0
 42
0.0000000001
 43
0.0000000001
 40
0.0
 40
0.0
 40
0.0
 40
0.0
 40
1.0
 40
1.0
 40
1.0
 40
1.0
 10
399.1851800616032
 20
114.6506381621981
 30
0.0
 10
397.5018161445395
 20
114.6506381621981
 30
0.0
 10
396.1371800623654
 20
113.2860020800239
 30
0.0
 10
396.1371800623654
 20
111.6026381629603
 30
0.0
  0
SPLINE
  5
15D
330
70
100
AcDbEntity
  8
HONTAI
 62
     2
420
 16776960
370
    25
100
AcDbSpline
210
0.0
220
0.0
230
1.0
 70
     8
 71
     3
 72
     8
 73
     4
 74
     0
 42
0.0000000001
 43
0.0000000001
 40
0.0
 40
0.0
 40
0.0
 40
0.0
 40
1.0
 40
1.0
 40
1.0
 40
1.0
 10
418.9971800566495
 20
111.6026381629603
 30
0.0
 10
418.9971800566495
 20
113.2860020800239
 30
0.0
 10
417.6325439744753
 20
114.6506381621981
 30
0.0
 10
415.9491800574117
 20
114.6506381621981
 30
0.0
  0
LINE
  5
15E
330
70
100
AcDbEntity
  8
HONTAI
 62
     2
420
 16776960
370
    25
100
AcDbLine
 10
405.6621800599841
 20
111.9836381628708
 30
0.0
 11
409.4721800590313
 21
111.9836381628708
 31
0.0
  0
LINE
  5
15F
330
70
100
AcDbEntity
  8
HONTAI
 62
     2
420
 16776960
370
    25
100
AcDbLine
 10
405.6621800599841
 20
107.4116381640167
 30
0.0
 11
409.4721800590313
 21
107.4116381640167
 31
0.0
  0
SPLINE
  5
160
330
70
100
AcDbEntity
  8
HONTAI
 62
     2
420
 16776960
370
    25
100
AcDbSpline
210
0.0
220
0.0
230
1.0
 70
     8
 71
     3
 72
    11
 73
     7
 74
     0
 42
0.0000000001
 43
0.0000000001
 40
0.0
 40
0.0
 40
0.0
 40
0.0
 40
1.0
 40
1.0
 40
1.0
 40
2.0
 40
2.0
 40
2.0
 40
2.0
 10
409.4721800590313
 20
107.4116381640102
 30
0.0
 10
410.7347029968291
 20
107.4116381640102
 30
0.0
 10
411.7581800584597
 20
108.4351152256408
 30
0.0
 10
411.7581800584597
 20
109.6976381634386
 30
0.0
 10
411.7581800584597
 20
110.9601611012363
 30
0.0
 10
410.7347029968291
 20
111.9836381628669
 30
0.0
 10
409.4721800590313
 20
111.9836381628669
 30
0.0
  0
SPLINE
  5
161
330
70
100
AcDbEntity
  8
HONTAI
 62
     2
420
 16776960
370
    25
100
AcDbSpline
210
0.0
220
0.0
230
1.0
 70
     8
 71
     3
 72
    11
 73
     7
 74
     0
 42
0.0000000001
 43
0.0000000001
 40
0.0
 40
0.0
 40
0.0
 40
0.0
 40
1.0
 40
1.0
 40
1.0
 40
2.0
 40
2.0
 40
2.0
 40
2.0
 10
405.6621800599841
 20
111.9836381628656
 30
0.0
 10
404.399657122187
 20
111.9836381628656
 30
0.0
 10
403.3761800605571
 20
110.9601611012357
 30
0.0
 10
403.3761800605571
 20
109.6976381634386
 30
0.0
 10
403.3761800605571
 20
108.4351152256415
 30
0.0
 10
404.399657122187
 20
107.4116381640115
 30
0.0
 10
405.6621800599841
 20
107.4116381640115
 30
0.0
  0
LINE
  5
162
330
70
100
AcDbEntity
  8
HONTAI
 62
     2
420
 16776960
370
    25
100
AcDbLine
 10
406.8051800596976
 20
107.7926381639169
 30
0.0
 11
409.4721800590313
 21
107.7926381639169
 31
0.0
  0
SPLINE
  5
163
330
70
100
AcDbEntity
  8
HONTAI
 62
     2
420
 16776960
370
    25
100
AcDbSpline
210
0.0
220
0.0
230
1.0
 70
     8
 71
     3
 72
    11
 73
     7
 74
     0
 42
0.0000000001
 43
0.0000000001
 40
0.0
 40
0.0
 40
0.0
 40
0.0
 40
1.0
 40
1.0
 40
1.0
 40
2.0
 40
2.0
 40
2.0
 40
2.0
 10
409.4721800590313
 20
107.792638163915
 30
0.0
 10
410.5242825071958
 20
107.792638163915
 30
0.0
 10
411.377180058555
 20
108.6455357152741
 30
0.0
 10
411.377180058555
 20
109.6976381634386
 30
0.0
 10
411.377180058555
 20
110.749740611603
 30
0.0
 10
410.5242825071958
 20
111.6026381629622
 30
0.0
 10
409.4721800590313
 20
111.6026381629622
 30
0.0
  0
LINE
  5
164
330
70
100
AcDbEntity
  8
HONTAI
 62
     2
420
 16776960
370
    25
100
AcDbLine
 10
406.8051800596976
 20
111.6026381629603
 30
0.0
 11
409.4721800590313
 21
111.6026381629603
 31
0.0
  0
SPLINE
  5
165
330
70
100
AcDbEntity
  8
HONTAI
 62
     2
420
 16776960
370
    25
100
AcDbSpline
210
0.0
220
0.0
230
1.0
 70
     8
 71
     3
 72
    11
 73
     7
 74
     0
 42
0.0000000001
 43
0.0000000001
 40
0.0
 40
0.0
 40
0.0
 40
0.0
 40
1.0
 40
1.0
 40
1.0
 40
2.0
 40
2.0
 40
2.0
 40
2.0
 10
406.8051800596976
 20
111.6026381629609
 30
0.0
 10
405.7530776115338
 20
111.6026381629609
 30
0.0
 10
404.9001800601753
 20
110.7497406116024
 30
0.0
 10
404.9001800601753
 20
109.6976381634386
 30
0.0
 10
404.9001800601753
 20
108.6455357152748
 30
0.0
 10
405.7530776115338
 20
107.7926381639162
 30
0.0
 10
406.8051800596976
 20
107.7926381639162
 30
0.0
  0
LINE
  5
166
330
70
100
AcDbEntity
  8
HONTAI
 62
     2
420
 16776960
370
    25
100
AcDbLine
 10
464.894250733462
 20
150.8943431761333
 30
0.0
 11
464.894250733462
 21
119.2226381610573
 31
0.0
  0
LINE
  5
167
330
70
100
AcDbEntity
  8
HONTAI
 62
     2
420
 16776960
370
    25
100
AcDbLine
 10
467.180250732891
 20
150.8943431761333
 30
0.0
 11
467.180250732891
 21
119.2226381610573
 31
0.0
  0
SPLINE
  5
168
330
70
100
AcDbEntity
  8
HONTAI
 62
     2
420
 16776960
370
    25
100
AcDbSpline
210
0.0
220
0.0
230
1.0
 70
     8
 71
     3
 72
     8
 73
     4
 74
     0
 42
0.0000000001
 43
0.0000000001
 40
0.0
 40
0.0
 40
0.0
 40
0.0
 40
1.0
 40
1.0
 40
1.0
 40
1.0
 10
456.5122507355568
 20
110.8406381631527
 30
0.0
 10
461.1415015074812
 20
110.8406381631527
 30
0.0
 10
464.8942507334614
 20
114.5933873891329
 30
0.0
 10
464.8942507334614
 20
119.2226381610573
 30
0.0
  0
SPLINE
  5
169
330
70
100
AcDbEntity
  8
HONTAI
 62
     2
420
 16776960
370
    25
100
AcDbSpline
210
0.0
220
0.0
230
1.0
 70
     8
 71
     3
 72
     8
 73
     4
 74
     0
 42
0.0000000001
 43
0.0000000001
 40
0.0
 40
0.0
 40
0.0
 40
0.0
 40
1.0
 40
1.0
 40
1.0
 40
1.0
 10
456.5122507355568
 20
108.5546381637244
 30
0.0
 10
462.404024445279
 20
108.5546381637244
 30
0.0
 10
467.1802507328897
 20
113.3308644513351
 30
0.0
 10
467.1802507328897
 20
119.2226381610573
 30
0.0
  0
SPLINE
  5
16A
330
70
100
AcDbEntity
  8
HONTAI
 62
     2
420
 16776960
370
    25
100
AcDbSpline
210
0.0
220
0.0
230
1.0
 70
     8
 71
     3
 72
    11
 73
     7
 74
     0
 42
0.0000000001
 43
0.0000000001
 40
0.0
 40
0.0
 40
0.0
 40
0.0
 40
1.0
 40
1.0
 40
1.0
 40
2.0
 40
2.0
 40
2.0
 40
2.0
 10
318.30417660539
 20
112.6572313732597
 30
0.0
 10
295.8881421642896
 20
112.062684368555
 30
0.0
 10
279.6780202017706
 20
107.1159505263606
 30
0.0
 10
282.0978558325494
 20
101.6083920935494
 30
0.0
 10
284.3278619482511
 20
96.53288662055997
 30
0.0
 10
301.7178280701837
 20
92.67859160661753
 30
0.0
 10
322.4951766043424
 20
92.65476958873184
 30
0.0
  0
SPLINE
  5
16B
330
70
100
AcDbEntity
  8
HONTAI
 62
     2
420
 16776960
370
    25
100
AcDbSpline
210
0.0
220
0.0
230
1.0
 70
     8
 71
     3
 72
     8
 73
     4
 74
     0
 42
0.0000000001
 43
0.0000000001
 40
0.0
 40
0.0
 40
0.0
 40
0.0
 40
1.0
 40
1.0
 40
1.0
 40
1.0
 10
280.5851766148192
 20
99.16455169929612
 30
0.0
 10
280.5851766148192
 20
93.642711227003
 30
0.0
 10
299.3183100923067
 20
89.15938579241567
 30
0.0
 10
322.4951766043424
 20
89.13440008892152
 30
0.0
  0
SPLINE
  5
16C
330
70
100
AcDbEntity
  8
HONTAI
 62
     2
420
 16776960
370
    25
100
AcDbSpline
210
0.0
220
0.0
230
1.0
 70
     8
 71
     3
 72
    11
 73
     7
 74
     0
 42
0.0000000001
 43
0.0000000001
 40
0.0
 40
0.0
 40
0.0
 40
0.0
 40
1.0
 40
1.0
 40
1.0
 40
2.0
 40
2.0
 40
2.0
 40
2.0
 10
318.3041766053897
 20
102.6849146752192
 30
0.0
 10
318.3041766053897
 20
101.8588746066555
 30
0.0
 10
320.1805512183798
 20
101.189236822776
 30
0.0
 10
322.495176604342
 20
101.189236822776
 30
0.0
 10
324.8098019903043
 20
101.189236822776
 30
0.0
 10
326.6861766032943
 20
101.8588746066555
 30
0.0
 10
326.6861766032943
 20
102.6849146752192
 30
0.0
  0
LINE
  5
16D
330
70
100
AcDbEntity
  8
HONTAI
 62
     2
420
 16776960
370
    25
100
AcDbLine
 10
364.405176593872
 20
100.8848930449711
 30
0.0
 11
364.405176593872
 21
99.16455169929612
 31
0.0
  0
SPLINE
  5
16E
330
70
100
AcDbEntity
  8
HONTAI
 62
     2
420
 16776960
370
    25
100
AcDbSpline
210
0.0
220
0.0
230
1.0
 70
     8
 71
     3
 72
     8
 73
     4
 74
     0
 42
0.0000000001
 43
0.0000000001
 40
0.0
 40
0.0
 40
0.0
 40
0.0
 40
1.0
 40
1.0
 40
1.0
 40
1.0
 10
364.405176593872
 20
100.8848930449679
 30
0.0
 10
364.0888153980442
 20
102.8015879834339
 30
0.0
 10
362.9953206011052
 20
104.5026965209409
 30
0.0
 10
361.3830214508359
 20
105.5863456077794
 30
0.0
  0
SPLINE
  5
16F
330
70
100
AcDbEntity
  8
HONTAI
 62
     2
420
 16776960
370
    25
100
AcDbSpline
210
0.0
220
0.0
230
1.0
 70
     8
 71
     3
 72
     8
 73
     4
 74
     0
 42
0.0000000001
 43
0.0000000001
 40
0.0
 40
0.0
 40
0.0
 40
0.0
 40
1.0
 40
1.0
 40
1.0
 40
1.0
 10
326.686176603294
 20
112.6572313732597
 30
0.0
 10
333.6757637955871
 20
112.4718445181398
 30
0.0
 10
340.3520504141537
 20
111.846111160931
 30
0.0
 10
346.0683891708572
 20
110.8406381631502
 30
0.0
  0
SPLINE
  5
170
330
70
100
AcDbEntity
  8
HONTAI
 62
     2
420
 16776960
370
    25
100
AcDbSpline
210
0.0
220
0.0
230
1.0
 70
     8
 71
     3
 72
    11
 73
     7
 74
     0
 42
0.0000000001
 43
0.0000000001
 40
0.0
 40
0.0
 40
0.0
 40
0.0
 40
1.0
 40
1.0
 40
1.0
 40
2.0
 40
2.0
 40
2.0
 40
2.0
 10
355.4080537062371
 20
108.5546381637206
 30
0.0
 10
360.3890300957711
 20
106.858857034133
 30
0.0
 10
363.088143332198
 20
104.8229624433224
 30
0.0
 10
363.1278617690691
 20
102.731720004857
 30
0.0
 10
363.2330720138853
 20
97.19222383500026
 30
0.0
 10
345.0411992103131
 20
92.68061945850183
 30
0.0
 10
322.4951766043417
 20
92.65476958873184
 30
0.0
  0
SPLINE
  5
171
330
70
100
AcDbEntity
  8
HONTAI
 62
     2
420
 16776960
370
    25
100
AcDbSpline
210
0.0
220
0.0
230
1.0
 70
     8
 71
     3
 72
     8
 73
     4
 74
     0
 42
0.0000000001
 43
0.0000000001
 40
0.0
 40
0.0
 40
0.0
 40
0.0
 40
1.0
 40
1.0
 40
1.0
 40
1.0
 10
364.4051765938649
 20
99.16455169929612
 30
0.0
 10
364.4051765938649
 20
93.642711227003
 30
0.0
 10
345.6720431163774
 20
89.15938579241567
 30
0.0
 10
322.4951766043417
 20
89.13440008892152
 30
0.0
  0
LINE
  5
172
330
70
100
AcDbEntity
  8
HONTAI
 62
     2
420
 16776960
370
    25
100
AcDbLine
 10
326.686176603294
 20
238.6355342607177
 30
0.0
 11
326.686176603294
 21
102.6849146752192
 31
0.0
  0
LINE
  5
173
330
70
100
AcDbEntity
  8
HONTAI
 62
     9
420
 12632256
370
    25
100
AcDbLine
 10
345.3551765986268
 20
354.1449146123604
 30
0.0
 11
355.2091675451134
 21
351.477914613028
 31
0.0
  0
LINE
  5
174
330
70
100
AcDbEntity
  8
HONTAI
 62
     9
420
 12632256
370
    25
100
AcDbLine
 10
355.2091675451134
 20
351.477914613028
 30
0.0
 11
353.3041675455897
 21
342.8592837220727
 31
0.0
  0
LINE
  5
175
330
70
100
AcDbEntity
  8
HONTAI
 62
     9
420
 12632256
370
    25
100
AcDbLine
 10
353.3041675455897
 20
342.8592837220727
 30
0.0
 11
351.3991675460661
 21
341.2923185189795
 31
0.0
  0
LINE
  5
176
330
70
100
AcDbEntity
  8
HONTAI
 62
     9
420
 12632256
370
    25
100
AcDbLine
 10
351.3991675460661
 20
341.2923185189795
 30
0.0
 11
402.5051765843392
 21
249.2376741733334
 31
0.0
  0
LINE
  5
177
330
70
100
AcDbEntity
  8
HONTAI
 62
     9
420
 12632256
370
    25
100
AcDbLine
 10
402.5051765843392
 20
249.2376741733334
 30
0.0
 11
398.695176585292
 21
246.2916060821744
 31
0.0
  0
LINE
  5
178
330
70
100
AcDbEntity
  8
HONTAI
 62
     9
420
 12632256
370
    25
100
AcDbLine
 10
324.4875568830551
 20
351.8581630126406
 30
0.0
 11
324.9653887831186
 21
347.5460654066533
 31
0.0
  0
LINE
  5
179
330
70
100
AcDbEntity
  8
HONTAI
 62
     9
420
 12632256
370
    25
100
AcDbLine
 10
326.384513591197
 20
351.8581630126406
 30
0.0
 11
328.1759015154206
 21
347.5460654066533
 31
0.0
  0
LINE
  5
17A
330
70
100
AcDbEntity
  8
HONTAI
 62
     9
420
 12632256
370
    25
100
AcDbLine
 10
328.4117799739063
 20
351.8581630126406
 30
0.0
 11
330.9621805011269
 21
347.5460654066533
 31
0.0
  0
LINE
  5
17B
330
70
100
AcDbEntity
  8
HONTAI
 62
     9
420
 12632256
370
    25
100
AcDbLine
 10
330.3137570788115
 20
351.9467873642893
 30
0.0
 11
333.6840204746605
 21
347.5460654066533
 31
0.0
  0
LINE
  5
17C
330
70
100
AcDbEntity
  8
HONTAI
 62
     9
420
 12632256
370
    25
100
AcDbLine
 10
332.1562300653231
 20
352.0442399331947
 30
0.0
 11
336.320706590337
 21
347.5460654066533
 31
0.0
  0
LINE
  5
17D
330
70
100
AcDbEntity
  8
HONTAI
 62
     9
420
 12632256
370
    25
100
AcDbLine
 10
333.9251766014838
 20
352.130864438894
 30
0.0
 11
338.8521720747315
 21
347.914523714965
 31
0.0
  0
LINE
  5
17E
330
70
100
AcDbEntity
  8
HONTAI
 62
     9
420
 12632256
370
    25
100
AcDbLine
 10
335.6071339360529
 20
352.2612422281114
 30
0.0
 11
341.2591509469719
 21
347.914523714965
 31
0.0
  0
LINE
  5
17F
330
70
100
AcDbEntity
  8
HONTAI
 62
     9
420
 12632256
370
    25
100
AcDbLine
 10
337.1893013581032
 20
352.3378979200029
 30
0.0
 11
343.523324644469
 21
348.1852252952792
 31
0.0
  0
LINE
  5
180
330
70
100
AcDbEntity
  8
HONTAI
 62
     9
420
 12632256
370
    25
100
AcDbLine
 10
338.6596376182264
 20
352.4912169077449
 30
0.0
 11
345.6274614382414
 21
348.4811188513226
 31
0.0
  0
LINE
  5
181
330
70
100
AcDbEntity
  8
HONTAI
 62
     9
420
 12632256
370
    25
100
AcDbLine
 10
340.006952569667
 20
352.6226364418197
 30
0.0
 11
347.5555475767669
 21
348.776761476121
 31
0.0
  0
LINE
  5
182
330
70
100
AcDbEntity
  8
HONTAI
 62
     9
420
 12632256
370
    25
100
AcDbLine
 10
341.2209923321106
 20
352.8276548690201
 30
0.0
 11
349.2929091603258
 21
348.9807381584742
 31
0.0
  0
LINE
  5
183
330
70
100
AcDbEntity
  8
HONTAI
 62
     9
420
 12632256
370
    25
100
AcDbLine
 10
342.2925173299064
 20
352.9862738287222
 30
0.0
 11
350.826323818221
 21
349.3095949546969
 31
0.0
  0
LINE
  5
184
330
70
100
AcDbEntity
  8
HONTAI
 62
     9
420
 12632256
370
    25
100
AcDbLine
 10
343.2133726108244
 20
353.1720617981538
 30
0.0
 11
352.1441213390141
 21
349.6762967443142
 31
0.0
  0
LINE
  5
185
330
70
100
AcDbEntity
  8
HONTAI
 62
     9
420
 12632256
370
    25
100
AcDbLine
 10
343.9765499101377
 20
353.3457822561343
 30
0.0
 11
353.2362724878455
 21
350.0429985339521
 31
0.0
  0
LINE
  5
186
330
70
100
AcDbEntity
  8
HONTAI
 62
     9
420
 12632256
370
    25
100
AcDbLine
 10
344.5762409877914
 20
353.5482229351505
 30
0.0
 11
354.0944653350191
 21
350.3734825812466
 31
0.0
  0
LINE
  5
187
330
70
100
AcDbEntity
  8
HONTAI
 62
     9
420
 12632256
370
    25
100
AcDbLine
 10
345.0078818325727
 20
353.7423220513998
 30
0.0
 11
354.7121685147882
 21
350.7688209481548
 31
0.0
  0
LINE
  5
188
330
70
100
AcDbEntity
  8
HONTAI
 62
     9
420
 12632256
370
    25
100
AcDbLine
 10
345.2681873970268
 20
353.9347939166082
 30
0.0
 11
355.0846809329592
 21
351.2141478597047
 31
0.0
  0
LINE
  5
189
330
70
100
AcDbEntity
  8
HONTAI
 62
     9
420
 12632256
370
    25
100
AcDbLine
 10
324.9653887831186
 20
347.5460654066533
 30
0.0
 11
322.495176604342
 21
341.129804782923
 31
0.0
  0
LINE
  5
18A
330
70
100
AcDbEntity
  8
HONTAI
 62
     9
420
 12632256
370
    25
100
AcDbLine
 10
328.1759015154206
 20
347.5460654066533
 30
0.0
 11
325.1803570931344
 21
341.129804782923
 31
0.0
  0
LINE
  5
18B
330
70
100
AcDbEntity
  8
HONTAI
 62
     9
420
 12632256
370
    25
100
AcDbLine
 10
330.9621805011269
 20
347.5460654066533
 30
0.0
 11
327.8451017370501
 21
341.129804782923
 31
0.0
  0
LINE
  5
18C
330
70
100
AcDbEntity
  8
HONTAI
 62
     9
420
 12632256
370
    25
100
AcDbLine
 10
333.6840204746605
 20
347.5460654066533
 30
0.0
 11
330.4691302203287
 21
341.129804782923
 31
0.0
  0
LINE
  5
18D
330
70
100
AcDbEntity
  8
HONTAI
 62
     9
420
 12632256
370
    25
100
AcDbLine
 10
336.320706590337
 20
347.5460654066533
 30
0.0
 11
333.0324721017916
 21
341.129804782923
 31
0.0
  0
LINE
  5
18E
330
70
100
AcDbEntity
  8
HONTAI
 62
     9
420
 12632256
370
    25
100
AcDbLine
 10
338.8521720747315
 20
347.914523714965
 30
0.0
 11
335.5156188019221
 21
341.3174253108141
 31
0.0
  0
LINE
  5
18F
330
70
100
AcDbEntity
  8
HONTAI
 62
     9
420
 12632256
370
    25
100
AcDbLine
 10
341.2591509469719
 20
347.914523714965
 30
0.0
 11
337.8996720749694
 21
341.3174253108141
 31
0.0
  0
LINE
  5
190
330
70
100
AcDbEntity
  8
HONTAI
 62
     9
420
 12632256
370
    25
100
AcDbLine
 10
343.523324644469
 20
348.1852252952792
 30
0.0
 11
340.1664878359963
 21
341.4864693229467
 31
0.0
  0
LINE
  5
191
330
70
100
AcDbEntity
  8
HONTAI
 62
     9
420
 12632256
370
    25
100
AcDbLine
 10
345.6274614382414
 20
348.4811188513226
 30
0.0
 11
342.298814248319
 21
341.8949549660512
 31
0.0
  0
LINE
  5
192
330
70
100
AcDbEntity
  8
HONTAI
 62
     9
420
 12632256
370
    25
100
AcDbLine
 10
347.5555475767669
 20
348.776761476121
 30
0.0
 11
344.2804230204149
 21
342.0092731558984
 31
0.0
  0
LINE
  5
193
330
70
100
AcDbEntity
  8
HONTAI
 62
     9
420
 12632256
370
    25
100
AcDbLine
 10
349.2929091603258
 20
348.9807381584742
 30
0.0
 11
346.0962329129886
 21
342.1532544599245
 31
0.0
  0
LINE
  5
194
330
70
100
AcDbEntity
  8
HONTAI
 62
     9
420
 12632256
370
    25
100
AcDbLine
 10
350.8263238182287
 20
349.3095949546969
 30
0.0
 11
347.732424516348
 21
342.3404187491828
 31
0.0
  0
LINE
  5
195
330
70
100
AcDbEntity
  8
HONTAI
 62
     9
420
 12632256
370
    25
100
AcDbLine
 10
352.1441213390141
 20
349.6762967443142
 30
0.0
 11
349.1765454244279
 21
342.5879814275746
 31
0.0
  0
LINE
  5
196
330
70
100
AcDbEntity
  8
HONTAI
 62
     9
420
 12632256
370
    25
100
AcDbLine
 10
353.2362724878455
 20
350.0429985339418
 30
0.0
 11
350.4176050051403
 21
342.5879814275746
 31
0.0
  0
LINE
  5
197
330
70
100
AcDbEntity
  8
HONTAI
 62
     9
420
 12632256
370
    25
100
AcDbLine
 10
354.0944653350191
 20
350.3734825812466
 30
0.0
 11
351.4461580456967
 21
342.7885591322231
 31
0.0
  0
LINE
  5
198
330
70
100
AcDbEntity
  8
HONTAI
 62
     9
420
 12632256
370
    25
100
AcDbLine
 10
354.7121685147882
 20
350.7688209481548
 30
0.0
 11
352.2543766364009
 21
342.8592837220727
 31
0.0
  0
LINE
  5
199
330
70
100
AcDbEntity
  8
HONTAI
 62
     9
420
 12632256
370
    25
100
AcDbLine
 10
355.0846809329592
 20
351.2141478597047
 30
0.0
 11
352.8361097457691
 21
342.8592837220727
 31
0.0
  0
LINE
  5
19A
330
70
100
AcDbEntity
  8
HONTAI
 62
     9
420
 12632256
370
    25
100
AcDbLine
 10
322.495176604342
 20
351.6734928278215
 30
0.0
 11
324.9653887831186
 21
347.5460654066533
 31
0.0
  0
LINE
  5
19B
330
70
100
AcDbEntity
  8
HONTAI
 62
     9
420
 12632256
370
    25
100
AcDbLine
 10
324.4875568830551
 20
351.8581630126406
 30
0.0
 11
328.1759015154206
 21
347.5460654066533
 31
0.0
  0
LINE
  5
19C
330
70
100
AcDbEntity
  8
HONTAI
 62
     9
420
 12632256
370
    25
100
AcDbLine
 10
326.384513591197
 20
351.8581630126406
 30
0.0
 11
330.9621805011269
 21
347.5460654066533
 31
0.0
  0
LINE
  5
19D
330
70
100
AcDbEntity
  8
HONTAI
 62
     9
420
 12632256
370
    25
100
AcDbLine
 10
328.4117799739063
 20
351.8581630126406
 30
0.0
 11
333.6840204746605
 21
347.5460654066533
 31
0.0
  0
LINE
  5
19E
330
70
100
AcDbEntity
  8
HONTAI
 62
     9
420
 12632256
370
    25
100
AcDbLine
 10
330.3137570788115
 20
351.9467873642893
 30
0.0
 11
336.320706590337
 21
347.5460654066533
 31
0.0
  0
LINE
  5
19F
330
70
100
AcDbEntity
  8
HONTAI
 62
     9
420
 12632256
370
    25
100
AcDbLine
 10
332.1562300653231
 20
352.0442399331947
 30
0.0
 11
338.8521720747315
 21
347.914523714965
 31
0.0
  0
LINE
  5
1A0
330
70
100
AcDbEntity
  8
HONTAI
 62
     9
420
 12632256
370
    25
100
AcDbLine
 10
333.9251766014838
 20
352.130864438894
 30
0.0
 11
341.2591509469719
 21
347.914523714965
 31
0.0
  0
LINE
  5
1A1
330
70
100
AcDbEntity
  8
HONTAI
 62
     9
420
 12632256
370
    25
100
AcDbLine
 10
335.6071339360529
 20
352.2612422281114
 30
0.0
 11
343.523324644469
 21
348.1852252952792
 31
0.0
  0
LINE
  5
1A2
330
70
100
AcDbEntity
  8
HONTAI
 62
     9
420
 12632256
370
    25
100
AcDbLine
 10
337.1893013581032
 20
352.3378979200029
 30
0.0
 11
345.6274614382414
 21
348.4811188513226
 31
0.0
  0
LINE
  5
1A3
330
70
100
AcDbEntity
  8
HONTAI
 62
     9
420
 12632256
370
    25
100
AcDbLine
 10
338.6596376182264
 20
352.4912169077449
 30
0.0
 11
347.5555475767669
 21
348.776761476121
 31
0.0
  0
LINE
  5
1A4
330
70
100
AcDbEntity
  8
HONTAI
 62
     9
420
 12632256
370
    25
100
AcDbLine
 10
340.006952569667
 20
352.6226364418197
 30
0.0
 11
349.2929091603258
 21
348.9807381584742
 31
0.0
  0
LINE
  5
1A5
330
70
100
AcDbEntity
  8
HONTAI
 62
     9
420
 12632256
370
    25
100
AcDbLine
 10
341.2209923321106
 20
352.8276548690201
 30
0.0
 11
350.826323818221
 21
349.3095949546969
 31
0.0
  0
LINE
  5
1A6
330
70
100
AcDbEntity
  8
HONTAI
 62
     9
420
 12632256
370
    25
100
AcDbLine
 10
342.2925173299064
 20
352.9862738287222
 30
0.0
 11
352.1441213390141
 21
349.6762967443142
 31
0.0
  0
LINE
  5
1A7
330
70
100
AcDbEntity
  8
HONTAI
 62
     9
420
 12632256
370
    25
100
AcDbLine
 10
343.2133726108244
 20
353.1720617981538
 30
0.0
 11
353.2362724878455
 21
350.0429985339521
 31
0.0
  0
LINE
  5
1A8
330
70
100
AcDbEntity
  8
HONTAI
 62
     9
420
 12632256
370
    25
100
AcDbLine
 10
343.9765499101377
 20
353.3457822561343
 30
0.0
 11
354.0944653350191
 21
350.3734825812466
 31
0.0
  0
LINE
  5
1A9
330
70
100
AcDbEntity
  8
HONTAI
 62
     9
420
 12632256
370
    25
100
AcDbLine
 10
344.5762409877914
 20
353.5482229351505
 30
0.0
 11
354.7121685147882
 21
350.7688209481548
 31
0.0
  0
LINE
  5
1AA
330
70
100
AcDbEntity
  8
HONTAI
 62
     9
420
 12632256
370
    25
100
AcDbLine
 10
345.0078818325727
 20
353.7423220513998
 30
0.0
 11
355.0846809329592
 21
351.2141478597047
 31
0.0
  0
LINE
  5
1AB
330
70
100
AcDbEntity
  8
HONTAI
 62
     9
420
 12632256
370
    25
100
AcDbLine
 10
345.2681873970268
 20
353.9347939166082
 30
0.0
 11
355.2091675451134
 21
351.477914613028
 31
0.0
  0
LINE
  5
1AC
330
70
100
AcDbEntity
  8
HONTAI
 62
     9
420
 12632256
370
    25
100
AcDbLine
 10
355.2091675451134
 20
351.477914613028
 30
0.0
 11
353.18693003357
 21
342.8592837220727
 31
0.0
  0
LINE
  5
1AD
330
70
100
AcDbEntity
  8
HONTAI
 62
     9
420
 12632256
370
    25
100
AcDbLine
 10
324.9934353856944
 20
347.6455598470147
 30
0.0
 11
325.1803570931344
 21
341.129804782923
 31
0.0
  0
LINE
  5
1AE
330
70
100
AcDbEntity
  8
HONTAI
 62
     9
420
 12632256
370
    25
100
AcDbLine
 10
328.1759015154206
 20
347.5460654066533
 30
0.0
 11
327.8451017370501
 21
341.129804782923
 31
0.0
  0
LINE
  5
1AF
330
70
100
AcDbEntity
  8
HONTAI
 62
     9
420
 12632256
370
    25
100
AcDbLine
 10
330.4691302203287
 20
341.129804782923
 30
0.0
 11
330.9621805011269
 21
347.5460654066533
 31
0.0
  0
LINE
  5
1B0
330
70
100
AcDbEntity
  8
HONTAI
 62
     9
420
 12632256
370
    25
100
AcDbLine
 10
333.6840204746605
 20
347.5460654066533
 30
0.0
 11
333.0324721017916
 21
341.129804782923
 31
0.0
  0
LINE
  5
1B1
330
70
100
AcDbEntity
  8
HONTAI
 62
     9
420
 12632256
370
    25
100
AcDbLine
 10
336.320706590337
 20
347.5460654066533
 30
0.0
 11
335.5156188019221
 21
341.3174253108141
 31
0.0
  0
LINE
  5
1B2
330
70
100
AcDbEntity
  8
HONTAI
 62
     9
420
 12632256
370
    25
100
AcDbLine
 10
338.8521720747315
 20
347.914523714965
 30
0.0
 11
337.8996720749694
 21
341.3174253108141
 31
0.0
  0
LINE
  5
1B3
330
70
100
AcDbEntity
  8
HONTAI
 62
     9
420
 12632256
370
    25
100
AcDbLine
 10
341.2591509469719
 20
347.914523714965
 30
0.0
 11
340.1664878359963
 21
341.4864693229467
 31
0.0
  0
LINE
  5
1B4
330
70
100
AcDbEntity
  8
HONTAI
 62
     9
420
 12632256
370
    25
100
AcDbLine
 10
343.523324644469
 20
348.1852252952792
 30
0.0
 11
342.298814248319
 21
341.8949549660512
 31
0.0
  0
LINE
  5
1B5
330
70
100
AcDbEntity
  8
HONTAI
 62
     9
420
 12632256
370
    25
100
AcDbLine
 10
345.512639648977
 20
348.1178325225843
 30
0.0
 11
344.2804230204149
 21
342.0092731558984
 31
0.0
  0
LINE
  5
1B6
330
70
100
AcDbEntity
  8
HONTAI
 62
     9
420
 12632256
370
    25
100
AcDbLine
 10
347.5555475767669
 20
348.776761476121
 30
0.0
 11
346.0962329129886
 21
342.1532544599245
 31
0.0
  0
LINE
  5
1B7
330
70
100
AcDbEntity
  8
HONTAI
 62
     9
420
 12632256
370
    25
100
AcDbLine
 10
349.2929091603258
 20
348.9807381584742
 30
0.0
 11
347.732424516348
 21
342.3404187491828
 31
0.0
  0
LINE
  5
1B8
330
70
100
AcDbEntity
  8
HONTAI
 62
     9
420
 12632256
370
    25
100
AcDbLine
 10
350.8263238182287
 20
349.3095949546969
 30
0.0
 11
349.1765454244279
 21
342.5879814275746
 31
0.0
  0
LINE
  5
1B9
330
70
100
AcDbEntity
  8
HONTAI
 62
     9
420
 12632256
370
    25
100
AcDbLine
 10
352.1441213390141
 20
349.6762967443142
 30
0.0
 11
350.4176050051403
 21
342.5879814275746
 31
0.0
  0
LINE
  5
1BA
330
70
100
AcDbEntity
  8
HONTAI
 62
     9
420
 12632256
370
    25
100
AcDbLine
 10
353.2362724878455
 20
350.0429985339418
 30
0.0
 11
351.4461580456967
 21
342.7885591322231
 31
0.0
  0
LINE
  5
1BB
330
70
100
AcDbEntity
  8
HONTAI
 62
     9
420
 12632256
370
    25
100
AcDbLine
 10
354.0944653350191
 20
350.3734825812466
 30
0.0
 11
352.2543766364009
 21
342.8592837220727
 31
0.0
  0
LINE
  5
1BC
330
70
100
AcDbEntity
  8
HONTAI
 62
     9
420
 12632256
370
    25
100
AcDbLine
 10
354.7121685147882
 20
350.7688209481548
 30
0.0
 11
352.8361097457691
 21
342.8592837220727
 31
0.0
  0
LINE
  5
1BD
330
70
100
AcDbEntity
  8
HONTAI
 62
     9
420
 12632256
370
    25
100
AcDbLine
 10
322.495176604342
 20
341.129804782923
 30
0.0
 11
325.014325403239
 21
339.2248047834013
 31
0.0
  0
LINE
  5
1BE
330
70
100
AcDbEntity
  8
HONTAI
 62
     9
420
 12632256
370
    25
100
AcDbLine
 10
325.014325403239
 20
339.2248047834013
 30
0.0
 11
325.1803570931344
 21
341.129804782923
 31
0.0
  0
LINE
  5
1BF
330
70
100
AcDbEntity
  8
HONTAI
 62
     9
420
 12632256
370
    25
100
AcDbLine
 10
325.1803570931344
 20
341.129804782923
 30
0.0
 11
327.5143019586796
 21
339.2248047834013
 31
0.0
  0
LINE
  5
1C0
330
70
100
AcDbEntity
  8
HONTAI
 62
     9
420
 12632256
370
    25
100
AcDbLine
 10
327.5143019586796
 20
339.2248047834013
 30
0.0
 11
327.8451017370501
 21
341.129804782923
 31
0.0
  0
LINE
  5
1C1
330
70
100
AcDbEntity
  8
HONTAI
 62
     9
420
 12632256
370
    25
100
AcDbLine
 10
327.8451017370501
 20
341.129804782923
 30
0.0
 11
329.9760799395376
 21
339.2248047834013
 31
0.0
  0
LINE
  5
1C2
330
70
100
AcDbEntity
  8
HONTAI
 62
     9
420
 12632256
370
    25
100
AcDbLine
 10
329.9760799395376
 20
339.2248047834013
 30
0.0
 11
330.4691302203287
 21
341.129804782923
 31
0.0
  0
LINE
  5
1C3
330
70
100
AcDbEntity
  8
HONTAI
 62
     9
420
 12632256
370
    25
100
AcDbLine
 10
330.4691302203287
 20
341.129804782923
 30
0.0
 11
332.380923728922
 21
339.2248047834013
 31
0.0
  0
LINE
  5
1C4
330
70
100
AcDbEntity
  8
HONTAI
 62
     9
420
 12632256
370
    25
100
AcDbLine
 10
332.380923728922
 20
339.2248047834013
 30
0.0
 11
333.0324721017916
 21
341.129804782923
 31
0.0
  0
LINE
  5
1C5
330
70
100
AcDbEntity
  8
HONTAI
 62
     9
420
 12632256
370
    25
100
AcDbLine
 10
333.0324721017916
 20
341.129804782923
 30
0.0
 11
334.7105310135162
 21
339.4124253112924
 31
0.0
  0
LINE
  5
1C6
330
70
100
AcDbEntity
  8
HONTAI
 62
     9
420
 12632256
370
    25
100
AcDbLine
 10
334.7105310135162
 20
339.4124253112924
 30
0.0
 11
335.5156188019221
 21
341.3174253108141
 31
0.0
  0
LINE
  5
1C7
330
70
100
AcDbEntity
  8
HONTAI
 62
     9
420
 12632256
370
    25
100
AcDbLine
 10
335.5156188019221
 20
341.3174253108141
 30
0.0
 11
336.9471720752073
 21
339.4124253112924
 31
0.0
  0
LINE
  5
1C8
330
70
100
AcDbEntity
  8
HONTAI
 62
     9
420
 12632256
370
    25
100
AcDbLine
 10
336.9471720752073
 20
339.4124253112924
 30
0.0
 11
337.8996720749694
 21
341.3174253108141
 31
0.0
  0
LINE
  5
1C9
330
70
100
AcDbEntity
  8
HONTAI
 62
     9
420
 12632256
370
    25
100
AcDbLine
 10
337.8996720749694
 20
341.3174253108141
 30
0.0
 11
339.0738247250361
 21
339.5537072034914
 31
0.0
  0
LINE
  5
1CA
330
70
100
AcDbEntity
  8
HONTAI
 62
     9
420
 12632256
370
    25
100
AcDbLine
 10
339.0738247250361
 20
339.5537072034914
 30
0.0
 11
340.1664878359963
 21
341.4864693229467
 31
0.0
  0
LINE
  5
1CB
330
70
100
AcDbEntity
  8
HONTAI
 62
     9
420
 12632256
370
    25
100
AcDbLine
 10
340.1664878359963
 20
341.4864693229467
 30
0.0
 11
341.0743038521927
 21
339.7138545625612
 31
0.0
  0
LINE
  5
1CC
330
70
100
AcDbEntity
  8
HONTAI
 62
     9
420
 12632256
370
    25
100
AcDbLine
 10
341.0743038521927
 20
339.7138545625612
 30
0.0
 11
342.298814248319
 21
341.8949549660512
 31
0.0
  0
LINE
  5
1CD
330
70
100
AcDbEntity
  8
HONTAI
 62
     9
420
 12632256
370
    25
100
AcDbLine
 10
342.298814248319
 20
341.8949549660512
 30
0.0
 11
342.9333846026179
 21
339.9899549665295
 31
0.0
  0
LINE
  5
1CE
330
70
100
AcDbEntity
  8
HONTAI
 62
     9
420
 12632256
370
    25
100
AcDbLine
 10
342.9333846026179
 20
339.9899549665295
 30
0.0
 11
344.2804230204149
 21
342.0092731558984
 31
0.0
  0
LINE
  5
1CF
330
70
100
AcDbEntity
  8
HONTAI
 62
     9
420
 12632256
370
    25
100
AcDbLine
 10
344.2804230204149
 20
342.0092731558984
 30
0.0
 11
344.6369182492393
 21
340.1042731563767
 31
0.0
  0
LINE
  5
1D0
330
70
100
AcDbEntity
  8
HONTAI
 62
     9
420
 12632256
370
    25
100
AcDbLine
 10
344.6369182492393
 20
340.1042731563767
 30
0.0
 11
346.0962329129886
 21
342.1532544599245
 31
0.0
  0
LINE
  5
1D1
330
70
100
AcDbEntity
  8
HONTAI
 62
     9
420
 12632256
370
    25
100
AcDbLine
 10
346.0962329129886
 20
342.1532544599245
 30
0.0
 11
346.1719398723996
 21
340.2482544604028
 31
0.0
  0
LINE
  5
1D2
330
70
100
AcDbEntity
  8
HONTAI
 62
     9
420
 12632256
370
    25
100
AcDbLine
 10
346.1719398723996
 20
340.2482544604028
 30
0.0
 11
347.732424516348
 21
342.3404187491828
 31
0.0
  0
LINE
  5
1D3
330
70
100
AcDbEntity
  8
HONTAI
 62
     9
420
 12632256
370
    25
100
AcDbLine
 10
347.732424516348
 20
342.3404187491828
 30
0.0
 11
347.5267670306657
 21
340.4354187496611
 31
0.0
  0
LINE
  5
1D4
330
70
100
AcDbEntity
  8
HONTAI
 62
     9
420
 12632256
370
    25
100
AcDbLine
 10
347.5267670306657
 20
340.4354187496611
 30
0.0
 11
349.1765454244279
 21
342.5879814275746
 31
0.0
  0
LINE
  5
1D5
330
70
100
AcDbEntity
  8
HONTAI
 62
     9
420
 12632256
370
    25
100
AcDbLine
 10
349.1765454244279
 20
342.5879814275746
 30
0.0
 11
348.6910886713043
 21
340.6829814280426
 31
0.0
  0
LINE
  5
1D6
330
70
100
AcDbEntity
  8
HONTAI
 62
     9
420
 12632256
370
    25
100
AcDbLine
 10
348.6910886713043
 20
340.6829814280426
 30
0.0
 11
350.4142879378205
 21
342.5879814275746
 31
0.0
  0
LINE
  5
1D7
330
70
100
AcDbEntity
  8
HONTAI
 62
     9
420
 12632256
370
    25
100
AcDbLine
 10
350.4142879378205
 20
342.5879814275746
 30
0.0
 11
349.6560436035846
 21
340.8656897868001
 31
0.0
  0
LINE
  5
1D8
330
70
100
AcDbEntity
  8
HONTAI
 62
     9
420
 12632256
370
    25
100
AcDbLine
 10
349.6560436035846
 20
340.8656897868001
 30
0.0
 11
351.4461580456967
 21
342.7885591322231
 31
0.0
  0
LINE
  5
1D9
330
70
100
AcDbEntity
  8
HONTAI
 62
     9
420
 12632256
370
    25
100
AcDbLine
 10
351.4461580456967
 20
342.7885591322231
 30
0.0
 11
350.4142879378205
 21
341.0153968854905
 31
0.0
  0
LINE
  5
1DA
330
70
100
AcDbEntity
  8
HONTAI
 62
     9
420
 12632256
370
    25
100
AcDbLine
 10
350.4142879378205
 20
341.0153968854905
 30
0.0
 11
352.2543766364009
 21
342.8592837220727
 31
0.0
  0
LINE
  5
1DB
330
70
100
AcDbEntity
  8
HONTAI
 62
     9
420
 12632256
370
    25
100
AcDbLine
 10
352.2543766364009
 20
342.8592837220727
 30
0.0
 11
350.9600509767951
 21
341.1577129185674
 31
0.0
  0
LINE
  5
1DC
330
70
100
AcDbEntity
  8
HONTAI
 62
     9
420
 12632256
370
    25
100
AcDbLine
 10
350.9600509767951
 20
341.1577129185674
 30
0.0
 11
352.8361097457691
 21
342.8592837220727
 31
0.0
  0
LINE
  5
1DD
330
70
100
AcDbEntity
  8
HONTAI
 62
     9
420
 12632256
370
    25
100
AcDbLine
 10
352.8361097457691
 20
342.8592837220727
 30
0.0
 11
351.2891791342257
 21
341.260381815688
 31
0.0
  0
LINE
  5
1DE
330
70
100
AcDbEntity
  8
HONTAI
 62
     9
420
 12632256
370
    25
100
AcDbLine
 10
351.2891791342257
 20
341.260381815688
 30
0.0
 11
353.18693003357
 21
342.8592837220727
 31
0.0
  0
LINE
  5
1DF
330
70
100
AcDbEntity
  8
HONTAI
 62
     9
420
 12632256
370
    25
100
AcDbLine
 10
325.014325403239
 20
339.2248047834013
 30
0.0
 11
329.4685075798861
 21
240.5405342602599
 31
0.0
  0
LINE
  5
1E0
330
70
100
AcDbEntity
  8
HONTAI
 62
     9
420
 12632256
370
    25
100
AcDbLine
 10
325.014325403239
 20
339.2248047834013
 30
0.0
 11
322.495176604342
 21
240.5405342602394
 31
0.0
  0
LINE
  5
1E1
330
70
100
AcDbEntity
  8
HONTAI
 62
     9
420
 12632256
370
    25
100
AcDbLine
 10
329.4685075798861
 20
240.5405342602599
 30
0.0
 11
327.5143019586796
 21
339.2248047834013
 31
0.0
  0
LINE
  5
1E2
330
70
100
AcDbEntity
  8
HONTAI
 62
     2
420
 16776960
370
    25
100
AcDbLine
 10
327.5143019586796
 20
339.2248047834013
 30
0.0
 11
327.5143019586796
 21
339.2248047834013
 31
0.0
  0
LINE
  5
1E3
330
70
100
AcDbEntity
  8
HONTAI
 62
     9
420
 12632256
370
    25
100
AcDbLine
 10
327.5143019586796
 20
339.2248047834013
 30
0.0
 11
336.388767296048
 21
240.5405342602599
 31
0.0
  0
LINE
  5
1E4
330
70
100
AcDbEntity
  8
HONTAI
 62
     9
420
 12632256
370
    25
100
AcDbLine
 10
336.388767296048
 20
240.5405342602599
 30
0.0
 11
329.9760799395376
 21
339.2248047834013
 31
0.0
  0
LINE
  5
1E5
330
70
100
AcDbEntity
  8
HONTAI
 62
     9
420
 12632256
370
    25
100
AcDbLine
 10
329.9760799395376
 20
339.2248047834013
 30
0.0
 11
343.203288397868
 21
240.8683949354927
 31
0.0
  0
LINE
  5
1E6
330
70
100
AcDbEntity
  8
HONTAI
 62
     9
420
 12632256
370
    25
100
AcDbLine
 10
343.203288397868
 20
240.8683949354927
 30
0.0
 11
332.380923728922
 21
339.2248047834013
 31
0.0
  0
LINE
  5
1E7
330
70
100
AcDbEntity
  8
HONTAI
 62
     9
420
 12632256
370
    25
100
AcDbLine
 10
332.380923728922
 20
339.2248047834013
 30
0.0
 11
349.8602082650426
 21
240.8683949354927
 31
0.0
  0
LINE
  5
1E8
330
70
100
AcDbEntity
  8
HONTAI
 62
     9
420
 12632256
370
    25
100
AcDbLine
 10
349.8602082650426
 20
240.8683949354927
 30
0.0
 11
334.7105310135162
 21
339.4124253112924
 31
0.0
  0
LINE
  5
1E9
330
70
100
AcDbEntity
  8
HONTAI
 62
     9
420
 12632256
370
    25
100
AcDbLine
 10
334.7105310135162
 20
339.4124253112924
 30
0.0
 11
356.3088637178129
 21
241.1494075085843
 31
0.0
  0
LINE
  5
1EA
330
70
100
AcDbEntity
  8
HONTAI
 62
     9
420
 12632256
370
    25
100
AcDbLine
 10
356.3088637178129
 20
241.1494075085843
 30
0.0
 11
336.9471720752073
 21
339.4124253112924
 31
0.0
  0
LINE
  5
1EB
330
70
100
AcDbEntity
  8
HONTAI
 62
     9
420
 12632256
370
    25
100
AcDbLine
 10
336.9471720752073
 20
339.4124253112924
 30
0.0
 11
362.500176594392
 21
241.9956465021761
 31
0.0
  0
LINE
  5
1EC
330
70
100
AcDbEntity
  8
HONTAI
 62
     9
420
 12632256
370
    25
100
AcDbLine
 10
362.500176594392
 20
241.9956465021761
 30
0.0
 11
339.0738247250361
 21
339.5537072034914
 31
0.0
  0
LINE
  5
1ED
330
70
100
AcDbEntity
  8
HONTAI
 62
     9
420
 12632256
370
    25
100
AcDbLine
 10
339.0738247250361
 20
339.5537072034914
 30
0.0
 11
368.3870272653702
 21
242.334175557115
 31
0.0
  0
LINE
  5
1EE
330
70
100
AcDbEntity
  8
HONTAI
 62
     9
420
 12632256
370
    25
100
AcDbLine
 10
368.3870272653702
 20
242.334175557115
 30
0.0
 11
341.0743038521927
 21
339.7138545625612
 31
0.0
  0
LINE
  5
1EF
330
70
100
AcDbEntity
  8
HONTAI
 62
     9
420
 12632256
370
    25
100
AcDbLine
 10
341.0743038521927
 20
339.7138545625612
 30
0.0
 11
373.9246132425577
 21
243.0037741655729
 31
0.0
  0
LINE
  5
1F0
330
70
100
AcDbEntity
  8
HONTAI
 62
     9
420
 12632256
370
    25
100
AcDbLine
 10
373.9246132425577
 20
243.0037741655729
 30
0.0
 11
342.9333846026179
 21
339.9899549665295
 31
0.0
  0
LINE
  5
1F1
330
70
100
AcDbEntity
  8
HONTAI
 62
     9
420
 12632256
370
    25
100
AcDbLine
 10
342.9333846026179
 20
339.9899549665295
 30
0.0
 11
379.0707901529879
 21
243.7143277940075
 31
0.0
  0
LINE
  5
1F2
330
70
100
AcDbEntity
  8
HONTAI
 62
     9
420
 12632256
370
    25
100
AcDbLine
 10
379.0707901529879
 20
243.7143277940075
 30
0.0
 11
344.6369182492393
 21
340.1042731563767
 31
0.0
  0
LINE
  5
1F3
330
70
100
AcDbEntity
  8
HONTAI
 62
     9
420
 12632256
370
    25
100
AcDbLine
 10
344.6369182492393
 20
340.1042731563767
 30
0.0
 11
383.7863924830204
 21
244.235397920214
 31
0.0
  0
LINE
  5
1F4
330
70
100
AcDbEntity
  8
HONTAI
 62
     9
420
 12632256
370
    25
100
AcDbLine
 10
383.7863924830204
 20
244.235397920214
 30
0.0
 11
346.1719398723996
 21
340.2482544604028
 31
0.0
  0
LINE
  5
1F5
330
70
100
AcDbEntity
  8
HONTAI
 62
     9
420
 12632256
370
    25
100
AcDbLine
 10
346.1719398723996
 20
340.2482544604028
 30
0.0
 11
388.0355316515682
 21
244.9298387214519
 31
0.0
  0
LINE
  5
1F6
330
70
100
AcDbEntity
  8
HONTAI
 62
     9
420
 12632256
370
    25
100
AcDbLine
 10
388.0355316515682
 20
244.9298387214519
 30
0.0
 11
347.5267670306657
 21
340.4354187496611
 31
0.0
  0
LINE
  5
1F7
330
70
100
AcDbEntity
  8
HONTAI
 62
     9
420
 12632256
370
    25
100
AcDbLine
 10
347.5267670306657
 20
340.4354187496611
 30
0.0
 11
391.7858691438669
 21
245.7761841707173
 31
0.0
  0
LINE
  5
1F8
330
70
100
AcDbEntity
  8
HONTAI
 62
     9
420
 12632256
370
    25
100
AcDbLine
 10
391.7858691438669
 20
245.7761841707173
 30
0.0
 11
348.6910886713043
 21
340.6829814280426
 31
0.0
  0
LINE
  5
1F9
330
70
100
AcDbEntity
  8
HONTAI
 62
     9
420
 12632256
370
    25
100
AcDbLine
 10
348.6910886713043
 20
340.6829814280426
 30
0.0
 11
395.0088626270673
 21
246.2568543672533
 31
0.0
  0
LINE
  5
1FA
330
70
100
AcDbEntity
  8
HONTAI
 62
     9
420
 12632256
370
    25
100
AcDbLine
 10
395.0088626270673
 20
246.2568543672533
 30
0.0
 11
349.6560436035846
 21
340.8656897868001
 31
0.0
  0
LINE
  5
1FB
330
70
100
AcDbEntity
  8
HONTAI
 62
     9
420
 12632256
370
    25
100
AcDbLine
 10
349.6560436035846
 20
340.8656897868001
 30
0.0
 11
397.6799831746751
 21
247.0168490539928
 31
0.0
  0
LINE
  5
1FC
330
70
100
AcDbEntity
  8
HONTAI
 62
     9
420
 12632256
370
    25
100
AcDbLine
 10
397.6799831746751
 20
247.0168490539928
 30
0.0
 11
350.4142879378205
 21
341.0153968854905
 31
0.0
  0
LINE
  5
1FD
330
70
100
AcDbEntity
  8
HONTAI
 62
     9
420
 12632256
370
    25
100
AcDbLine
 10
350.4142879378205
 20
341.0153968854905
 30
0.0
 11
399.7789019464631
 21
247.6919681497272
 31
0.0
  0
LINE
  5
1FE
330
70
100
AcDbEntity
  8
HONTAI
 62
     9
420
 12632256
370
    25
100
AcDbLine
 10
399.7789019464631
 20
247.6919681497272
 30
0.0
 11
350.9600509767951
 21
341.1577129185674
 31
0.0
  0
LINE
  5
1FF
330
70
100
AcDbEntity
  8
HONTAI
 62
     9
420
 12632256
370
    25
100
AcDbLine
 10
350.9600509767951
 20
341.1577129185674
 30
0.0
 11
401.2896449031992
 21
248.4329376860756
 31
0.0
  0
LINE
  5
200
330
70
100
AcDbEntity
  8
HONTAI
 62
     9
420
 12632256
370
    25
100
AcDbLine
 10
401.2896449031992
 20
248.4329376860756
 30
0.0
 11
351.2891791342257
 21
341.260381815688
 31
0.0
  0
LINE
  5
201
330
70
100
AcDbEntity
  8
HONTAI
 62
     9
420
 12632256
370
    25
100
AcDbLine
 10
351.2891791342257
 20
341.260381815688
 30
0.0
 11
402.2007143787826
 21
249.0182005859059
 31
0.0
  0
LINE
  5
202
330
70
100
AcDbEntity
  8
HONTAI
 62
     9
420
 12632256
370
    25
100
AcDbLine
 10
402.2007143787826
 20
249.0182005859059
 30
0.0
 11
351.3991675461174
 21
341.2923185188871
 31
0.0
  0
LINE
  5
203
330
70
100
AcDbEntity
  8
HONTAI
 62
     9
420
 12632256
370
    25
100
AcDbLine
 10
353.18693003357
 20
342.8592837220727
 30
0.0
 11
351.3991675460661
 21
341.2923185189795
 31
0.0
  0
LINE
  5
204
330
70
100
AcDbEntity
  8
HONTAI
 62
     9
420
 12632256
370
    25
100
AcDbLine
 10
322.495176604342
 20
240.5405342602394
 30
0.0
 11
325.7525653232509
 21
238.6355342607177
 31
0.0
  0
LINE
  5
205
330
70
100
AcDbEntity
  8
HONTAI
 62
     9
420
 12632256
370
    25
100
AcDbLine
 10
325.7525653232509
 20
238.6355342607177
 30
0.0
 11
329.4685075798861
 21
240.5405342602599
 31
0.0
  0
LINE
  5
206
330
70
100
AcDbEntity
  8
HONTAI
 62
     9
420
 12632256
370
    25
100
AcDbLine
 10
329.4685075798861
 20
240.5405342602599
 30
0.0
 11
332.3753667318495
 21
238.6355342607177
 31
0.0
  0
LINE
  5
207
330
70
100
AcDbEntity
  8
HONTAI
 62
     9
420
 12632256
370
    25
100
AcDbLine
 10
332.3753667318495
 20
238.6355342607177
 30
0.0
 11
336.388767296048
 21
240.5405342602394
 31
0.0
  0
LINE
  5
208
330
70
100
AcDbEntity
  8
HONTAI
 62
     9
420
 12632256
370
    25
100
AcDbLine
 10
336.388767296048
 20
240.5405342602394
 30
0.0
 11
338.97217778779
 21
238.6355342607177
 31
0.0
  0
LINE
  5
209
330
70
100
AcDbEntity
  8
HONTAI
 62
     9
420
 12632256
370
    25
100
AcDbLine
 10
338.97217778779
 20
238.6355342607177
 30
0.0
 11
343.203288397868
 21
240.8683949354927
 31
0.0
  0
LINE
  5
20A
330
70
100
AcDbEntity
  8
HONTAI
 62
     9
420
 12632256
370
    25
100
AcDbLine
 10
343.203288397868
 20
240.8683949354927
 30
0.0
 11
345.3455556666435
 21
238.9633949359709
 31
0.0
  0
LINE
  5
20B
330
70
100
AcDbEntity
  8
HONTAI
 62
     9
420
 12632256
370
    25
100
AcDbLine
 10
345.3455556666435
 20
238.9633949359709
 30
0.0
 11
349.8602082650426
 21
240.8683949354927
 31
0.0
  0
LINE
  5
20C
330
70
100
AcDbEntity
  8
HONTAI
 62
     9
420
 12632256
370
    25
100
AcDbLine
 10
349.8602082650426
 20
240.8683949354927
 30
0.0
 11
351.5942322234455
 21
239.2444075090626
 31
0.0
  0
LINE
  5
20D
330
70
100
AcDbEntity
  8
HONTAI
 62
     9
420
 12632256
370
    25
100
AcDbLine
 10
351.5942322234455
 20
239.2444075090626
 30
0.0
 11
356.3088637178129
 21
241.1494075085843
 31
0.0
  0
LINE
  5
20E
330
70
100
AcDbEntity
  8
HONTAI
 62
     9
420
 12632256
370
    25
100
AcDbLine
 10
356.3088637178129
 20
241.1494075085843
 30
0.0
 11
357.6469323679309
 21
239.6675232038636
 31
0.0
  0
LINE
  5
20F
330
70
100
AcDbEntity
  8
HONTAI
 62
     9
420
 12632256
370
    25
100
AcDbLine
 10
357.6469323679309
 20
239.6675232038636
 30
0.0
 11
362.500176594392
 21
241.9956465021761
 31
0.0
  0
LINE
  5
210
330
70
100
AcDbEntity
  8
HONTAI
 62
     9
420
 12632256
370
    25
100
AcDbLine
 10
362.500176594392
 20
241.9956465021761
 30
0.0
 11
363.3984388191444
 21
240.0906465026442
 31
0.0
  0
LINE
  5
211
330
70
100
AcDbEntity
  8
HONTAI
 62
     9
420
 12632256
370
    25
100
AcDbLine
 10
363.3984388191444
 20
240.0906465026442
 30
0.0
 11
368.3870272653702
 21
242.334175557115
 31
0.0
  0
LINE
  5
212
330
70
100
AcDbEntity
  8
HONTAI
 62
     9
420
 12632256
370
    25
100
AcDbLine
 10
368.3870272653702
 20
242.334175557115
 30
0.0
 11
368.8300451630732
 21
240.429175557583
 31
0.0
  0
LINE
  5
213
330
70
100
AcDbEntity
  8
HONTAI
 62
     9
420
 12632256
370
    25
100
AcDbLine
 10
368.8300451630732
 20
240.429175557583
 30
0.0
 11
373.9246132425577
 21
243.0037741655729
 31
0.0
  0
LINE
  5
214
330
70
100
AcDbEntity
  8
HONTAI
 62
     9
420
 12632256
370
    25
100
AcDbLine
 10
373.9246132425577
 20
243.0037741655729
 30
0.0
 11
373.9246132425577
 21
241.0987741660512
 31
0.0
  0
LINE
  5
215
330
70
100
AcDbEntity
  8
HONTAI
 62
     9
420
 12632256
370
    25
100
AcDbLine
 10
373.9246132425577
 20
241.0987741660512
 30
0.0
 11
379.02217491464
 21
243.836572147687
 31
0.0
  0
LINE
  5
216
330
70
100
AcDbEntity
  8
HONTAI
 62
     9
420
 12632256
370
    25
100
AcDbLine
 10
379.02217491464
 20
243.836572147687
 30
0.0
 11
378.6307813950632
 21
241.8093277944858
 31
0.0
  0
LINE
  5
217
330
70
100
AcDbEntity
  8
HONTAI
 62
     9
420
 12632256
370
    25
100
AcDbLine
 10
378.6307813950632
 20
241.8093277944858
 30
0.0
 11
383.7863924830204
 21
244.235397920214
 31
0.0
  0
LINE
  5
218
330
70
100
AcDbEntity
  8
HONTAI
 62
     9
420
 12632256
370
    25
100
AcDbLine
 10
383.7863924830204
 20
244.235397920214
 30
0.0
 11
382.9082133824146
 21
242.3303979206924
 31
0.0
  0
LINE
  5
219
330
70
100
AcDbEntity
  8
HONTAI
 62
     9
420
 12632256
370
    25
100
AcDbLine
 10
382.9082133824146
 20
242.3303979206924
 30
0.0
 11
388.0355316515682
 21
244.9298387214519
 31
0.0
  0
LINE
  5
21A
330
70
100
AcDbEntity
  8
HONTAI
 62
     9
420
 12632256
370
    25
100
AcDbLine
 10
388.0355316515682
 20
244.9298387214519
 30
0.0
 11
386.7258656814863
 21
243.0248387219303
 31
0.0
  0
LINE
  5
21B
330
70
100
AcDbEntity
  8
HONTAI
 62
     9
420
 12632256
370
    25
100
AcDbLine
 10
386.7258656814863
 20
243.0248387219303
 30
0.0
 11
391.7858691438669
 21
245.7761841707173
 31
0.0
  0
LINE
  5
21C
330
70
100
AcDbEntity
  8
HONTAI
 62
     9
420
 12632256
370
    25
100
AcDbLine
 10
391.7858691438669
 20
245.7761841707173
 30
0.0
 11
390.0546836531353
 21
243.7282141961085
 31
0.0
  0
LINE
  5
21D
330
70
100
AcDbEntity
  8
HONTAI
 62
     9
420
 12632256
370
    25
100
AcDbLine
 10
390.0546836531353
 20
243.7282141961085
 30
0.0
 11
395.0088626270673
 21
246.2568543672533
 31
0.0
  0
LINE
  5
21E
330
70
100
AcDbEntity
  8
HONTAI
 62
     9
420
 12632256
370
    25
100
AcDbLine
 10
395.0088626270673
 20
246.2568543672533
 30
0.0
 11
392.8277921248519
 21
244.3518543677316
 31
0.0
  0
LINE
  5
21F
330
70
100
AcDbEntity
  8
HONTAI
 62
     9
420
 12632256
370
    25
100
AcDbLine
 10
392.8277921248519
 20
244.3518543677316
 30
0.0
 11
397.6799831746751
 21
247.0168490539928
 31
0.0
  0
LINE
  5
220
330
70
100
AcDbEntity
  8
HONTAI
 62
     9
420
 12632256
370
    25
100
AcDbLine
 10
397.6799831746751
 20
247.0168490539928
 30
0.0
 11
395.1483924889425
 21
245.1118490544711
 31
0.0
  0
LINE
  5
221
330
70
100
AcDbEntity
  8
HONTAI
 62
     9
420
 12632256
370
    25
100
AcDbLine
 10
395.1483924889425
 20
245.1118490544711
 30
0.0
 11
399.7789019464631
 21
247.6919681497272
 31
0.0
  0
LINE
  5
222
330
70
100
AcDbEntity
  8
HONTAI
 62
     9
420
 12632256
370
    25
100
AcDbLine
 10
399.7789019464631
 20
247.6919681497272
 30
0.0
 11
396.8181259571876
 21
245.5922607157722
 31
0.0
  0
LINE
  5
223
330
70
100
AcDbEntity
  8
HONTAI
 62
     9
420
 12632256
370
    25
100
AcDbLine
 10
396.8181259571876
 20
245.5922607157722
 30
0.0
 11
401.2896449031992
 21
248.4329376860756
 31
0.0
  0
LINE
  5
224
330
70
100
AcDbEntity
  8
HONTAI
 62
     9
420
 12632256
370
    25
100
AcDbLine
 10
401.2896449031992
 20
248.4329376860756
 30
0.0
 11
398.0345701243967
 21
246.0324093190152
 31
0.0
  0
LINE
  5
225
330
70
100
AcDbEntity
  8
HONTAI
 62
     9
420
 12632256
370
    25
100
AcDbLine
 10
398.0345701243967
 20
246.0324093190152
 30
0.0
 11
402.2007143787826
 21
249.0182005859059
 31
0.0
  0
LINE
  5
226
330
70
100
AcDbEntity
  8
HONTAI
 62
     9
420
 12632256
370
    25
100
AcDbLine
 10
402.2007143787826
 20
249.0182005859059
 30
0.0
 11
398.6197226989775
 21
246.2916060821744
 31
0.0
  0
LINE
  5
227
330
70
100
AcDbEntity
  8
HONTAI
 62
     9
420
 12632256
370
    25
100
AcDbLine
 10
398.6197226989775
 20
246.2916060821744
 30
0.0
 11
402.5051765843392
 21
249.2376741733334
 31
0.0
  0
CIRCLE
  5
229
330
70
100
AcDbEntity
  8
DIM
 62
     9
420
 12632256
370
    25
100
AcDbCircle
 10
409.4721800590313
 20
109.6976381634386
 30
0.0
 40
0.7619999998094486
  0
CIRCLE
  5
22A
330
70
100
AcDbEntity
  8
DIM
 62
     9
420
 12632256
370
    25
100
AcDbCircle
 10
409.4721800590313
 20
109.6976381634384
 30
0.0
 40
0.5714999998568459
  0
LINE
  5
22B
330
70
100
AcDbEntity
  8
DIM
 62
     9
420
 12632256
370
    25
100
AcDbLine
 10
406.8813519686442
 20
109.6023881634661
 30
0.0
 11
406.8813519686442
 21
109.7928881634213
 31
0.0
  0
LINE
  5
22C
330
70
100
AcDbEntity
  8
DIM
 62
     9
420
 12632256
370
    25
100
AcDbLine
 10
405.6299915858114
 20
109.6023881634661
 30
0.0
 11
405.6299915858114
 21
109.7928881634213
 31
0.0
  0
LINE
  5
22E
330
70
100
AcDbEntity
  8
CL
  6
AI-Linetype-0
 62
     9
420
 12632256
370
    25
100
AcDbLine
 10
405.6299915858114
 20
109.6023881634661
 30
0.0
 11
406.8813519686442
 21
109.6023881634661
 31
0.0
  0
LINE
  5
230
330
70
100
AcDbEntity
  8
CL
  6
AI-Linetype-1
 62
     9
420
 12632256
370
    25
100
AcDbLine
 10
405.6299915858114
 20
109.7928881634213
 30
0.0
 11
406.8813519686442
 21
109.7928881634213
 31
0.0
  0
LINE
  5
232
330
70
100
AcDbEntity
  8
CL
  6
AI-Linetype-2
 62
     9
420
 12632256
370
    25
100
AcDbLine
 10
383.0012566819295
 20
113.1580008390181
 30
0.0
 11
381.103970285429
 21
105.7640290362764
 31
0.0
  0
LINE
  5
234
330
70
100
AcDbEntity
  8
CL
  6
AI-Linetype-3
 62
     9
420
 12632256
370
    25
100
AcDbLine
 10
380.9324195096669
 20
113.1580008390181
 30
0.0
 11
379.0351331131728
 21
105.7640290362764
 31
0.0
  0
LINE
  5
236
330
70
100
AcDbEntity
  8
CL
  6
AI-Linetype-4
 62
     9
420
 12632256
370
    25
100
AcDbLine
 10
438.8852390394629
 20
113.1580008390181
 30
0.0
 11
436.9879526429618
 21
105.7640290362764
 31
0.0
  0
LINE
  5
238
330
70
100
AcDbEntity
  8
CL
  6
AI-Linetype-5
 62
     9
420
 12632256
370
    25
100
AcDbLine
 10
436.816401867208
 20
113.1580008390181
 30
0.0
 11
434.9191154707068
 21
105.7640290362764
 31
0.0
  0
LINE
  5
23B
330
70
100
AcDbEntity
  8
1-CL
 62
     9
420
 12632256
370
    25
100
AcDbLine
 10
466.0372507331755
 20
147.9858226453295
 30
0.0
 11
466.0372507331755
 21
177.2609452322489
 31
0.0
  0
LINE
  5
23D
330
70
100
AcDbEntity
  8
0-HONTAI
 62
     2
420
 16776960
370
    25
100
AcDbLine
 10
471.5617362174604
 20
167.6583479550676
 30
0.0
 11
471.5617431612788
 21
159.6382633356203
 31
0.0
  0
LINE
  5
23E
330
70
100
AcDbEntity
  8
0-HONTAI
 62
     2
420
 16776960
370
    25
100
AcDbLine
 10
469.275734568677
 20
169.5633459753636
 30
0.0
 11
469.2757388570021
 21
164.6103459766035
 31
0.0
  0
LINE
  5
23F
330
70
100
AcDbEntity
  8
0-HONTAI
 62
     2
420
 16776960
370
    25
100
AcDbLine
 10
462.7987345702986
 20
169.5633403675538
 30
0.0
 11
462.7987388586244
 21
164.6103403687937
 31
0.0
  0
LINE
  5
240
330
70
100
AcDbEntity
  8
0-HONTAI
 62
     2
420
 16776960
370
    25
100
AcDbLine
 10
460.5127362202266
 20
167.6583383888038
 30
0.0
 11
460.5127431640456
 21
159.6382537693564
 31
0.0
  0
LINE
  5
241
330
70
100
AcDbEntity
  8
0-HONTAI
 62
     2
420
 16776960
370
    25
100
AcDbLine
 10
468.3232292909768
 20
175.6593451491597
 30
0.0
 11
467.9422292910721
 21
175.6593448192885
 31
0.0
  0
LINE
  5
242
330
70
100
AcDbEntity
  8
0-HONTAI
 62
     2
420
 16776960
370
    25
100
AcDbLine
 10
463.1797342403321
 20
169.9443406973297
 30
0.0
 11
468.8947342389011
 21
169.9443456453972
 31
0.0
  0
LINE
  5
243
330
70
100
AcDbEntity
  8
0-HONTAI
 62
     2
420
 16776960
370
    25
100
AcDbLine
 10
467.9422292910721
 20
175.6593448192879
 30
0.0
 11
467.9422342391396
 21
169.9443448207189
 31
0.0
  0
LINE
  5
244
330
70
100
AcDbEntity
  8
0-HONTAI
 62
     2
420
 16776960
370
    25
100
AcDbLine
 10
463.7512292921214
 20
175.6593411907051
 30
0.0
 11
464.1322292920261
 21
175.6593415205762
 31
0.0
  0
SPLINE
  5
245
330
70
100
AcDbEntity
  8
0-HONTAI
 62
     2
420
 16776960
370
    25
100
AcDbSpline
210
0.0
220
0.0
230
1.0
 70
     8
 71
     3
 72
     8
 73
     4
 74
     0
 42
0.0000000001
 43
0.0000000001
 40
0.0
 40
0.0
 40
0.0
 40
0.0
 40
1.0
 40
1.0
 40
1.0
 40
1.0
 10
460.8937358902602
 20
168.0393387185791
 30
0.0
 10
460.6833154006276
 20
168.0393385363962
 30
0.0
 10
460.5127360380445
 20
167.8687588784364
 30
0.0
 10
460.5127362202266
 20
167.6583383888038
 30
0.0
  0
SPLINE
  5
246
330
70
100
AcDbEntity
  8
0-HONTAI
 62
     2
420
 16776960
370
    25
100
AcDbSpline
210
0.0
220
0.0
230
1.0
 70
     8
 71
     3
 72
     8
 73
     4
 74
     0
 42
0.0000000001
 43
0.0000000001
 40
0.0
 40
0.0
 40
0.0
 40
0.0
 40
1.0
 40
1.0
 40
1.0
 40
1.0
 10
463.1797342403321
 20
169.9443406973297
 30
0.0
 10
462.9693137506995
 20
169.9443405151468
 30
0.0
 10
462.7987343881157
 20
169.7737608571864
 30
0.0
 10
462.7987345702986
 20
169.5633403675538
 30
0.0
  0
LINE
  5
247
330
70
100
AcDbEntity
  8
0-HONTAI
 62
     2
420
 16776960
370
    25
100
AcDbLine
 10
460.8937358902602
 20
168.0393387185791
 30
0.0
 11
462.7987358897832
 21
168.0393403679349
 31
0.0
  0
LINE
  5
248
330
70
100
AcDbEntity
  8
0-HONTAI
 62
     2
420
 16776960
370
    25
100
AcDbLine
 10
463.7512292921214
 20
175.6593411907051
 30
0.0
 11
463.7512342401889
 21
169.9443411921361
 31
0.0
  0
LINE
  5
249
330
70
100
AcDbEntity
  8
0-HONTAI
 62
     2
420
 16776960
370
    25
100
AcDbLine
 10
464.1322292920261
 20
175.6593415205762
 30
0.0
 11
464.1322342400936
 21
169.9443415220073
 31
0.0
  0
SPLINE
  5
24A
330
70
100
AcDbEntity
  8
0-HONTAI
 62
     2
420
 16776960
370
    25
100
AcDbSpline
210
0.0
220
0.0
230
1.0
 70
     8
 71
     3
 72
     8
 73
     4
 74
     0
 42
0.0000000001
 43
0.0000000001
 40
0.0
 40
0.0
 40
0.0
 40
0.0
 40
1.0
 40
1.0
 40
1.0
 40
1.0
 10
471.5617362174604
 20
167.6583479550676
 30
0.0
 10
471.5617360352776
 20
167.8687684447003
 30
0.0
 10
471.3911563773179
 20
168.039347807284
 30
0.0
 10
471.1807358876846
 20
168.0393476251012
 30
0.0
  0
SPLINE
  5
24B
330
70
100
AcDbEntity
  8
0-HONTAI
 62
     2
420
 16776960
370
    25
100
AcDbSpline
210
0.0
220
0.0
230
1.0
 70
     8
 71
     3
 72
     8
 73
     4
 74
     0
 42
0.0000000001
 43
0.0000000001
 40
0.0
 40
0.0
 40
0.0
 40
0.0
 40
1.0
 40
1.0
 40
1.0
 40
1.0
 10
469.275734568677
 20
169.5633459753636
 30
0.0
 10
469.2757343864941
 20
169.7737664649962
 30
0.0
 10
469.1051547285344
 20
169.94434582758
 30
0.0
 10
468.8947342389011
 20
169.9443456453972
 30
0.0
  0
LINE
  5
24C
330
70
100
AcDbEntity
  8
0-HONTAI
 62
     2
420
 16776960
370
    25
100
AcDbLine
 10
469.2757358881616
 20
168.0393459757454
 30
0.0
 11
471.1807358876846
 21
168.0393476251012
 31
0.0
  0
LINE
  5
24D
330
70
100
AcDbEntity
  8
0-HONTAI
 62
     2
420
 16776960
370
    25
100
AcDbLine
 10
468.3232292909768
 20
175.659345149159
 30
0.0
 11
468.3232342390443
 21
169.9443451505901
 31
0.0
  0
LINE
  5
24E
330
70
100
AcDbEntity
  8
0-HONTAI
 62
     2
420
 16776960
370
    25
100
AcDbLine
 10
463.1797391883996
 20
164.2293406987601
 30
0.0
 11
468.8947391869692
 21
164.2293456468282
 31
0.0
  0
LINE
  5
24F
330
70
100
AcDbEntity
  8
0-HONTAI
 62
     2
420
 16776960
370
    25
100
AcDbLine
 10
469.041581975179
 20
150.8943457772943
 30
0.0
 11
466.0372507331755
 21
150.8943431761333
 31
0.0
  0
SPLINE
  5
250
330
70
100
AcDbEntity
  8
0-HONTAI
 62
     2
420
 16776960
370
    25
100
AcDbSpline
210
0.0
220
0.0
230
1.0
 70
     8
 71
     3
 72
     8
 73
     4
 74
     0
 42
0.0000000001
 43
0.0000000001
 40
0.0
 40
0.0
 40
0.0
 40
0.0
 40
1.0
 40
1.0
 40
1.0
 40
1.0
 10
460.5127431640456
 20
159.6382537693564
 30
0.0
 10
460.5127436810291
 20
159.0411390893785
 30
0.0
 10
460.6530905386383
 20
158.45238374025
 30
0.0
 10
460.9224622298085
 20
157.9194814668064
 30
0.0
  0
SPLINE
  5
251
330
70
100
AcDbEntity
  8
0-HONTAI
 62
     2
420
 16776960
370
    25
100
AcDbSpline
210
0.0
220
0.0
230
1.0
 70
     8
 71
     3
 72
     8
 73
     4
 74
     0
 42
0.0000000001
 43
0.0000000001
 40
0.0
 40
0.0
 40
0.0
 40
0.0
 40
1.0
 40
1.0
 40
1.0
 40
1.0
 10
463.211799051841
 20
153.5638656259551
 30
0.0
 10
463.0416000201909
 20
154.1061905021118
 30
0.0
 10
462.8455399514301
 20
154.6400579323953
 30
0.0
 10
462.6242918628633
 20
155.1636353048808
 30
0.0
  0
SPLINE
  5
252
330
70
100
AcDbEntity
  8
0-HONTAI
 62
     2
420
 16776960
370
    25
100
AcDbSpline
210
0.0
220
0.0
230
1.0
 70
     8
 71
     3
 72
     8
 73
     4
 74
     0
 42
0.0000000001
 43
0.0000000001
 40
0.0
 40
0.0
 40
0.0
 40
0.0
 40
1.0
 40
1.0
 40
1.0
 40
1.0
 10
462.7987388586237
 20
164.6103403687937
 30
0.0
 10
462.7987390408065
 20
164.399919879161
 30
0.0
 10
462.969318698767
 20
164.2293405165772
 30
0.0
 10
463.1797391883996
 20
164.2293406987601
 30
0.0
  0
SPLINE
  5
253
330
70
100
AcDbEntity
  8
0-HONTAI
 62
     2
420
 16776960
370
    25
100
AcDbSpline
210
0.0
220
0.0
230
1.0
 70
     8
 71
     3
 72
     8
 73
     4
 74
     0
 42
0.0000000001
 43
0.0000000001
 40
0.0
 40
0.0
 40
0.0
 40
0.0
 40
1.0
 40
1.0
 40
1.0
 40
1.0
 10
460.9224622298079
 20
157.919481466807
 30
0.0
 10
461.4104037507947
 20
156.9541790450421
 30
0.0
 10
461.9797412632801
 20
156.0322262431
 30
0.0
 10
462.6242918628607
 20
155.1636353048859
 30
0.0
  0
LINE
  5
254
330
70
100
AcDbEntity
  8
0-HONTAI
 62
     2
420
 16776960
370
    25
100
AcDbLine
 10
463.0329194911721
 20
150.8943405749722
 30
0.0
 11
466.0372507331755
 21
150.8943431761333
 31
0.0
  0
SPLINE
  5
255
330
70
100
AcDbEntity
  8
0-HONTAI
 62
     2
420
 16776960
370
    25
100
AcDbSpline
210
0.0
220
0.0
230
1.0
 70
     8
 71
     3
 72
     8
 73
     4
 74
     0
 42
0.0000000001
 43
0.0000000001
 40
0.0
 40
0.0
 40
0.0
 40
0.0
 40
1.0
 40
1.0
 40
1.0
 40
1.0
 10
463.0329194911721
 20
150.8943405749722
 30
0.0
 10
463.4413980046755
 20
151.726003375157
 30
0.0
 10
463.5056678363814
 20
152.6851399311724
 30
0.0
 10
463.2117990518398
 20
153.5638656259589
 30
0.0
  0
SPLINE
  5
256
330
70
100
AcDbEntity
  8
0-HONTAI
 62
     2
420
 16776960
370
    25
100
AcDbSpline
210
0.0
220
0.0
230
1.0
 70
     8
 71
     3
 72
     8
 73
     4
 74
     0
 42
0.0000000001
 43
0.0000000001
 40
0.0
 40
0.0
 40
0.0
 40
0.0
 40
1.0
 40
1.0
 40
1.0
 40
1.0
 10
469.4502022107478
 20
155.1636412147839
 30
0.0
 10
469.2289550288113
 20
154.6400634591836
 30
0.0
 10
469.0328958844988
 20
154.1061956894015
 30
0.0
 10
468.8626977919425
 20
153.5638705185272
 30
0.0
  0
SPLINE
  5
257
330
70
100
AcDbEntity
  8
0-HONTAI
 62
     2
420
 16776960
370
    25
100
AcDbSpline
210
0.0
220
0.0
230
1.0
 70
     8
 71
     3
 72
     8
 73
     4
 74
     0
 42
0.0000000001
 43
0.0000000001
 40
0.0
 40
0.0
 40
0.0
 40
0.0
 40
1.0
 40
1.0
 40
1.0
 40
1.0
 10
469.4502022107453
 20
155.16364121478
 30
0.0
 10
470.0947513062673
 20
156.0322332691019
 30
0.0
 10
470.6640872222922
 20
156.9541870569113
 30
0.0
 10
471.1520270717545
 20
157.9194903235987
 30
0.0
  0
SPLINE
  5
258
330
70
100
AcDbEntity
  8
0-HONTAI
 62
     2
420
 16776960
370
    25
100
AcDbSpline
210
0.0
220
0.0
230
1.0
 70
     8
 71
     3
 72
     8
 73
     4
 74
     0
 42
0.0000000001
 43
0.0000000001
 40
0.0
 40
0.0
 40
0.0
 40
0.0
 40
1.0
 40
1.0
 40
1.0
 40
1.0
 10
468.8947391869692
 20
164.2293456468276
 30
0.0
 10
469.1051596766018
 20
164.2293458290104
 30
0.0
 10
469.2757390391849
 20
164.3999254869708
 30
0.0
 10
469.2757388570021
 20
164.6103459766035
 30
0.0
  0
SPLINE
  5
259
330
70
100
AcDbEntity
  8
0-HONTAI
 62
     2
420
 16776960
370
    25
100
AcDbSpline
210
0.0
220
0.0
230
1.0
 70
     8
 71
     3
 72
     8
 73
     4
 74
     0
 42
0.0000000001
 43
0.0000000001
 40
0.0
 40
0.0
 40
0.0
 40
0.0
 40
1.0
 40
1.0
 40
1.0
 40
1.0
 10
471.1520270717545
 20
157.9194903236
 30
0.0
 10
471.4213978401473
 20
158.4523930634889
 30
0.0
 10
471.5617436782629
 20
159.0411486556417
 30
0.0
 10
471.5617431612788
 20
159.6382633356196
 30
0.0
  0
SPLINE
  5
25A
330
70
100
AcDbEntity
  8
0-HONTAI
 62
     2
420
 16776960
370
    25
100
AcDbSpline
210
0.0
220
0.0
230
1.0
 70
     8
 71
     3
 72
     8
 73
     4
 74
     0
 42
0.0000000001
 43
0.0000000001
 40
0.0
 40
0.0
 40
0.0
 40
0.0
 40
1.0
 40
1.0
 40
1.0
 40
1.0
 10
468.8626977919432
 20
153.5638705185278
 30
0.0
 10
468.5688305290098
 20
152.6851443148777
 30
0.0
 10
468.6331020215624
 20
151.7260078701542
 30
0.0
 10
469.041581975179
 20
150.894345777295
 30
0.0
  0
ENDSEC
  0
SECTION
  2
OBJECTS
  0
DICTIONARY
  5
C
330
0
100
AcDbDictionary
281
     1
  3
ACAD_COLOR
350
63
  3
ACAD_DETAILVIEWSTYLE
350
6A
  3
ACAD_GROUP
350
D
  3
ACAD_LAYOUT
350
62
  3
ACAD_MATERIAL
350
10
  3
ACAD_MLEADERSTYLE
350
66
  3
ACAD_MLINESTYLE
350
5F
  3
ACAD_PLOTSETTINGS
350
61
  3
ACAD_PLOTSTYLENAME
350
E
  3
ACAD_SCALELIST
350
42
  3
ACAD_SECTIONVIEWSTYLE
350
68
  3
ACAD_TABLESTYLE
350
64
  3
ACAD_VISUALSTYLE
350
29
  3
ACDB_RECOMPOSE_DATA
350
263
  3
AcDbVariableDictionary
350
25B
  0
DICTIONARY
  5
63
102
{ACAD_REACTORS
330
C
102
}
330
C
100
AcDbDictionary
281
     1
  0
DICTIONARY
  5
6A
102
{ACAD_REACTORS
330
C
102
}
330
C
100
AcDbDictionary
281
     1
  3
Imperial24
350
6B
  0
DICTIONARY
  5
D
102
{ACAD_REACTORS
330
C
102
}
330
C
100
AcDbDictionary
281
     1
  0
DICTIONARY
  5
62
102
{ACAD_REACTORS
330
C
102
}
330
C
100
AcDbDictionary
281
     1
  3
Layout1
350
6F
  3
Layout2
350
77
  3
Model
350
73
  0
DICTIONARY
  5
10
102
{ACAD_REACTORS
330
C
102
}
330
C
100
AcDbDictionary
281
     1
  3
ByBlock
350
19
  3
ByLayer
350
11
  3
Global
350
21
  0
DICTIONARY
  5
66
102
{ACAD_REACTORS
330
C
102
}
330
C
100
AcDbDictionary
281
     1
  3
Standard
350
67
  0
DICTIONARY
  5
5F
102
{ACAD_REACTORS
330
C
102
}
330
C
100
AcDbDictionary
281
     1
  3
Standard
350
60
  0
DICTIONARY
  5
61
102
{ACAD_REACTORS
330
C
102
}
330
C
100
AcDbDictionary
281
     1
  0
ACDBDICTIONARYWDFLT
  5
E
102
{ACAD_REACTORS
330
C
102
}
330
C
100
AcDbDictionary
281
     1
  3
Normal
350
F
100
AcDbDictionaryWithDefault
340
F
  0
DICTIONARY
  5
42
102
{ACAD_REACTORS
330
C
102
}
330
C
100
AcDbDictionary
281
     1
  3
A0
350
43
  3
A1
350
44
  3
A2
350
45
  3
A3
350
46
  3
A4
350
47
  3
A5
350
48
  3
A6
350
49
  3
A7
350
4A
  3
A8
350
4B
  3
A9
350
4C
  3
B0
350
4D
  3
B1
350
4E
  3
B2
350
4F
  3
B3
350
50
  3
B4
350
51
  3
B5
350
52
  3
B6
350
53
  0
DICTIONARY
  5
68
102
{ACAD_REACTORS
330
C
102
}
330
C
100
AcDbDictionary
281
     1
  3
Imperial24
350
69
  0
DICTIONARY
  5
64
102
{ACAD_REACTORS
330
C
102
}
330
C
100
AcDbDictionary
281
     1
  3
Standard
350
65
  0
DICTIONARY
  5
29
102
{ACAD_REACTORS
330
C
102
}
330
C
100
AcDbDictionary
281
     1
  3
2dWireframe
350
2F
  3
Basic
350
2E
  3
Brighten
350
35
  3
ColorChange
350
39
  3
Conceptual
350
32
  3
Dim
350
34
  3
EdgeColorOff
350
41
  3
Facepattern
350
38
  3
Flat
350
2A
  3
FlatWithEdges
350
2B
  3
Gouraud
350
2C
  3
GouraudWithEdges
350
2D
  3
Hidden
350
31
  3
JitterOff
350
3F
  3
Linepattern
350
37
  3
OverhangOff
350
40
  3
Realistic
350
33
  3
Shaded
350
3E
  3
Shaded with edges
350
3D
  3
Shades of Gray
350
3A
  3
Sketchy
350
3B
  3
Thicken
350
36
  3
Wireframe
350
30
  3
X-Ray
350
3C
  0
XRECORD
  5
263
102
{ACAD_REACTORS
330
C
102
}
330
C
100
AcDbXrecord
280
     1
 90
        1
330
65
  0
DICTIONARY
  5
25B
102
{ACAD_REACTORS
330
C
102
}
330
C
100
AcDbDictionary
281
     1
  3
CANNOSCALE
350
260
  3
CMLEADERSTYLE
350
25D
  3
CTABLESTYLE
350
25C
  3
CVIEWDETAILSTYLE
350
25E
  3
CVIEWSECTIONSTYLE
350
25F
  0
ACDBDETAILVIEWSTYLE
  5
6B
102
{ACAD_REACTORS
330
6A
102
}
330
6A
100
AcDbModelDocViewStyle
 70
     0
  3
Imperial24
290
     1
300
Imperial24
 90
        0
100
AcDbDetailViewStyle
 70
     0
 71
     0
 90
        3
 71
     1
340
55
 62
   256
 40
0.24
340
0
 62
   256
 40
0.24
300

 40
0.36
280
     3
 71
     2
340
5D
 90
       25
 62
   256
 71
     3
340
55
 62
   256
 40
0.24
 90
        1
 40
0.75
 90
        1
300
%<\AcVar ViewType \f "%tc1">% %<\AcVar ViewDetailId>%\PSCALE %<\AcVar ViewScale \f "%sn">%
 71
     4
340
5D
 90
       25
 62
   256
340
5D
 90
       25
 62
   256
280
     0
  0
LAYOUT
  5
6F
102
{ACAD_REACTORS
330
62
102
}
330
62
100
AcDbPlotSettings
  1

  2

  4

  6

 40
0.0
 41
0.0
 42
0.0
 43
0.0
 44
0.0
 45
0.0
 46
0.0
 47
0.0
 48
0.0
 49
0.0
140
0.0
141
0.0
142
1.0
143
1.0
 70
   688
 72
     0
 73
     0
 74
     5
  7

 75
    16
147
1.0
 76
     0
 77
     2
 78
   300
148
0.0
149
0.0
100
AcDbLayout
  1
Layout1
 70
     1
 71
     1
 10
0.0
 20
0.0
 11
12.0
 21
9.0
 12
0.0
 22
0.0
 32
0.0
 14
0.0
 24
0.0
 34
0.0
 15
0.0
 25
0.0
 35
0.0
146
0.0
 13
0.0
 23
0.0
 33
0.0
 16
1.0
 26
0.0
 36
0.0
 17
0.0
 27
1.0
 37
0.0
 76
     0
330
6C
  0
LAYOUT
  5
77
102
{ACAD_REACTORS
330
62
102
}
330
62
100
AcDbPlotSettings
  1

  2

  4

  6

 40
0.0
 41
0.0
 42
0.0
 43
0.0
 44
0.0
 45
0.0
 46
0.0
 47
0.0
 48
0.0
 49
0.0
140
0.0
141
0.0
142
1.0
143
1.0
 70
   688
 72
     0
 73
     0
 74
     5
  7

 75
    16
147
1.0
 76
     0
 77
     2
 78
   300
148
0.0
149
0.0
100
AcDbLayout
  1
Layout2
 70
     1
 71
     2
 10
0.0
 20
0.0
 11
12.0
 21
9.0
 12
0.0
 22
0.0
 32
0.0
 14
0.0
 24
0.0
 34
0.0
 15
0.0
 25
0.0
 35
0.0
146
0.0
 13
0.0
 23
0.0
 33
0.0
 16
1.0
 26
0.0
 36
0.0
 17
0.0
 27
1.0
 37
0.0
 76
     0
330
74
  0
LAYOUT
  5
73
102
{ACAD_REACTORS
330
62
102
}
330
62
100
AcDbPlotSettings
  1

  2

  4

  6

 40
0.0
 41
0.0
 42
0.0
 43
0.0
 44
0.0
 45
0.0
 46
0.0
 47
0.0
 48
0.0
 49
0.0
140
0.0
141
0.0
142
1.0
143
1.0
 70
  1712
 72
     0
 73
     0
 74
     0
  7

 75
     0
147
1.0
 76
     0
 77
     2
 78
   300
148
0.0
149
0.0
100
AcDbLayout
  1
Model
 70
     1
 71
     0
 10
0.0
 20
0.0
 11
12.0
 21
9.0
 12
0.0
 22
0.0
 32
0.0
 14
0.0
 24
0.0
 34
0.0
 15
0.0
 25
0.0
 35
0.0
146
0.0
 13
0.0
 23
0.0
 33
0.0
 16
1.0
 26
0.0
 36
0.0
 17
0.0
 27
1.0
 37
0.0
 76
     0
330
70
  0
MATERIAL
  5
19
102
{ACAD_XDICTIONARY
360
1A
102
}
102
{ACAD_REACTORS
330
10
102
}
330
10
100
AcDbMaterial
  1
ByBlock
 72
     0
 43
0.0208333333333333
 43
0.0
 43
0.0
 43
0.0
 43
0.0
 43
0.0208333333333333
 43
0.0
 43
0.0
 43
0.0
 43
0.0
 43
1.0
 43
0.0
 43
0.0
 43
0.0
 43
0.0
 43
1.0
 77
     0
 47
0.0208333333333333
 47
0.0
 47
0.0
 47
0.0
 47
0.0
 47
0.0208333333333333
 47
0.0
 47
0.0
 47
0.0
 47
0.0
 47
1.0
 47
0.0
 47
0.0
 47
0.0
 47
0.0
 47
1.0
171
     0
 49
0.0208333333333333
 49
0.0
 49
0.0
 49
0.0
 49
0.0
 49
0.0208333333333333
 49
0.0
 49
0.0
 49
0.0
 49
0.0
 49
1.0
 49
0.0
 49
0.0
 49
0.0
 49
0.0
 49
1.0
175
     0
142
0.0208333333333333
142
0.0
142
0.0
142
0.0
142
0.0
142
0.0208333333333333
142
0.0
142
0.0
142
0.0
142
0.0
142
1.0
142
0.0
142
0.0
142
0.0
142
0.0
142
1.0
179
     0
144
0.0208333333333333
144
0.0
144
0.0
144
0.0
144
0.0
144
0.0208333333333333
144
0.0
144
0.0
144
0.0
144
0.0
144
1.0
144
0.0
144
0.0
144
0.0
144
0.0
144
1.0
147
0.0208333333333333
147
0.0
147
0.0
147
0.0
147
0.0
147
0.0208333333333333
147
0.0
147
0.0
147
0.0
147
0.0
147
1.0
147
0.0
147
0.0
147
0.0
147
0.0
147
1.0
  0
MATERIAL
  5
11
102
{ACAD_XDICTIONARY
360
12
102
}
102
{ACAD_REACTORS
330
10
102
}
330
10
100
AcDbMaterial
  1
ByLayer
 72
     0
 43
0.0208333333333333
 43
0.0
 43
0.0
 43
0.0
 43
0.0
 43
0.0208333333333333
 43
0.0
 43
0.0
 43
0.0
 43
0.0
 43
1.0
 43
0.0
 43
0.0
 43
0.0
 43
0.0
 43
1.0
 77
     0
 47
0.0208333333333333
 47
0.0
 47
0.0
 47
0.0
 47
0.0
 47
0.0208333333333333
 47
0.0
 47
0.0
 47
0.0
 47
0.0
 47
1.0
 47
0.0
 47
0.0
 47
0.0
 47
0.0
 47
1.0
171
     0
 49
0.0208333333333333
 49
0.0
 49
0.0
 49
0.0
 49
0.0
 49
0.0208333333333333
 49
0.0
 49
0.0
 49
0.0
 49
0.0
 49
1.0
 49
0.0
 49
0.0
 49
0.0
 49
0.0
 49
1.0
175
     0
142
0.0208333333333333
142
0.0
142
0.0
142
0.0
142
0.0
142
0.0208333333333333
142
0.0
142
0.0
142
0.0
142
0.0
142
1.0
142
0.0
142
0.0
142
0.0
142
0.0
142
1.0
179
     0
144
0.0208333333333333
144
0.0
144
0.0
144
0.0
144
0.0
144
0.0208333333333333
144
0.0
144
0.0
144
0.0
144
0.0
144
1.0
144
0.0
144
0.0
144
0.0
144
0.0
144
1.0
147
0.0208333333333333
147
0.0
147
0.0
147
0.0
147
0.0
147
0.0208333333333333
147
0.0
147
0.0
147
0.0
147
0.0
147
1.0
147
0.0
147
0.0
147
0.0
147
0.0
147
1.0
  0
MATERIAL
  5
21
102
{ACAD_XDICTIONARY
360
22
102
}
102
{ACAD_REACTORS
330
10
102
}
330
10
100
AcDbMaterial
  1
Global
 72
     0
 43
0.0208333333333333
 43
0.0
 43
0.0
 43
0.0
 43
0.0
 43
0.0208333333333333
 43
0.0
 43
0.0
 43
0.0
 43
0.0
 43
1.0
 43
0.0
 43
0.0
 43
0.0
 43
0.0
 43
1.0
 77
     0
 47
0.0208333333333333
 47
0.0
 47
0.0
 47
0.0
 47
0.0
 47
0.0208333333333333
 47
0.0
 47
0.0
 47
0.0
 47
0.0
 47
1.0
 47
0.0
 47
0.0
 47
0.0
 47
0.0
 47
1.0
171
     0
 49
0.0208333333333333
 49
0.0
 49
0.0
 49
0.0
 49
0.0
 49
0.0208333333333333
 49
0.0
 49
0.0
 49
0.0
 49
0.0
 49
1.0
 49
0.0
 49
0.0
 49
0.0
 49
0.0
 49
1.0
175
     0
142
0.0208333333333333
142
0.0
142
0.0
142
0.0
142
0.0
142
0.0208333333333333
142
0.0
142
0.0
142
0.0
142
0.0
142
1.0
142
0.0
142
0.0
142
0.0
142
0.0
142
1.0
179
     0
144
0.0208333333333333
144
0.0
144
0.0
144
0.0
144
0.0
144
0.0208333333333333
144
0.0
144
0.0
144
0.0
144
0.0
144
1.0
144
0.0
144
0.0
144
0.0
144
0.0
144
1.0
147
0.0208333333333333
147
0.0
147
0.0
147
0.0
147
0.0
147
0.0208333333333333
147
0.0
147
0.0
147
0.0
147
0.0
147
1.0
147
0.0
147
0.0
147
0.0
147
0.0
147
1.0
  0
MLEADERSTYLE
  5
67
102
{ACAD_REACTORS
330
66
102
}
330
66
100
AcDbMLeaderStyle
179
     2
170
     2
171
     1
172
     0
 90
        2
 40
0.0
 41
0.0
173
     1
 91
-1056964608
340
5B
 92
       -2
290
     1
 42
0.09
291
     1
 43
0.36
  3
Standard
 44
0.18
300

342
55
174
     1
178
     6
175
     1
176
     0
 93
-1056964608
 45
0.18
292
     0
297
     0
 46
0.18
 94
-1056964608
 47
1.0
 49
1.0
140
1.0
293
     1
141
0.0
294
     1
177
     0
142
1.0
295
     1
296
     0
143
0.125
271
     0
272
     9
273
     9
298
     1
  0
MLINESTYLE
  5
60
102
{ACAD_REACTORS
330
5F
102
}
330
5F
100
AcDbMlineStyle
  2
STANDARD
 70
     0
  3

 62
   256
 51
90.0
 52
90.0
 71
     2
 49
0.5
 62
   256
  6
BYLAYER
 49
-0.5
 62
   256
  6
BYLAYER
  0
ACDBPLACEHOLDER
  5
F
102
{ACAD_REACTORS
330
E
102
}
330
E
  0
SCALE
  5
43
102
{ACAD_REACTORS
330
42
102
}
330
42
100
AcDbScale
 70
     0
300
1:1
140
1.0
141
1.0
290
     1
  0
SCALE
  5
44
102
{ACAD_REACTORS
330
42
102
}
330
42
100
AcDbScale
 70
     0
300
1/128" = 1'-0"
140
0.0078125
141
12.0
290
     0
  0
SCALE
  5
45
102
{ACAD_REACTORS
330
42
102
}
330
42
100
AcDbScale
 70
     0
300
1/64" = 1'-0"
140
0.015625
141
12.0
290
     0
  0
SCALE
  5
46
102
{ACAD_REACTORS
330
42
102
}
330
42
100
AcDbScale
 70
     0
300
1/32" = 1'-0"
140
0.03125
141
12.0
290
     0
  0
SCALE
  5
47
102
{ACAD_REACTORS
330
42
102
}
330
42
100
AcDbScale
 70
     0
300
1/16" = 1'-0"
140
0.0625
141
12.0
290
     0
  0
SCALE
  5
48
102
{ACAD_REACTORS
330
42
102
}
330
42
100
AcDbScale
 70
     0
300
3/32" = 1'-0"
140
0.09375
141
12.0
290
     0
  0
SCALE
  5
49
102
{ACAD_REACTORS
330
42
102
}
330
42
100
AcDbScale
 70
     0
300
1/8" = 1'-0"
140
0.125
141
12.0
290
     0
  0
SCALE
  5
4A
102
{ACAD_REACTORS
330
42
102
}
330
42
100
AcDbScale
 70
     0
300
3/16" = 1'-0"
140
0.1875
141
12.0
290
     0
  0
SCALE
  5
4B
102
{ACAD_REACTORS
330
42
102
}
330
42
100
AcDbScale
 70
     0
300
1/4" = 1'-0"
140
0.25
141
12.0
290
     0
  0
SCALE
  5
4C
102
{ACAD_REACTORS
330
42
102
}
330
42
100
AcDbScale
 70
     0
300
3/8" = 1'-0"
140
0.375
141
12.0
290
     0
  0
SCALE
  5
4D
102
{ACAD_REACTORS
330
42
102
}
330
42
100
AcDbScale
 70
     0
300
1/2" = 1'-0"
140
0.5
141
12.0
290
     0
  0
SCALE
  5
4E
102
{ACAD_REACTORS
330
42
102
}
330
42
100
AcDbScale
 70
     0
300
3/4" = 1'-0"
140
0.75
141
12.0
290
     0
  0
SCALE
  5
4F
102
{ACAD_REACTORS
330
42
102
}
330
42
100
AcDbScale
 70
     0
300
1" = 1'-0"
140
1.0
141
12.0
290
     0
  0
SCALE
  5
50
102
{ACAD_REACTORS
330
42
102
}
330
42
100
AcDbScale
 70
     0
300
1-1/2" = 1'-0"
140
1.5
141
12.0
290
     0
  0
SCALE
  5
51
102
{ACAD_REACTORS
330
42
102
}
330
42
100
AcDbScale
 70
     0
300
3" = 1'-0"
140
3.0
141
12.0
290
     0
  0
SCALE
  5
52
102
{ACAD_REACTORS
330
42
102
}
330
42
100
AcDbScale
 70
     0
300
6" = 1'-0"
140
6.0
141
12.0
290
     0
  0
SCALE
  5
53
102
{ACAD_REACTORS
330
42
102
}
330
42
100
AcDbScale
 70
     0
300
1'-0" = 1'-0"
140
12.0
141
12.0
290
     0
  0
ACDBSECTIONVIEWSTYLE
  5
69
102
{ACAD_REACTORS
330
68
102
}
330
68
100
AcDbModelDocViewStyle
 70
     0
  3
Imperial24
290
     1
300
Imperial24
 90
        0
100
AcDbSectionViewStyle
 70
     0
 71
     0
 90
       78
 71
     1
340
55
 62
   256
 40
0.24
340
0
340
0
 62
   256
 40
0.24
300
I, O, Q, S, X, Z
 40
0.48
 90
        3
 40
0.18
 90
        1
 71
     2
340
5D
 90
       25
 62
   256
340
5D
 90
       50
 62
   256
 40
0.24
 40
0.0
 40
0.24
 71
     3
340
55
 62
   256
 40
0.24
 90
        1
 40
0.75
 90
        1
300
%<\AcVar ViewType \f "%tc1">% %<\AcVar ViewSectionStartId>%-%<\AcVar ViewSectionEndId>%\PSCALE %<\AcVar ViewScale \f "%sn">%
 71
     4
 62
   256
 62
   257
300
ANSI31
 40
1.0
 90
        0
290
     0
290
     0
 90
        6
 40
0.0
 40
1.570796326794896
 40
0.2617993877991494
 40
1.308996938995747
 40
-0.2617993877991494
 40
1.832595714594046
  0
TABLESTYLE
  5
65
102
{ACAD_XDICTIONARY
360
261
102
}
102
{ACAD_REACTORS
330
64
102
}
330
64
100
AcDbTableStyle
280
     0
  3
Standard
 70
     0
 71
     0
 40
0.06
 41
0.06
280
     0
281
     0
  7
Standard
140
0.18
170
     2
 62
     0
 63
     7
283
     0
 90
      512
 91
        0
  1

274
    -2
284
     1
 64
     0
275
    -2
285
     1
 65
     0
276
    -2
286
     1
 66
     0
277
    -2
287
     1
 67
     0
278
    -2
288
     1
 68
     0
279
    -2
289
     1
 69
     0
  7
Standard
140
0.25
170
     5
 62
     0
 63
     7
283
     0
 90
      512
 91
        0
  1

274
    -2
284
     1
 64
     0
275
    -2
285
     1
 65
     0
276
    -2
286
     1
 66
     0
277
    -2
287
     1
 67
     0
278
    -2
288
     1
 68
     0
279
    -2
289
     1
 69
     0
  7
Standard
140
0.18
170
     5
 62
     0
 63
     7
283
     0
 90
      512
 91
        0
  1

274
    -2
284
     1
 64
     0
275
    -2
285
     1
 65
     0
276
    -2
286
     1
 66
     0
277
    -2
287
     1
 67
     0
278
    -2
288
     1
 68
     0
279
    -2
289
     1
 69
     0
  0
VISUALSTYLE
  5
2F
102
{ACAD_REACTORS
330
29
102
}
330
29
100
AcDbVisualStyle
  2
2dWireframe
 70
     4
177
     3
291
     0
 70
    58
 90
        0
176
     1
 90
        2
176
     1
 90
        0
176
     1
 90
        0
176
     1
 40
0.6
176
     1
 40
30.0
176
     1
 62
     7
420
 16777215
176
     1
 90
        1
176
     1
 90
        4
176
     1
 62
     7
176
     1
 62
   257
176
     1
 90
        1
176
     1
 90
        1
176
     1
 40
1.0
176
     1
 90
        0
176
     1
 62
   257
176
     1
 40
1.0
176
     1
 90
        1
176
     1
 90
        6
176
     1
 90
        2
176
     1
 62
     7
176
     1
 90
        5
176
     1
 90
        0
176
     1
 90
        0
176
     1
290
     0
176
     1
 90
        1
176
     1
 40
0.0
176
     1
 90
        0
176
     1
290
     1
176
     1
290
     1
176
     1
290
     0
176
     1
290
     0
176
     1
290
     0
176
     1
290
     0
176
     1
290
     0
176
     1
290
     0
176
     1
290
     0
176
     1
 90
       50
176
     1
 40
0.0
176
     1
 40
1.0
176
     1
 90
        0
176
     1
 62
    18
420
        0
176
     1
 90
       50
176
     1
 90
        3
176
     1
 62
     5
420
      255
176
     1
290
     0
176
     1
 90
       50
176
     1
 90
       50
176
     1
 90
       50
176
     1
290
     0
176
     1
 90
       50
176
     1
 62
   256
176
     0
 40
1.0
176
     0
 90
        2
176
     1
  1
strokes_ogs.tif
176
     1
290
     0
176
     1
 40
1.0
176
     1
 40
1.0
176
     1
  0
VISUALSTYLE
  5
2E
102
{ACAD_REACTORS
330
29
102
}
330
29
100
AcDbVisualStyle
  2
Basic
 70
     7
177
     3
291
     1
 70
    58
 90
        1
176
     1
 90
        0
176
     1
 90
        1
176
     1
 90
        0
176
     1
 40
0.6
176
     1
 40
30.0
176
     1
 62
     7
420
 16777215
176
     1
 90
        0
176
     1
 90
        4
176
     1
 62
     7
176
     1
 62
   257
176
     1
 90
        1
176
     1
 90
        1
176
     1
 40
1.0
176
     1
 90
        8
176
     1
 62
     7
176
     1
 40
1.0
176
     1
 90
        1
176
     1
 90
        6
176
     1
 90
        2
176
     1
 62
     7
176
     1
 90
        5
176
     1
 90
        0
176
     1
 90
        0
176
     1
290
     0
176
     1
 90
        1
176
     1
 40
0.0
176
     1
 90
        0
176
     1
290
     0
176
     1
290
     1
176
     1
290
     1
176
     1
290
     0
176
     1
290
     0
176
     1
290
     0
176
     1
290
     0
176
     1
290
     0
176
     1
290
     0
176
     1
 90
       50
176
     1
 40
0.0
176
     1
 40
1.0
176
     1
 90
        0
176
     1
 62
    18
420
        0
176
     1
 90
       50
176
     1
 90
        3
176
     1
 62
     5
420
      255
176
     1
290
     0
176
     1
 90
       50
176
     1
 90
       50
176
     1
 90
       50
176
     1
290
     0
176
     1
 90
       50
176
     1
 62
   256
176
     0
 40
1.0
176
     0
 90
        2
176
     1
  1
strokes_ogs.tif
176
     1
290
     0
176
     1
 40
1.0
176
     1
 40
1.0
176
     1
  0
VISUALSTYLE
  5
35
102
{ACAD_REACTORS
330
29
102
}
330
29
100
AcDbVisualStyle
  2
Brighten
 70
    12
177
     3
291
     1
 70
    58
 90
        2
176
     1
 90
        2
176
     1
 90
        0
176
     1
 90
        0
176
     1
 40
0.6
176
     1
 40
30.0
176
     1
 62
     7
420
 16777215
176
     1
 90
        1
176
     1
 90
        4
176
     1
 62
     7
176
     1
 62
   257
176
     1
 90
        1
176
     1
 90
        1
176
     1
 40
1.0
176
     1
 90
        8
176
     1
 62
     7
176
     1
 40
1.0
176
     1
 90
        1
176
     1
 90
        6
176
     1
 90
        2
176
     1
 62
     7
176
     1
 90
        5
176
     1
 90
        0
176
     1
 90
        0
176
     1
290
     0
176
     1
 90
        1
176
     1
 40
50.0
176
     1
 90
        0
176
     1
290
     0
176
     1
290
     1
176
     1
290
     1
176
     1
290
     0
176
     1
290
     0
176
     1
290
     0
176
     1
290
     0
176
     1
290
     0
176
     1
290
     0
176
     1
 90
       50
176
     1
 40
0.0
176
     1
 40
1.0
176
     1
 90
        0
176
     1
 62
    18
420
        0
176
     1
 90
       50
176
     1
 90
        3
176
     1
 62
     5
420
      255
176
     1
290
     0
176
     1
 90
       50
176
     1
 90
       50
176
     1
 90
       50
176
     1
290
     0
176
     1
 90
       50
176
     1
 62
   256
176
     0
 40
1.0
176
     0
 90
        2
176
     1
  1
strokes_ogs.tif
176
     1
290
     0
176
     1
 40
1.0
176
     1
 40
1.0
176
     1
  0
VISUALSTYLE
  5
39
102
{ACAD_REACTORS
330
29
102
}
330
29
100
AcDbVisualStyle
  2
ColorChange
 70
    16
177
     3
291
     1
 70
    58
 90
        2
176
     1
 90
        2
176
     1
 90
        3
176
     1
 90
        0
176
     1
 40
0.6
176
     1
 40
30.0
176
     1
 62
     8
420
  8421504
176
     1
 90
        1
176
     1
 90
        4
176
     1
 62
     7
176
     1
 62
   257
176
     1
 90
        1
176
     1
 90
        1
176
     1
 40
1.0
176
     1
 90
        8
176
     1
 62
     8
420
  8421504
176
     1
 40
1.0
176
     1
 90
        1
176
     1
 90
        6
176
     1
 90
        2
176
     1
 62
     7
176
     1
 90
        5
176
     1
 90
        0
176
     1
 90
        0
176
     1
290
     0
176
     1
 90
        1
176
     1
 40
0.0
176
     1
 90
        0
176
     1
290
     0
176
     1
290
     1
176
     1
290
     1
176
     1
290
     0
176
     1
290
     0
176
     1
290
     0
176
     1
290
     0
176
     1
290
     0
176
     1
290
     0
176
     1
 90
       50
176
     1
 40
0.0
176
     1
 40
1.0
176
     1
 90
        0
176
     1
 62
    18
420
        0
176
     1
 90
       50
176
     1
 90
        3
176
     1
 62
     5
420
      255
176
     1
290
     0
176
     1
 90
       50
176
     1
 90
       50
176
     1
 90
       50
176
     1
290
     0
176
     1
 90
       50
176
     1
 62
   256
176
     0
 40
1.0
176
     0
 90
        2
176
     1
  1
strokes_ogs.tif
176
     1
290
     0
176
     1
 40
1.0
176
     1
 40
1.0
176
     1
  0
VISUALSTYLE
  5
32
102
{ACAD_REACTORS
330
29
102
}
330
29
100
AcDbVisualStyle
  2
Conceptual
 70
     9
177
     3
291
     0
 70
    58
 90
        3
176
     1
 90
        2
176
     1
 90
        0
176
     1
 90
        0
176
     1
 40
0.6
176
     1
 40
30.0
176
     1
 62
     7
420
 16777215
176
     1
 90
        2
176
     1
 90
        2
176
     1
 62
     7
176
     1
 62
   257
176
     1
 90
        1
176
     1
 90
        1
176
     1
 40
179.0
176
     1
 90
        8
176
     1
 62
     7
176
     1
 40
1.0
176
     1
 90
        1
176
     1
 90
        6
176
     1
 90
        2
176
     1
 62
     7
176
     1
 90
        3
176
     1
 90
        0
176
     1
 90
        0
176
     1
290
     0
176
     1
 90
        1
176
     1
 40
0.0
176
     1
 90
        0
176
     1
290
     0
176
     1
290
     1
176
     1
290
     1
176
     1
290
     0
176
     1
290
     0
176
     1
290
     0
176
     1
290
     0
176
     1
290
     0
176
     1
290
     0
176
     1
 90
       50
176
     1
 40
0.0
176
     1
 40
1.0
176
     1
 90
        0
176
     1
 62
    18
420
        0
176
     1
 90
       50
176
     1
 90
        3
176
     1
 62
     5
420
      255
176
     1
290
     0
176
     1
 90
       50
176
     1
 90
       50
176
     1
 90
       50
176
     1
290
     0
176
     1
 90
       50
176
     1
 62
   256
176
     0
 40
1.0
176
     0
 90
        2
176
     1
  1
strokes_ogs.tif
176
     1
290
     0
176
     1
 40
1.0
176
     1
 40
1.0
176
     1
  0
VISUALSTYLE
  5
34
102
{ACAD_REACTORS
330
29
102
}
330
29
100
AcDbVisualStyle
  2
Dim
 70
    11
177
     3
291
     1
 70
    58
 90
        2
176
     1
 90
        2
176
     1
 90
        0
176
     1
 90
        0
176
     1
 40
0.6
176
     1
 40
30.0
176
     1
 62
     7
420
 16777215
176
     1
 90
        1
176
     1
 90
        4
176
     1
 62
     7
176
     1
 62
   257
176
     1
 90
        1
176
     1
 90
        1
176
     1
 40
1.0
176
     1
 90
        8
176
     1
 62
     7
176
     1
 40
1.0
176
     1
 90
        1
176
     1
 90
        6
176
     1
 90
        2
176
     1
 62
     7
176
     1
 90
        5
176
     1
 90
        0
176
     1
 90
        0
176
     1
290
     0
176
     1
 90
        1
176
     1
 40
-50.0
176
     1
 90
        0
176
     1
290
     0
176
     1
290
     1
176
     1
290
     1
176
     1
290
     0
176
     1
290
     0
176
     1
290
     0
176
     1
290
     0
176
     1
290
     0
176
     1
290
     0
176
     1
 90
       50
176
     1
 40
0.0
176
     1
 40
1.0
176
     1
 90
        0
176
     1
 62
    18
420
        0
176
     1
 90
       50
176
     1
 90
        3
176
     1
 62
     5
420
      255
176
     1
290
     0
176
     1
 90
       50
176
     1
 90
       50
176
     1
 90
       50
176
     1
290
     0
176
     1
 90
       50
176
     1
 62
   256
176
     0
 40
1.0
176
     0
 90
        2
176
     1
  1
strokes_ogs.tif
176
     1
290
     0
176
     1
 40
1.0
176
     1
 40
1.0
176
     1
  0
VISUALSTYLE
  5
41
102
{ACAD_REACTORS
330
29
102
}
330
29
100
AcDbVisualStyle
  2
EdgeColorOff
 70
    22
177
     3
291
     1
 70
    58
 90
        2
176
     0
 90
        2
176
     0
 90
        0
176
     0
 90
        0
176
     0
 40
0.6
176
     0
 40
30.0
176
     0
 62
     7
420
 16777215
176
     0
 90
        1
176
     0
 90
        4
176
     0
 62
     7
176
     0
 62
   257
176
     0
 90
        1
176
     0
 90
        1
176
     0
 40
1.0
176
     0
 90
        8
176
     2
 62
     7
176
     0
 40
1.0
176
     0
 90
        1
176
     0
 90
        6
176
     0
 90
        2
176
     0
 62
     7
176
     0
 90
        5
176
     0
 90
        0
176
     0
 90
        0
176
     0
290
     0
176
     0
 90
        1
176
     0
 40
0.0
176
     0
 90
        0
176
     0
290
     0
176
     0
290
     1
176
     0
290
     1
176
     0
290
     0
176
     0
290
     0
176
     0
290
     0
176
     0
290
     0
176
     0
290
     0
176
     0
290
     0
176
     0
 90
       50
176
     0
 40
0.0
176
     0
 40
1.0
176
     0
 90
        0
176
     0
 62
    18
420
        0
176
     0
 90
       50
176
     0
 90
        3
176
     0
 62
     5
420
      255
176
     0
290
     0
176
     0
 90
       50
176
     0
 90
       50
176
     0
 90
       50
176
     0
290
     0
176
     0
 90
       50
176
     0
 62
   256
176
     0
 40
1.0
176
     0
 90
        2
176
     0
  1
strokes_ogs.tif
176
     0
290
     0
176
     0
 40
1.0
176
     0
 40
1.0
176
     0
  0
VISUALSTYLE
  5
38
102
{ACAD_REACTORS
330
29
102
}
330
29
100
AcDbVisualStyle
  2
Facepattern
 70
    15
177
     3
291
     1
 70
    58
 90
        2
176
     1
 90
        2
176
     1
 90
        0
176
     1
 90
        0
176
     1
 40
0.6
176
     1
 40
30.0
176
     1
 62
     7
420
 16777215
176
     1
 90
        1
176
     1
 90
        4
176
     1
 62
     7
176
     1
 62
   257
176
     1
 90
        1
176
     1
 90
        1
176
     1
 40
1.0
176
     1
 90
        8
176
     1
 62
     7
176
     1
 40
1.0
176
     1
 90
        1
176
     1
 90
        6
176
     1
 90
        2
176
     1
 62
     7
176
     1
 90
        5
176
     1
 90
        0
176
     1
 90
        0
176
     1
290
     0
176
     1
 90
        1
176
     1
 40
0.0
176
     1
 90
        0
176
     1
290
     0
176
     1
290
     1
176
     1
290
     1
176
     1
290
     0
176
     1
290
     0
176
     1
290
     0
176
     1
290
     0
176
     1
290
     0
176
     1
290
     0
176
     1
 90
       50
176
     1
 40
0.0
176
     1
 40
1.0
176
     1
 90
        0
176
     1
 62
    18
420
        0
176
     1
 90
       50
176
     1
 90
        3
176
     1
 62
     5
420
      255
176
     1
290
     0
176
     1
 90
       50
176
     1
 90
       50
176
     1
 90
       50
176
     1
290
     0
176
     1
 90
       50
176
     1
 62
   256
176
     0
 40
1.0
176
     0
 90
        2
176
     1
  1
strokes_ogs.tif
176
     1
290
     0
176
     1
 40
1.0
176
     1
 40
1.0
176
     1
  0
VISUALSTYLE
  5
2A
102
{ACAD_REACTORS
330
29
102
}
330
29
100
AcDbVisualStyle
  2
Flat
 70
     0
177
     3
291
     1
 70
    58
 90
        2
176
     1
 90
        1
176
     1
 90
        1
176
     1
 90
        2
176
     1
 40
0.6
176
     1
 40
30.0
176
     1
 62
     7
420
 16777215
176
     1
 90
        0
176
     1
 90
        0
176
     1
 62
     7
176
     1
 62
   257
176
     1
 90
        1
176
     1
 90
        1
176
     1
 40
1.0
176
     1
 90
        8
176
     1
 62
     7
176
     1
 40
1.0
176
     1
 90
        1
176
     1
 90
        6
176
     1
 90
        2
176
     1
 62
     7
176
     1
 90
        5
176
     1
 90
        0
176
     1
 90
        0
176
     1
290
     0
176
     1
 90
       13
176
     1
 40
0.0
176
     1
 90
        0
176
     1
290
     0
176
     1
290
     1
176
     1
290
     1
176
     1
290
     0
176
     1
290
     0
176
     1
290
     0
176
     1
290
     0
176
     1
290
     0
176
     1
290
     0
176
     1
 90
       50
176
     1
 40
0.0
176
     1
 40
1.0
176
     1
 90
        0
176
     1
 62
    18
420
        0
176
     1
 90
       50
176
     1
 90
        3
176
     1
 62
     5
420
      255
176
     1
290
     0
176
     1
 90
       50
176
     1
 90
       50
176
     1
 90
       50
176
     1
290
     0
176
     1
 90
       50
176
     1
 62
   256
176
     0
 40
1.0
176
     0
 90
        2
176
     1
  1
strokes_ogs.tif
176
     1
290
     0
176
     1
 40
1.0
176
     1
 40
1.0
176
     1
  0
VISUALSTYLE
  5
2B
102
{ACAD_REACTORS
330
29
102
}
330
29
100
AcDbVisualStyle
  2
FlatWithEdges
 70
     1
177
     3
291
     1
 70
    58
 90
        2
176
     1
 90
        1
176
     1
 90
        1
176
     1
 90
        2
176
     1
 40
0.6
176
     1
 40
30.0
176
     1
 62
     7
420
 16777215
176
     1
 90
        1
176
     1
 90
        0
176
     1
 62
     7
176
     1
 62
   257
176
     1
 90
        1
176
     1
 90
        1
176
     1
 40
1.0
176
     1
 90
        0
176
     1
 62
   257
176
     1
 40
1.0
176
     1
 90
        1
176
     1
 90
        6
176
     1
 90
        2
176
     1
 62
     7
176
     1
 90
        5
176
     1
 90
        0
176
     1
 90
        0
176
     1
290
     0
176
     1
 90
       13
176
     1
 40
0.0
176
     1
 90
        0
176
     1
290
     0
176
     1
290
     1
176
     1
290
     1
176
     1
290
     0
176
     1
290
     0
176
     1
290
     0
176
     1
290
     0
176
     1
290
     0
176
     1
290
     0
176
     1
 90
       50
176
     1
 40
0.0
176
     1
 40
1.0
176
     1
 90
        0
176
     1
 62
    18
420
        0
176
     1
 90
       50
176
     1
 90
        3
176
     1
 62
     5
420
      255
176
     1
290
     0
176
     1
 90
       50
176
     1
 90
       50
176
     1
 90
       50
176
     1
290
     0
176
     1
 90
       50
176
     1
 62
   256
176
     0
 40
1.0
176
     0
 90
        2
176
     1
  1
strokes_ogs.tif
176
     1
290
     0
176
     1
 40
1.0
176
     1
 40
1.0
176
     1
  0
VISUALSTYLE
  5
2C
102
{ACAD_REACTORS
330
29
102
}
330
29
100
AcDbVisualStyle
  2
Gouraud
 70
     2
177
     3
291
     1
 70
    58
 90
        2
176
     1
 90
        2
176
     1
 90
        1
176
     1
 90
        2
176
     1
 40
0.6
176
     1
 40
30.0
176
     1
 62
     7
420
 16777215
176
     1
 90
        0
176
     1
 90
        0
176
     1
 62
     7
176
     1
 62
   257
176
     1
 90
        1
176
     1
 90
        1
176
     1
 40
1.0
176
     1
 90
        0
176
     1
 62
     7
176
     1
 40
1.0
176
     1
 90
        1
176
     1
 90
        6
176
     1
 90
        2
176
     1
 62
     7
176
     1
 90
        5
176
     1
 90
        0
176
     1
 90
        0
176
     1
290
     0
176
     1
 90
       13
176
     1
 40
0.0
176
     1
 90
        0
176
     1
290
     0
176
     1
290
     1
176
     1
290
     1
176
     1
290
     0
176
     1
290
     0
176
     1
290
     0
176
     1
290
     0
176
     1
290
     0
176
     1
290
     0
176
     1
 90
       50
176
     1
 40
0.0
176
     1
 40
1.0
176
     1
 90
        0
176
     1
 62
    18
420
        0
176
     1
 90
       50
176
     1
 90
        3
176
     1
 62
     5
420
      255
176
     1
290
     0
176
     1
 90
       50
176
     1
 90
       50
176
     1
 90
       50
176
     1
290
     0
176
     1
 90
       50
176
     1
 62
   256
176
     0
 40
1.0
176
     0
 90
        2
176
     1
  1
strokes_ogs.tif
176
     1
290
     0
176
     1
 40
1.0
176
     1
 40
1.0
176
     1
  0
VISUALSTYLE
  5
2D
102
{ACAD_REACTORS
330
29
102
}
330
29
100
AcDbVisualStyle
  2
GouraudWithEdges
 70
     3
177
     3
291
     1
 70
    58
 90
        2
176
     1
 90
        2
176
     1
 90
        1
176
     1
 90
        2
176
     1
 40
0.6
176
     1
 40
30.0
176
     1
 62
     7
420
 16777215
176
     1
 90
        1
176
     1
 90
        0
176
     1
 62
     7
176
     1
 62
   257
176
     1
 90
        1
176
     1
 90
        1
176
     1
 40
1.0
176
     1
 90
        0
176
     1
 62
   257
176
     1
 40
1.0
176
     1
 90
        1
176
     1
 90
        6
176
     1
 90
        2
176
     1
 62
     7
176
     1
 90
        5
176
     1
 90
        0
176
     1
 90
        0
176
     1
290
     0
176
     1
 90
       13
176
     1
 40
0.0
176
     1
 90
        0
176
     1
290
     0
176
     1
290
     1
176
     1
290
     1
176
     1
290
     0
176
     1
290
     0
176
     1
290
     0
176
     1
290
     0
176
     1
290
     0
176
     1
290
     0
176
     1
 90
       50
176
     1
 40
0.0
176
     1
 40
1.0
176
     1
 90
        0
176
     1
 62
    18
420
        0
176
     1
 90
       50
176
     1
 90
        3
176
     1
 62
     5
420
      255
176
     1
290
     0
176
     1
 90
       50
176
     1
 90
       50
176
     1
 90
       50
176
     1
290
     0
176
     1
 90
       50
176
     1
 62
   256
176
     0
 40
1.0
176
     0
 90
        2
176
     1
  1
strokes_ogs.tif
176
     1
290
     0
176
     1
 40
1.0
176
     1
 40
1.0
176
     1
  0
VISUALSTYLE
  5
31
102
{ACAD_REACTORS
330
29
102
}
330
29
100
AcDbVisualStyle
  2
Hidden
 70
     6
177
     3
291
     0
 70
    58
 90
        1
176
     1
 90
        2
176
     1
 90
        2
176
     1
 90
        0
176
     1
 40
0.6
176
     1
 40
30.0
176
     1
 62
     7
420
 16777215
176
     1
 90
        2
176
     1
 90
        2
176
     1
 62
     7
176
     1
 62
   257
176
     1
 90
        2
176
     1
 90
        1
176
     1
 40
40.0
176
     1
 90
        0
176
     1
 62
   257
176
     1
 40
1.0
176
     1
 90
        1
176
     1
 90
        6
176
     1
 90
        2
176
     1
 62
     7
176
     1
 90
        3
176
     1
 90
        0
176
     1
 90
        0
176
     1
290
     0
176
     1
 90
        1
176
     1
 40
0.0
176
     1
 90
        0
176
     1
290
     0
176
     1
290
     1
176
     1
290
     1
176
     1
290
     0
176
     1
290
     0
176
     1
290
     0
176
     1
290
     0
176
     1
290
     0
176
     1
290
     0
176
     1
 90
       50
176
     1
 40
0.0
176
     1
 40
1.0
176
     1
 90
        0
176
     1
 62
    18
420
        0
176
     1
 90
       50
176
     1
 90
        3
176
     1
 62
     5
420
      255
176
     1
290
     0
176
     1
 90
       50
176
     1
 90
       50
176
     1
 90
       50
176
     1
290
     0
176
     1
 90
       50
176
     1
 62
   256
176
     0
 40
1.0
176
     0
 90
        2
176
     1
  1
strokes_ogs.tif
176
     1
290
     0
176
     1
 40
1.0
176
     1
 40
1.0
176
     1
  0
VISUALSTYLE
  5
3F
102
{ACAD_REACTORS
330
29
102
}
330
29
100
AcDbVisualStyle
  2
JitterOff
 70
    20
177
     3
291
     1
 70
    58
 90
        2
176
     0
 90
        2
176
     0
 90
        0
176
     0
 90
        0
176
     0
 40
0.6
176
     0
 40
30.0
176
     0
 62
     7
420
 16777215
176
     0
 90
        1
176
     0
 90
        4
176
     0
 62
     7
176
     0
 62
   257
176
     0
 90
        1
176
     0
 90
        1
176
     0
 40
1.0
176
     0
 90
       10
176
     2
 62
     7
176
     0
 40
1.0
176
     0
 90
        1
176
     0
 90
        6
176
     0
 90
        2
176
     0
 62
     7
176
     0
 90
        5
176
     0
 90
        0
176
     0
 90
        0
176
     0
290
     0
176
     0
 90
        1
176
     0
 40
0.0
176
     0
 90
        0
176
     0
290
     0
176
     0
290
     1
176
     0
290
     1
176
     0
290
     0
176
     0
290
     0
176
     0
290
     0
176
     0
290
     0
176
     0
290
     0
176
     0
290
     0
176
     0
 90
       50
176
     0
 40
0.0
176
     0
 40
1.0
176
     0
 90
        0
176
     0
 62
    18
420
        0
176
     0
 90
       50
176
     0
 90
        3
176
     0
 62
     5
420
      255
176
     0
290
     0
176
     0
 90
       50
176
     0
 90
       50
176
     0
 90
       50
176
     0
290
     0
176
     0
 90
       50
176
     0
 62
   256
176
     0
 40
1.0
176
     0
 90
        2
176
     0
  1
strokes_ogs.tif
176
     0
290
     0
176
     0
 40
1.0
176
     0
 40
1.0
176
     0
  0
VISUALSTYLE
  5
37
102
{ACAD_REACTORS
330
29
102
}
330
29
100
AcDbVisualStyle
  2
Linepattern
 70
    14
177
     3
291
     1
 70
    58
 90
        2
176
     1
 90
        2
176
     1
 90
        0
176
     1
 90
        0
176
     1
 40
0.6
176
     1
 40
30.0
176
     1
 62
     7
420
 16777215
176
     1
 90
        1
176
     1
 90
        4
176
     1
 62
     7
176
     1
 62
   257
176
     1
 90
        7
176
     1
 90
        7
176
     1
 40
1.0
176
     1
 90
        8
176
     1
 62
     7
176
     1
 40
1.0
176
     1
 90
        1
176
     1
 90
        6
176
     1
 90
        2
176
     1
 62
     7
176
     1
 90
        5
176
     1
 90
        0
176
     1
 90
        0
176
     1
290
     0
176
     1
 90
        1
176
     1
 40
0.0
176
     1
 90
        0
176
     1
290
     0
176
     1
290
     1
176
     1
290
     1
176
     1
290
     0
176
     1
290
     0
176
     1
290
     0
176
     1
290
     0
176
     1
290
     0
176
     1
290
     0
176
     1
 90
       50
176
     1
 40
0.0
176
     1
 40
1.0
176
     1
 90
        0
176
     1
 62
    18
420
        0
176
     1
 90
       50
176
     1
 90
        3
176
     1
 62
     5
420
      255
176
     1
290
     0
176
     1
 90
       50
176
     1
 90
       50
176
     1
 90
       50
176
     1
290
     0
176
     1
 90
       50
176
     1
 62
   256
176
     0
 40
1.0
176
     0
 90
        2
176
     1
  1
strokes_ogs.tif
176
     1
290
     0
176
     1
 40
1.0
176
     1
 40
1.0
176
     1
  0
VISUALSTYLE
  5
40
102
{ACAD_REACTORS
330
29
102
}
330
29
100
AcDbVisualStyle
  2
OverhangOff
 70
    21
177
     3
291
     1
 70
    58
 90
        2
176
     0
 90
        2
176
     0
 90
        0
176
     0
 90
        0
176
     0
 40
0.6
176
     0
 40
30.0
176
     0
 62
     7
420
 16777215
176
     0
 90
        1
176
     0
 90
        4
176
     0
 62
     7
176
     0
 62
   257
176
     0
 90
        1
176
     0
 90
        1
176
     0
 40
1.0
176
     0
 90
        9
176
     2
 62
     7
176
     0
 40
1.0
176
     0
 90
        1
176
     0
 90
        6
176
     0
 90
        2
176
     0
 62
     7
176
     0
 90
        5
176
     0
 90
        0
176
     0
 90
        0
176
     0
290
     0
176
     0
 90
        1
176
     0
 40
0.0
176
     0
 90
        0
176
     0
290
     0
176
     0
290
     1
176
     0
290
     1
176
     0
290
     0
176
     0
290
     0
176
     0
290
     0
176
     0
290
     0
176
     0
290
     0
176
     0
290
     0
176
     0
 90
       50
176
     0
 40
0.0
176
     0
 40
1.0
176
     0
 90
        0
176
     0
 62
    18
420
        0
176
     0
 90
       50
176
     0
 90
        3
176
     0
 62
     5
420
      255
176
     0
290
     0
176
     0
 90
       50
176
     0
 90
       50
176
     0
 90
       50
176
     0
290
     0
176
     0
 90
       50
176
     0
 62
   256
176
     0
 40
1.0
176
     0
 90
        2
176
     0
  1
strokes_ogs.tif
176
     0
290
     0
176
     0
 40
1.0
176
     0
 40
1.0
176
     0
  0
VISUALSTYLE
  5
33
102
{ACAD_REACTORS
330
29
102
}
330
29
100
AcDbVisualStyle
  2
Realistic
 70
     8
177
     3
291
     0
 70
    58
 90
        2
176
     1
 90
        3
176
     1
 90
        0
176
     1
 90
        2
176
     1
 40
0.6
176
     1
 40
30.0
176
     1
 62
     7
420
 16777215
176
     1
 90
        0
176
     1
 90
        0
176
     1
 62
     7
176
     1
 62
   257
176
     1
 90
        1
176
     1
 90
        1
176
     1
 40
1.0
176
     1
 90
        8
176
     1
 62
   257
176
     1
 40
1.0
176
     1
 90
        1
176
     1
 90
        6
176
     1
 90
        2
176
     1
 62
     7
176
     1
 90
        3
176
     1
 90
        0
176
     1
 90
        0
176
     1
290
     0
176
     1
 90
       13
176
     1
 40
0.0
176
     1
 90
        0
176
     1
290
     0
176
     1
290
     1
176
     1
290
     1
176
     1
290
     0
176
     1
290
     0
176
     1
290
     0
176
     1
290
     0
176
     1
290
     0
176
     1
290
     0
176
     1
 90
       50
176
     1
 40
0.0
176
     1
 40
1.0
176
     1
 90
        0
176
     1
 62
    18
420
        0
176
     1
 90
       50
176
     1
 90
        3
176
     1
 62
     5
420
      255
176
     1
290
     0
176
     1
 90
       50
176
     1
 90
       50
176
     1
 90
       50
176
     1
290
     0
176
     1
 90
       50
176
     1
 62
   256
176
     0
 40
1.0
176
     0
 90
        2
176
     1
  1
strokes_ogs.tif
176
     1
290
     0
176
     1
 40
1.0
176
     1
 40
1.0
176
     1
  0
VISUALSTYLE
  5
3E
102
{ACAD_REACTORS
330
29
102
}
330
29
100
AcDbVisualStyle
  2
Shaded
 70
    27
177
     3
291
     0
 70
    58
 90
        2
176
     1
 90
        2
176
     1
 90
        1
176
     1
 90
        2
176
     1
 40
0.6
176
     1
 40
30.0
176
     1
 62
     7
420
 16777215
176
     1
 90
        0
176
     1
 90
        4
176
     1
 62
     7
176
     1
 62
   257
176
     1
 90
        1
176
     1
 90
        1
176
     1
 40
1.0
176
     1
 90
        8
176
     1
 62
   257
176
     1
 40
1.0
176
     1
 90
        1
176
     1
 90
        6
176
     1
 90
        2
176
     1
 62
     8
420
  7895160
176
     1
 90
        3
176
     1
 90
        0
176
     1
 90
        0
176
     1
290
     0
176
     1
 90
        5
176
     1
 40
0.0
176
     1
 90
        0
176
     1
290
     0
176
     1
290
     1
176
     1
290
     1
176
     1
290
     0
176
     1
290
     0
176
     1
290
     0
176
     1
290
     0
176
     1
290
     0
176
     1
290
     0
176
     1
 90
       50
176
     1
 40
0.0
176
     1
 40
1.0
176
     1
 90
        0
176
     1
 62
    18
420
        0
176
     1
 90
       50
176
     1
 90
        3
176
     1
 62
     5
420
      255
176
     1
290
     0
176
     1
 90
       50
176
     1
 90
       50
176
     1
 90
       50
176
     1
290
     0
176
     1
 90
       50
176
     1
 62
   256
176
     0
 40
1.0
176
     0
 90
        2
176
     1
  1
strokes_ogs.tif
176
     1
290
     0
176
     1
 40
1.0
176
     1
 40
1.0
176
     1
  0
VISUALSTYLE
  5
3D
102
{ACAD_REACTORS
330
29
102
}
330
29
100
AcDbVisualStyle
  2
Shaded with edges
 70
    26
177
     3
291
     0
 70
    58
 90
        2
176
     1
 90
        2
176
     1
 90
        1
176
     1
 90
        2
176
     1
 40
0.6
176
     1
 40
30.0
176
     1
 62
     7
420
 16777215
176
     1
 90
        1
176
     1
 90
        2
176
     1
 62
     7
176
     1
 62
   257
176
     1
 90
        2
176
     1
 90
        1
176
     1
 40
1.0
176
     1
 90
        8
176
     1
 62
   257
176
     1
 40
1.0
176
     1
 90
        1
176
     1
 90
        6
176
     1
 90
        2
176
     1
 62
     7
176
     1
 90
        3
176
     1
 90
        0
176
     1
 90
        0
176
     1
290
     0
176
     1
 90
        5
176
     1
 40
0.0
176
     1
 90
        0
176
     1
290
     0
176
     1
290
     1
176
     1
290
     1
176
     1
290
     0
176
     1
290
     0
176
     1
290
     0
176
     1
290
     0
176
     1
290
     0
176
     1
290
     0
176
     1
 90
       50
176
     1
 40
0.0
176
     1
 40
1.0
176
     1
 90
        0
176
     1
 62
    18
420
        0
176
     1
 90
       50
176
     1
 90
        3
176
     1
 62
     5
420
      255
176
     1
290
     0
176
     1
 90
       50
176
     1
 90
       50
176
     1
 90
       50
176
     1
290
     0
176
     1
 90
       50
176
     1
 62
   256
176
     0
 40
1.0
176
     0
 90
        2
176
     1
  1
strokes_ogs.tif
176
     1
290
     0
176
     1
 40
1.0
176
     1
 40
1.0
176
     1
  0
VISUALSTYLE
  5
3A
102
{ACAD_REACTORS
330
29
102
}
330
29
100
AcDbVisualStyle
  2
Shades of Gray
 70
    23
177
     3
291
     0
 70
    58
 90
        2
176
     1
 90
        2
176
     1
 90
        3
176
     1
 90
        0
176
     1
 40
0.6
176
     1
 40
30.0
176
     1
 62
     7
420
 16777215
176
     1
 90
        2
176
     1
 90
        2
176
     1
 62
     7
176
     1
 62
     7
176
     1
 90
        1
176
     1
 90
        1
176
     1
 40
40.0
176
     1
 90
        8
176
     1
 62
     7
176
     1
 40
1.0
176
     1
 90
        1
176
     1
 90
        6
176
     1
 90
        2
176
     1
 62
     7
176
     1
 90
        3
176
     1
 90
        0
176
     1
 90
        0
176
     1
290
     0
176
     1
 90
        1
176
     1
 40
0.0
176
     1
 90
        0
176
     1
290
     0
176
     1
290
     1
176
     1
290
     1
176
     1
290
     0
176
     1
290
     0
176
     1
290
     0
176
     1
290
     0
176
     1
290
     0
176
     1
290
     0
176
     1
 90
       50
176
     1
 40
0.0
176
     1
 40
1.0
176
     1
 90
        0
176
     1
 62
    18
420
        0
176
     1
 90
       50
176
     1
 90
        3
176
     1
 62
     5
420
      255
176
     1
290
     0
176
     1
 90
       50
176
     1
 90
       50
176
     1
 90
       50
176
     1
290
     0
176
     1
 90
       50
176
     1
 62
   256
176
     0
 40
1.0
176
     0
 90
        2
176
     1
  1
strokes_ogs.tif
176
     1
290
     0
176
     1
 40
1.0
176
     1
 40
1.0
176
     1
  0
VISUALSTYLE
  5
3B
102
{ACAD_REACTORS
330
29
102
}
330
29
100
AcDbVisualStyle
  2
Sketchy
 70
    24
177
     3
291
     0
 70
    58
 90
        1
176
     1
 90
        2
176
     1
 90
        2
176
     1
 90
        0
176
     1
 40
0.6
176
     1
 40
30.0
176
     1
 62
     7
420
 16777215
176
     1
 90
        2
176
     1
 90
        2
176
     1
 62
     7
176
     1
 62
     7
176
     1
 90
        1
176
     1
 90
        1
176
     1
 40
40.0
176
     1
 90
       11
176
     1
 62
     7
176
     1
 40
1.0
176
     1
 90
        1
176
     1
 90
        6
176
     1
 90
        2
176
     1
 62
     7
176
     1
 90
        6
176
     1
 90
        0
176
     1
 90
        0
176
     1
290
     0
176
     1
 90
        1
176
     1
 40
0.0
176
     1
 90
        0
176
     1
290
     0
176
     1
290
     1
176
     1
290
     1
176
     1
290
     0
176
     1
290
     0
176
     1
290
     0
176
     1
290
     0
176
     1
290
     0
176
     1
290
     0
176
     1
 90
       50
176
     1
 40
0.0
176
     1
 40
1.0
176
     1
 90
        0
176
     1
 62
    18
420
        0
176
     1
 90
       50
176
     1
 90
        3
176
     1
 62
     5
420
      255
176
     1
290
     0
176
     1
 90
       50
176
     1
 90
       50
176
     1
 90
       50
176
     1
290
     0
176
     1
 90
       50
176
     1
 62
   256
176
     0
 40
1.0
176
     0
 90
        2
176
     1
  1
strokes_ogs.tif
176
     1
290
     0
176
     1
 40
1.0
176
     1
 40
1.0
176
     1
  0
VISUALSTYLE
  5
36
102
{ACAD_REACTORS
330
29
102
}
330
29
100
AcDbVisualStyle
  2
Thicken
 70
    13
177
     3
291
     1
 70
    58
 90
        2
176
     1
 90
        2
176
     1
 90
        0
176
     1
 90
        0
176
     1
 40
0.6
176
     1
 40
30.0
176
     1
 62
     7
420
 16777215
176
     1
 90
        1
176
     1
 90
        4
176
     1
 62
     7
176
     1
 62
   257
176
     1
 90
        1
176
     1
 90
        1
176
     1
 40
1.0
176
     1
 90
       12
176
     1
 62
     7
176
     1
 40
1.0
176
     1
 90
        1
176
     1
 90
        6
176
     1
 90
        2
176
     1
 62
     7
176
     1
 90
        5
176
     1
 90
        0
176
     1
 90
        0
176
     1
290
     0
176
     1
 90
        1
176
     1
 40
0.0
176
     1
 90
        0
176
     1
290
     0
176
     1
290
     1
176
     1
290
     1
176
     1
290
     0
176
     1
290
     0
176
     1
290
     0
176
     1
290
     0
176
     1
290
     0
176
     1
290
     0
176
     1
 90
       50
176
     1
 40
0.0
176
     1
 40
1.0
176
     1
 90
        0
176
     1
 62
    18
420
        0
176
     1
 90
       50
176
     1
 90
        3
176
     1
 62
     5
420
      255
176
     1
290
     0
176
     1
 90
       50
176
     1
 90
       50
176
     1
 90
       50
176
     1
290
     0
176
     1
 90
       50
176
     1
 62
   256
176
     0
 40
1.0
176
     0
 90
        2
176
     1
  1
strokes_ogs.tif
176
     1
290
     0
176
     1
 40
1.0
176
     1
 40
1.0
176
     1
  0
VISUALSTYLE
  5
30
102
{ACAD_REACTORS
330
29
102
}
330
29
100
AcDbVisualStyle
  2
Wireframe
 70
     5
177
     3
291
     0
 70
    58
 90
        0
176
     1
 90
        2
176
     1
 90
        0
176
     1
 90
        0
176
     1
 40
0.6
176
     1
 40
30.0
176
     1
 62
     7
420
 16777215
176
     1
 90
        1
176
     1
 90
        4
176
     1
 62
     7
176
     1
 62
   257
176
     1
 90
        1
176
     1
 90
        1
176
     1
 40
1.0
176
     1
 90
        0
176
     1
 62
   257
176
     1
 40
1.0
176
     1
 90
        1
176
     1
 90
        6
176
     1
 90
        2
176
     1
 62
     7
176
     1
 90
        3
176
     1
 90
        0
176
     1
 90
        0
176
     1
290
     0
176
     1
 90
        1
176
     1
 40
0.0
176
     1
 90
        0
176
     1
290
     0
176
     1
290
     1
176
     1
290
     1
176
     1
290
     0
176
     1
290
     0
176
     1
290
     0
176
     1
290
     0
176
     1
290
     0
176
     1
290
     0
176
     1
 90
       50
176
     1
 40
0.0
176
     1
 40
1.0
176
     1
 90
        0
176
     1
 62
    18
420
        0
176
     1
 90
       50
176
     1
 90
        3
176
     1
 62
     5
420
      255
176
     1
290
     0
176
     1
 90
       50
176
     1
 90
       50
176
     1
 90
       50
176
     1
290
     0
176
     1
 90
       50
176
     1
 62
   256
176
     0
 40
1.0
176
     0
 90
        2
176
     1
  1
strokes_ogs.tif
176
     1
290
     0
176
     1
 40
1.0
176
     1
 40
1.0
176
     1
  0
VISUALSTYLE
  5
3C
102
{ACAD_REACTORS
330
29
102
}
330
29
100
AcDbVisualStyle
  2
X-Ray
 70
    25
177
     3
291
     0
 70
    58
 90
        2
176
     1
 90
        2
176
     1
 90
        1
176
     1
 90
        1
176
     1
 40
0.5
176
     1
 40
30.0
176
     1
 62
     7
420
 16777215
176
     1
 90
        1
176
     1
 90
        0
176
     1
 62
     7
176
     1
 62
   257
176
     1
 90
        1
176
     1
 90
        1
176
     1
 40
1.0
176
     1
 90
        8
176
     1
 62
     7
176
     1
 40
1.0
176
     1
 90
        1
176
     1
 90
        6
176
     1
 90
        2
176
     1
 62
     7
176
     1
 90
        3
176
     1
 90
        0
176
     1
 90
        0
176
     1
290
     0
176
     1
 90
       13
176
     1
 40
0.0
176
     1
 90
        0
176
     1
290
     0
176
     1
290
     1
176
     1
290
     1
176
     1
290
     0
176
     1
290
     0
176
     1
290
     0
176
     1
290
     0
176
     1
290
     0
176
     1
290
     0
176
     1
 90
       50
176
     1
 40
0.0
176
     1
 40
1.0
176
     1
 90
        0
176
     1
 62
    18
420
        0
176
     1
 90
       50
176
     1
 90
        3
176
     1
 62
     5
420
      255
176
     1
290
     0
176
     1
 90
       50
176
     1
 90
       50
176
     1
 90
       50
176
     1
290
     0
176
     1
 90
       50
176
     1
 62
   256
176
     0
 40
1.0
176
     0
 90
        2
176
     1
  1
strokes_ogs.tif
176
     1
290
     0
176
     1
 40
1.0
176
     1
 40
1.0
176
     1
  0
DICTIONARYVAR
  5
260
102
{ACAD_REACTORS
330
25B
102
}
330
25B
100
DictionaryVariables
280
     0
  1
1:1
  0
DICTIONARYVAR
  5
25D
102
{ACAD_REACTORS
330
25B
102
}
330
25B
100
DictionaryVariables
280
     0
  1
STANDARD
  0
DICTIONARYVAR
  5
25C
102
{ACAD_REACTORS
330
25B
102
}
330
25B
100
DictionaryVariables
280
     0
  1
STANDARD
  0
DICTIONARYVAR
  5
25E
102
{ACAD_REACTORS
330
25B
102
}
330
25B
100
DictionaryVariables
280
     0
  1
Imperial24
  0
DICTIONARYVAR
  5
25F
102
{ACAD_REACTORS
330
25B
102
}
330
25B
100
DictionaryVariables
280
     0
  1
Imperial24
  0
DICTIONARY
  5
1A
330
19
100
AcDbDictionary
280
     1
281
     1
  3
BUMPTILE
360
1C
  3
DIFFUSETILE
360
1B
  3
OPACITYTILE
360
1F
  3
REFLECTIONTILE
360
1E
  3
REFRACTIONTILE
360
20
  3
SPECULARTILE
360
1D
  0
DICTIONARY
  5
12
330
11
100
AcDbDictionary
280
     1
281
     1
  3
BUMPTILE
360
14
  3
DIFFUSETILE
360
13
  3
OPACITYTILE
360
17
  3
REFLECTIONTILE
360
16
  3
REFRACTIONTILE
360
18
  3
SPECULARTILE
360
15
  0
DICTIONARY
  5
22
330
21
100
AcDbDictionary
280
     1
281
     1
  3
BUMPTILE
360
24
  3
DIFFUSETILE
360
23
  3
OPACITYTILE
360
27
  3
REFLECTIONTILE
360
26
  3
REFRACTIONTILE
360
28
  3
SPECULARTILE
360
25
  0
DICTIONARY
  5
261
330
65
100
AcDbDictionary
280
     1
281
     1
  3
ACAD_ROUNDTRIP_2008_TABLESTYLE_CELLSTYLEMAP
360
262
  0
XRECORD
  5
1C
102
{ACAD_REACTORS
330
1A
102
}
330
1A
100
AcDbXrecord
280
     1
270
     1
271
     1
  0
XRECORD
  5
1B
102
{ACAD_REACTORS
330
1A
102
}
330
1A
100
AcDbXrecord
280
     1
270
     1
271
     1
  0
XRECORD
  5
1F
102
{ACAD_REACTORS
330
1A
102
}
330
1A
100
AcDbXrecord
280
     1
270
     1
271
     1
  0
XRECORD
  5
1E
102
{ACAD_REACTORS
330
1A
102
}
330
1A
100
AcDbXrecord
280
     1
270
     1
271
     1
  0
XRECORD
  5
20
102
{ACAD_REACTORS
330
1A
102
}
330
1A
100
AcDbXrecord
280
     1
270
     1
271
     1
  0
XRECORD
  5
1D
102
{ACAD_REACTORS
330
1A
102
}
330
1A
100
AcDbXrecord
280
     1
270
     1
271
     1
  0
XRECORD
  5
14
102
{ACAD_REACTORS
330
12
102
}
330
12
100
AcDbXrecord
280
     1
270
     1
271
     1
  0
XRECORD
  5
13
102
{ACAD_REACTORS
330
12
102
}
330
12
100
AcDbXrecord
280
     1
270
     1
271
     1
  0
XRECORD
  5
17
102
{ACAD_REACTORS
330
12
102
}
330
12
100
AcDbXrecord
280
     1
270
     1
271
     1
  0
XRECORD
  5
16
102
{ACAD_REACTORS
330
12
102
}
330
12
100
AcDbXrecord
280
     1
270
     1
271
     1
  0
XRECORD
  5
18
102
{ACAD_REACTORS
330
12
102
}
330
12
100
AcDbXrecord
280
     1
270
     1
271
     1
  0
XRECORD
  5
15
102
{ACAD_REACTORS
330
12
102
}
330
12
100
AcDbXrecord
280
     1
270
     1
271
     1
  0
XRECORD
  5
24
102
{ACAD_REACTORS
330
22
102
}
330
22
100
AcDbXrecord
280
     1
270
     1
271
     1
  0
XRECORD
  5
23
102
{ACAD_REACTORS
330
22
102
}
330
22
100
AcDbXrecord
280
     1
270
     1
271
     1
  0
XRECORD
  5
27
102
{ACAD_REACTORS
330
22
102
}
330
22
100
AcDbXrecord
280
     1
270
     1
271
     1
  0
XRECORD
  5
26
102
{ACAD_REACTORS
330
22
102
}
330
22
100
AcDbXrecord
280
     1
270
     1
271
     1
  0
XRECORD
  5
28
102
{ACAD_REACTORS
330
22
102
}
330
22
100
AcDbXrecord
280
     1
270
     1
271
     1
  0
XRECORD
  5
25
102
{ACAD_REACTORS
330
22
102
}
330
22
100
AcDbXrecord
280
     1
270
     1
271
     1
  0
CELLSTYLEMAP
  5
262
102
{ACAD_REACTORS
330
261
102
}
330
261
100
AcDbCellStyleMap
 90
        3
300
CELLSTYLE
  1
TABLEFORMAT_BEGIN
 90
        5
170
     1
 91
        0
 92
    32768
 62
   257
 93
        1
300
CONTENTFORMAT
  1
CONTENTFORMAT_BEGIN
 90
        0
 91
        0
 92
      512
 93
        0
300

 40
0.0
140
1.0
 94
        5
 62
     0
340
55
144
0.25
309
CONTENTFORMAT_END
171
     0
 94
        0
309
TABLEFORMAT_END
  1
CELLSTYLE_BEGIN
 90
        1
 91
        1
300
_TITLE
309
CELLSTYLE_END
300
CELLSTYLE
  1
TABLEFORMAT_BEGIN
 90
        5
170
     1
 91
        0
 92
        0
 62
   257
 93
        1
300
CONTENTFORMAT
  1
CONTENTFORMAT_BEGIN
 90
        0
 91
        0
 92
      512
 93
        0
300

 40
0.0
140
1.0
 94
        5
 62
     0
340
55
144
0.18
309
CONTENTFORMAT_END
171
     0
 94
        0
309
TABLEFORMAT_END
  1
CELLSTYLE_BEGIN
 90
        2
 91
        1
300
_HEADER
309
CELLSTYLE_END
300
CELLSTYLE
  1
TABLEFORMAT_BEGIN
 90
        5
170
     1
 91
        0
 92
        0
 62
   257
 93
        1
300
CONTENTFORMAT
  1
CONTENTFORMAT_BEGIN
 90
        0
 91
        0
 92
      512
 93
        0
300

 40
0.0
140
1.0
 94
        2
 62
     0
340
55
144
0.18
309
CONTENTFORMAT_END
171
     0
 94
        0
309
TABLEFORMAT_END
  1
CELLSTYLE_BEGIN
 90
        3
 91
        2
300
_DATA
309
CELLSTYLE_END
  0
ENDSEC
  0
EOF
