  0
SECTION
  2
HEADER
  9
$ACADVER
  1
AC1032
  9
$ACADMAINTVER
 90
      228
  9
$DWGCODEPAGE
  3
ANSI_932
  9
$REQUIREDVERSIONS
160
                 0
  9
$INSBASE
 10
0.0
 20
0.0
 30
0.0
  9
$EXTMIN
 10
1.000000000000000E+20
 20
1.000000000000000E+20
 30
1.000000000000000E+20
  9
$EXTMAX
 10
-1.000000000000000E+20
 20
-1.000000000000000E+20
 30
-1.000000000000000E+20
  9
$LIMMIN
 10
0.0
 20
0.0
  9
$LIMMAX
 10
12.0
 20
9.0
  9
$ORTHOMODE
 70
     0
  9
$REGENMODE
 70
     1
  9
$FILLMODE
 70
     1
  9
$QTEXTMODE
 70
     0
  9
$MIRRTEXT
 70
     0
  9
$LTSCALE
 40
1.0
  9
$ATTMODE
 70
     1
  9
$TEXTSIZE
 40
0.2
  9
$TRACEWID
 40
0.05
  9
$TEXTSTYLE
  7
Standard
  9
$CLAYER
  8
0
  9
$CELTYPE
  6
ByLayer
  9
$CECOLOR
 62
   256
  9
$CELTSCALE
 40
1.0
  9
$DISPSILH
 70
     0
  9
$DIMSCALE
 40
1.0
  9
$DIMASZ
 40
0.18
  9
$DIMEXO
 40
0.0625
  9
$DIMDLI
 40
0.38
  9
$DIMRND
 40
0.0
  9
$DIMDLE
 40
0.0
  9
$DIMEXE
 40
0.18
  9
$DIMTP
 40
0.0
  9
$DIMTM
 40
0.0
  9
$DIMTXT
 40
0.18
  9
$DIMCEN
 40
0.09
  9
$DIMTSZ
 40
0.0
  9
$DIMTOL
 70
     0
  9
$DIMLIM
 70
     0
  9
$DIMTIH
 70
     1
  9
$DIMTOH
 70
     1
  9
$DIMSE1
 70
     0
  9
$DIMSE2
 70
     0
  9
$DIMTAD
 70
     0
  9
$DIMZIN
 70
     0
  9
$DIMBLK
  1

  9
$DIMASO
 70
     1
  9
$DIMSHO
 70
     1
  9
$DIMPOST
  1

  9
$DIMAPOST
  1

  9
$DIMALT
 70
     0
  9
$DIMALTD
 70
     2
  9
$DIMALTF
 40
25.4
  9
$DIMLFAC
 40
1.0
  9
$DIMTOFL
 70
     0
  9
$DIMTVP
 40
0.0
  9
$DIMTIX
 70
     0
  9
$DIMSOXD
 70
     0
  9
$DIMSAH
 70
     0
  9
$DIMBLK1
  1

  9
$DIMBLK2
  1

  9
$DIMSTYLE
  2
Standard
  9
$DIMCLRD
 70
     0
  9
$DIMCLRE
 70
     0
  9
$DIMCLRT
 70
     0
  9
$DIMTFAC
 40
1.0
  9
$DIMGAP
 40
0.09
  9
$DIMJUST
 70
     0
  9
$DIMSD1
 70
     0
  9
$DIMSD2
 70
     0
  9
$DIMTOLJ
 70
     1
  9
$DIMTZIN
 70
     0
  9
$DIMALTZ
 70
     0
  9
$DIMALTTZ
 70
     0
  9
$DIMUPT
 70
     0
  9
$DIMDEC
 70
     4
  9
$DIMTDEC
 70
     4
  9
$DIMALTU
 70
     2
  9
$DIMALTTD
 70
     2
  9
$DIMTXSTY
  7
Standard
  9
$DIMAUNIT
 70
     0
  9
$DIMADEC
 70
     0
  9
$DIMALTRND
 40
0.0
  9
$DIMAZIN
 70
     0
  9
$DIMDSEP
 70
    46
  9
$DIMATFIT
 70
     3
  9
$DIMFRAC
 70
     0
  9
$DIMLDRBLK
  1

  9
$DIMLUNIT
 70
     2
  9
$DIMLWD
 70
    -2
  9
$DIMLWE
 70
    -2
  9
$DIMTMOVE
 70
     0
  9
$DIMFXL
 40
1.0
  9
$DIMFXLON
 70
     0
  9
$DIMJOGANG
 40
0.7853981633974483
  9
$DIMTFILL
 70
     0
  9
$DIMTFILLCLR
 70
     0
  9
$DIMARCSYM
 70
     0
  9
$DIMLTYPE
  6

  9
$DIMLTEX1
  6

  9
$DIMLTEX2
  6

  9
$DIMTXTDIRECTION
 70
     0
  9
$LUNITS
 70
     2
  9
$LUPREC
 70
     4
  9
$SKETCHINC
 40
0.1
  9
$FILLETRAD
 40
0.0
  9
$AUNITS
 70
     0
  9
$AUPREC
 70
     0
  9
$MENU
  1
.
  9
$ELEVATION
 40
0.0
  9
$PELEVATION
 40
0.0
  9
$THICKNESS
 40
0.0
  9
$LIMCHECK
 70
     0
  9
$CHAMFERA
 40
0.0
  9
$CHAMFERB
 40
0.0
  9
$CHAMFERC
 40
0.0
  9
$CHAMFERD
 40
0.0
  9
$SKPOLY
 70
     0
  9
$TDCREATE
 40
2460363.792916667
  9
$TDUCREATE
 40
2460363.417916667
  9
$TDUPDATE
 40
2460363.792916667
  9
$TDUUPDATE
 40
2460363.417916667
  9
$TDINDWG
 40
0.0000000000
  9
$TDUSRTIMER
 40
0.0000000000
  9
$USRTIMER
 70
     1
  9
$ANGBASE
 50
0.0
  9
$ANGDIR
 70
     0
  9
$PDMODE
 70
     0
  9
$PDSIZE
 40
0.0
  9
$PLINEWID
 40
0.0
  9
$SPLFRAME
 70
     0
  9
$SPLINETYPE
 70
     6
  9
$SPLINESEGS
 70
     8
  9
$HANDSEED
  5
30B
  9
$SURFTAB1
 70
     6
  9
$SURFTAB2
 70
     6
  9
$SURFTYPE
 70
     6
  9
$SURFU
 70
     6
  9
$SURFV
 70
     6
  9
$UCSBASE
  2

  9
$UCSNAME
  2

  9
$UCSORG
 10
0.0
 20
0.0
 30
0.0
  9
$UCSXDIR
 10
1.0
 20
0.0
 30
0.0
  9
$UCSYDIR
 10
0.0
 20
1.0
 30
0.0
  9
$UCSORTHOREF
  2

  9
$UCSORTHOVIEW
 70
     0
  9
$UCSORGTOP
 10
0.0
 20
0.0
 30
0.0
  9
$UCSORGBOTTOM
 10
0.0
 20
0.0
 30
0.0
  9
$UCSORGLEFT
 10
0.0
 20
0.0
 30
0.0
  9
$UCSORGRIGHT
 10
0.0
 20
0.0
 30
0.0
  9
$UCSORGFRONT
 10
0.0
 20
0.0
 30
0.0
  9
$UCSORGBACK
 10
0.0
 20
0.0
 30
0.0
  9
$PUCSBASE
  2

  9
$PUCSNAME
  2

  9
$PUCSORG
 10
0.0
 20
0.0
 30
0.0
  9
$PUCSXDIR
 10
1.0
 20
0.0
 30
0.0
  9
$PUCSYDIR
 10
0.0
 20
1.0
 30
0.0
  9
$PUCSORTHOREF
  2

  9
$PUCSORTHOVIEW
 70
     0
  9
$PUCSORGTOP
 10
0.0
 20
0.0
 30
0.0
  9
$PUCSORGBOTTOM
 10
0.0
 20
0.0
 30
0.0
  9
$PUCSORGLEFT
 10
0.0
 20
0.0
 30
0.0
  9
$PUCSORGRIGHT
 10
0.0
 20
0.0
 30
0.0
  9
$PUCSORGFRONT
 10
0.0
 20
0.0
 30
0.0
  9
$PUCSORGBACK
 10
0.0
 20
0.0
 30
0.0
  9
$USERI1
 70
     0
  9
$USERI2
 70
     0
  9
$USERI3
 70
     0
  9
$USERI4
 70
     0
  9
$USERI5
 70
     0
  9
$USERR1
 40
0.0
  9
$USERR2
 40
0.0
  9
$USERR3
 40
0.0
  9
$USERR4
 40
0.0
  9
$USERR5
 40
0.0
  9
$WORLDVIEW
 70
     1
  9
$SHADEDGE
 70
     3
  9
$SHADEDIF
 70
    70
  9
$TILEMODE
 70
     1
  9
$MAXACTVP
 70
    64
  9
$PINSBASE
 10
0.0
 20
0.0
 30
0.0
  9
$PLIMCHECK
 70
     0
  9
$PEXTMIN
 10
1.000000000000000E+20
 20
1.000000000000000E+20
 30
1.000000000000000E+20
  9
$PEXTMAX
 10
-1.000000000000000E+20
 20
-1.000000000000000E+20
 30
-1.000000000000000E+20
  9
$PLIMMIN
 10
0.0
 20
0.0
  9
$PLIMMAX
 10
12.0
 20
9.0
  9
$UNITMODE
 70
     0
  9
$VISRETAIN
 70
     1
  9
$PLINEGEN
 70
     0
  9
$PSLTSCALE
 70
     1
  9
$TREEDEPTH
 70
  3020
  9
$CMLSTYLE
  2
Standard
  9
$CMLJUST
 70
     0
  9
$CMLSCALE
 40
1.0
  9
$PROXYGRAPHICS
 70
     1
  9
$MEASUREMENT
 70
     0
  9
$CELWEIGHT
370
    -1
  9
$ENDCAPS
280
     0
  9
$JOINSTYLE
280
     0
  9
$LWDISPLAY
290
     1
  9
$INSUNITS
 70
     4
  9
$HYPERLINKBASE
  1

  9
$STYLESHEET
  1

  9
$XEDIT
290
     1
  9
$CEPSNTYPE
380
     0
  9
$PSTYLEMODE
290
     1
  9
$FINGERPRINTGUID
  2
{D91E228F-DB9D-C946-87C0-1A53E7AD8C46}
  9
$VERSIONGUID
  2
{93573EB4-5C78-444A-9099-C93D7315AC3C}
  9
$EXTNAMES
290
     1
  9
$PSVPSCALE
 40
0.0
  9
$OLESTARTUP
290
     0
  9
$SORTENTS
280
   127
  9
$INDEXCTL
280
     0
  9
$HIDETEXT
280
     1
  9
$XCLIPFRAME
280
     2
  9
$HALOGAP
280
     0
  9
$OBSCOLOR
 70
   257
  9
$OBSLTYPE
280
     0
  9
$INTERSECTIONDISPLAY
280
     0
  9
$INTERSECTIONCOLOR
 70
   257
  9
$DIMASSOC
280
     2
  9
$PROJECTNAME
  1

  9
$CAMERADISPLAY
290
     0
  9
$LENSLENGTH
 40
50.0
  9
$CAMERAHEIGHT
 40
0.0
  9
$STEPSPERSEC
 40
2.0
  9
$STEPSIZE
 40
6.0
  9
$3DDWFPREC
 40
2.0
  9
$PSOLWIDTH
 40
0.25
  9
$PSOLHEIGHT
 40
4.0
  9
$LOFTANG1
 40
1.570796326794896
  9
$LOFTANG2
 40
1.570796326794896
  9
$LOFTMAG1
 40
0.0
  9
$LOFTMAG2
 40
0.0
  9
$LOFTPARAM
 70
     7
  9
$LOFTNORMALS
280
     1
  9
$LATITUDE
 40
37.795
  9
$LONGITUDE
 40
-122.394
  9
$NORTHDIRECTION
 40
0.0
  9
$TIMEZONE
 70
 -8000
  9
$LIGHTGLYPHDISPLAY
280
     1
  9
$TILEMODELIGHTSYNCH
280
     1
  9
$CMATERIAL
347
11
  9
$SOLIDHIST
280
     0
  9
$SHOWHIST
280
     1
  9
$DWFFRAME
280
     2
  9
$DGNFRAME
280
     0
  9
$REALWORLDSCALE
290
     1
  9
$INTERFERECOLOR
 62
     1
  9
$INTERFEREOBJVS
345
33
  9
$INTERFEREVPVS
346
30
  9
$CSHADOW
280
     0
  9
$SHADOWPLANELOCATION
 40
0.0
  0
ENDSEC
  0
SECTION
  2
CLASSES
  0
CLASS
  1
ACDBDICTIONARYWDFLT
  2
AcDbDictionaryWithDefault
  3
ObjectDBX Classes
 90
        0
 91
        1
280
     0
281
     0
  0
CLASS
  1
MATERIAL
  2
AcDbMaterial
  3
ObjectDBX Classes
 90
     1153
 91
        3
280
     0
281
     0
  0
CLASS
  1
VISUALSTYLE
  2
AcDbVisualStyle
  3
ObjectDBX Classes
 90
     4095
 91
       24
280
     0
281
     0
  0
CLASS
  1
SCALE
  2
AcDbScale
  3
ObjectDBX Classes
 90
     1153
 91
       17
280
     0
281
     0
  0
CLASS
  1
TABLESTYLE
  2
AcDbTableStyle
  3
ObjectDBX Classes
 90
     4095
 91
        1
280
     0
281
     0
  0
CLASS
  1
MLEADERSTYLE
  2
AcDbMLeaderStyle
  3
ACDB_MLEADERSTYLE_CLASS
 90
     4095
 91
        1
280
     0
281
     0
  0
CLASS
  1
ACDBSECTIONVIEWSTYLE
  2
AcDbSectionViewStyle
  3
ObjectDBX Classes
 90
     1025
 91
        1
280
     0
281
     0
  0
CLASS
  1
ACDBDETAILVIEWSTYLE
  2
AcDbDetailViewStyle
  3
ObjectDBX Classes
 90
     1025
 91
        1
280
     0
281
     0
  0
CLASS
  1
DICTIONARYVAR
  2
AcDbDictionaryVar
  3
ObjectDBX Classes
 90
        0
 91
        5
280
     0
281
     0
  0
CLASS
  1
CELLSTYLEMAP
  2
AcDbCellStyleMap
  3
ObjectDBX Classes
 90
     1152
 91
        1
280
     0
281
     0
  0
ENDSEC
  0
SECTION
  2
TABLES
  0
TABLE
  2
VPORT
  5
8
330
0
100
AcDbSymbolTable
 70
     1
  0
VPORT
  5
57
330
8
100
AcDbSymbolTableRecord
100
AcDbViewportTableRecord
  2
*Active
 70
     0
 10
0.0
 20
0.0
 11
1.0
 21
1.0
 12
0.0
 22
0.0
 13
0.0
 23
0.0
 14
1.0
 24
1.0
 15
0.0
 25
0.0
 16
0.0
 26
0.0
 36
1.0
 17
338.666666582
 27
190.4999999523751
 37
0.0
 40
388.8749999028449
 41
1.776612021857632
 42
50.0
 43
0.0
 44
0.0
 50
0.0
 51
0.0
 71
     0
 72
   100
 73
     1
 74
     1
 75
     0
 76
     0
 77
     0
 78
     0
281
     0
 65
     1
110
0.0
120
0.0
130
0.0
111
1.0
121
0.0
131
0.0
112
0.0
122
1.0
132
0.0
 79
     0
146
0.0
 60
     3
 61
     5
292
     1
282
     1
141
0.0
142
0.0
 63
   250
421
  3355443
  0
ENDTAB
  0
TABLE
  2
LTYPE
  5
5
330
0
100
AcDbSymbolTable
 70
   251
  0
LTYPE
  5
5B
330
5
100
AcDbSymbolTableRecord
100
AcDbLinetypeTableRecord
  2
ByBlock
 70
     0
  3

 72
    65
 73
     0
 40
0.0
  0
LTYPE
  5
5C
330
5
100
AcDbSymbolTableRecord
100
AcDbLinetypeTableRecord
  2
ByLayer
 70
     0
  3

 72
    65
 73
     0
 40
0.0
  0
LTYPE
  5
5D
330
5
100
AcDbSymbolTableRecord
100
AcDbLinetypeTableRecord
  2
Continuous
 70
     0
  3
Solid line
 72
    65
 73
     0
 40
0.0
  0
LTYPE
  5
E3
330
5
100
AcDbSymbolTableRecord
100
AcDbLinetypeTableRecord
  2
AI-Linetype-0
 70
     0
  3
Adobe Illustrator Linetype No. 0
 72
    65
 73
     4
 40
36.28571345958618
 49
22.67857103840452
 74
     0
 49
-4.535714140393883
 74
     0
 49
4.535714140393883
 74
     0
 49
-4.535714140393883
 74
     0
  0
LTYPE
  5
E5
330
5
100
AcDbSymbolTableRecord
100
AcDbLinetypeTableRecord
  2
AI-Linetype-1
 70
     0
  3
Adobe Illustrator Linetype No. 1
 72
    65
 73
     4
 40
36.28571345958618
 49
22.67857103840452
 74
     0
 49
-4.535714140393883
 74
     0
 49
4.535714140393883
 74
     0
 49
-4.535714140393883
 74
     0
  0
LTYPE
  5
113
330
5
100
AcDbSymbolTableRecord
100
AcDbLinetypeTableRecord
  2
AI-Linetype-2
 70
     0
  3
Adobe Illustrator Linetype No. 2
 72
    65
 73
     6
 40
45.35714174037394
 49
22.67857103840452
 74
     0
 49
-4.535714140393883
 74
     0
 49
4.535714140393883
 74
     0
 49
-4.535714140393883
 74
     0
 49
4.535714140393883
 74
     0
 49
-4.535714140393883
 74
     0
  0
LTYPE
  5
115
330
5
100
AcDbSymbolTableRecord
100
AcDbLinetypeTableRecord
  2
AI-Linetype-3
 70
     0
  3
Adobe Illustrator Linetype No. 3
 72
    65
 73
     6
 40
45.35714174037394
 49
22.67857103840452
 74
     0
 49
-4.535714140393883
 74
     0
 49
4.535714140393883
 74
     0
 49
-4.535714140393883
 74
     0
 49
4.535714140393883
 74
     0
 49
-4.535714140393883
 74
     0
  0
LTYPE
  5
117
330
5
100
AcDbSymbolTableRecord
100
AcDbLinetypeTableRecord
  2
AI-Linetype-4
 70
     0
  3
Adobe Illustrator Linetype No. 4
 72
    65
 73
     6
 40
45.35714174037394
 49
22.67857103840452
 74
     0
 49
-4.535714140393883
 74
     0
 49
4.535714140393883
 74
     0
 49
-4.535714140393883
 74
     0
 49
4.535714140393883
 74
     0
 49
-4.535714140393883
 74
     0
  0
LTYPE
  5
119
330
5
100
AcDbSymbolTableRecord
100
AcDbLinetypeTableRecord
  2
AI-Linetype-5
 70
     0
  3
Adobe Illustrator Linetype No. 5
 72
    65
 73
     6
 40
45.35714174037394
 49
22.67857103840452
 74
     0
 49
-4.535714140393883
 74
     0
 49
4.535714140393883
 74
     0
 49
-4.535714140393883
 74
     0
 49
4.535714140393883
 74
     0
 49
-4.535714140393883
 74
     0
  0
LTYPE
  5
11B
330
5
100
AcDbSymbolTableRecord
100
AcDbLinetypeTableRecord
  2
AI-Linetype-6
 70
     0
  3
Adobe Illustrator Linetype No. 6
 72
    65
 73
     6
 40
45.35714174037394
 49
22.67857103840452
 74
     0
 49
-4.535714140393883
 74
     0
 49
4.535714140393883
 74
     0
 49
-4.535714140393883
 74
     0
 49
4.535714140393883
 74
     0
 49
-4.535714140393883
 74
     0
  0
LTYPE
  5
11D
330
5
100
AcDbSymbolTableRecord
100
AcDbLinetypeTableRecord
  2
AI-Linetype-7
 70
     0
  3
Adobe Illustrator Linetype No. 7
 72
    65
 73
     6
 40
45.35714174037394
 49
22.67857103840452
 74
     0
 49
-4.535714140393883
 74
     0
 49
4.535714140393883
 74
     0
 49
-4.535714140393883
 74
     0
 49
4.535714140393883
 74
     0
 49
-4.535714140393883
 74
     0
  0
LTYPE
  5
11F
330
5
100
AcDbSymbolTableRecord
100
AcDbLinetypeTableRecord
  2
AI-Linetype-8
 70
     0
  3
Adobe Illustrator Linetype No. 8
 72
    65
 73
     6
 40
45.35714174037394
 49
22.67857103840452
 74
     0
 49
-4.535714140393883
 74
     0
 49
4.535714140393883
 74
     0
 49
-4.535714140393883
 74
     0
 49
4.535714140393883
 74
     0
 49
-4.535714140393883
 74
     0
  0
LTYPE
  5
121
330
5
100
AcDbSymbolTableRecord
100
AcDbLinetypeTableRecord
  2
AI-Linetype-9
 70
     0
  3
Adobe Illustrator Linetype No. 9
 72
    65
 73
     6
 40
45.35714174037394
 49
22.67857103840452
 74
     0
 49
-4.535714140393883
 74
     0
 49
4.535714140393883
 74
     0
 49
-4.535714140393883
 74
     0
 49
4.535714140393883
 74
     0
 49
-4.535714140393883
 74
     0
  0
LTYPE
  5
123
330
5
100
AcDbSymbolTableRecord
100
AcDbLinetypeTableRecord
  2
AI-Linetype-10
 70
     0
  3
Adobe Illustrator Linetype No. 10
 72
    65
 73
     6
 40
45.35714174037394
 49
22.67857103840452
 74
     0
 49
-4.535714140393883
 74
     0
 49
4.535714140393883
 74
     0
 49
-4.535714140393883
 74
     0
 49
4.535714140393883
 74
     0
 49
-4.535714140393883
 74
     0
  0
LTYPE
  5
125
330
5
100
AcDbSymbolTableRecord
100
AcDbLinetypeTableRecord
  2
AI-Linetype-11
 70
     0
  3
Adobe Illustrator Linetype No. 11
 72
    65
 73
     6
 40
45.35714174037394
 49
22.67857103840452
 74
     0
 49
-4.535714140393883
 74
     0
 49
4.535714140393883
 74
     0
 49
-4.535714140393883
 74
     0
 49
4.535714140393883
 74
     0
 49
-4.535714140393883
 74
     0
  0
LTYPE
  5
127
330
5
100
AcDbSymbolTableRecord
100
AcDbLinetypeTableRecord
  2
AI-Linetype-12
 70
     0
  3
Adobe Illustrator Linetype No. 12
 72
    65
 73
     6
 40
45.35714174037394
 49
22.67857103840452
 74
     0
 49
-4.535714140393883
 74
     0
 49
4.535714140393883
 74
     0
 49
-4.535714140393883
 74
     0
 49
4.535714140393883
 74
     0
 49
-4.535714140393883
 74
     0
  0
LTYPE
  5
129
330
5
100
AcDbSymbolTableRecord
100
AcDbLinetypeTableRecord
  2
AI-Linetype-13
 70
     0
  3
Adobe Illustrator Linetype No. 13
 72
    65
 73
     6
 40
45.35714174037394
 49
22.67857103840452
 74
     0
 49
-4.535714140393883
 74
     0
 49
4.535714140393883
 74
     0
 49
-4.535714140393883
 74
     0
 49
4.535714140393883
 74
     0
 49
-4.535714140393883
 74
     0
  0
LTYPE
  5
12B
330
5
100
AcDbSymbolTableRecord
100
AcDbLinetypeTableRecord
  2
AI-Linetype-14
 70
     0
  3
Adobe Illustrator Linetype No. 14
 72
    65
 73
     6
 40
45.35714174037394
 49
22.67857103840452
 74
     0
 49
-4.535714140393883
 74
     0
 49
4.535714140393883
 74
     0
 49
-4.535714140393883
 74
     0
 49
4.535714140393883
 74
     0
 49
-4.535714140393883
 74
     0
  0
LTYPE
  5
12D
330
5
100
AcDbSymbolTableRecord
100
AcDbLinetypeTableRecord
  2
AI-Linetype-15
 70
     0
  3
Adobe Illustrator Linetype No. 15
 72
    65
 73
     6
 40
45.35714174037394
 49
22.67857103840452
 74
     0
 49
-4.535714140393883
 74
     0
 49
4.535714140393883
 74
     0
 49
-4.535714140393883
 74
     0
 49
4.535714140393883
 74
     0
 49
-4.535714140393883
 74
     0
  0
LTYPE
  5
12F
330
5
100
AcDbSymbolTableRecord
100
AcDbLinetypeTableRecord
  2
AI-Linetype-16
 70
     0
  3
Adobe Illustrator Linetype No. 16
 72
    65
 73
     6
 40
45.35714174037394
 49
22.67857103840452
 74
     0
 49
-4.535714140393883
 74
     0
 49
4.535714140393883
 74
     0
 49
-4.535714140393883
 74
     0
 49
4.535714140393883
 74
     0
 49
-4.535714140393883
 74
     0
  0
LTYPE
  5
131
330
5
100
AcDbSymbolTableRecord
100
AcDbLinetypeTableRecord
  2
AI-Linetype-17
 70
     0
  3
Adobe Illustrator Linetype No. 17
 72
    65
 73
     6
 40
45.35714174037394
 49
22.67857103840452
 74
     0
 49
-4.535714140393883
 74
     0
 49
4.535714140393883
 74
     0
 49
-4.535714140393883
 74
     0
 49
4.535714140393883
 74
     0
 49
-4.535714140393883
 74
     0
  0
LTYPE
  5
133
330
5
100
AcDbSymbolTableRecord
100
AcDbLinetypeTableRecord
  2
AI-Linetype-18
 70
     0
  3
Adobe Illustrator Linetype No. 18
 72
    65
 73
     6
 40
45.35714174037394
 49
22.67857103840452
 74
     0
 49
-4.535714140393883
 74
     0
 49
4.535714140393883
 74
     0
 49
-4.535714140393883
 74
     0
 49
4.535714140393883
 74
     0
 49
-4.535714140393883
 74
     0
  0
LTYPE
  5
135
330
5
100
AcDbSymbolTableRecord
100
AcDbLinetypeTableRecord
  2
AI-Linetype-19
 70
     0
  3
Adobe Illustrator Linetype No. 19
 72
    65
 73
     6
 40
45.35714174037394
 49
22.67857103840452
 74
     0
 49
-4.535714140393883
 74
     0
 49
4.535714140393883
 74
     0
 49
-4.535714140393883
 74
     0
 49
4.535714140393883
 74
     0
 49
-4.535714140393883
 74
     0
  0
LTYPE
  5
137
330
5
100
AcDbSymbolTableRecord
100
AcDbLinetypeTableRecord
  2
AI-Linetype-20
 70
     0
  3
Adobe Illustrator Linetype No. 20
 72
    65
 73
     6
 40
45.35714174037394
 49
22.67857103840452
 74
     0
 49
-4.535714140393883
 74
     0
 49
4.535714140393883
 74
     0
 49
-4.535714140393883
 74
     0
 49
4.535714140393883
 74
     0
 49
-4.535714140393883
 74
     0
  0
LTYPE
  5
139
330
5
100
AcDbSymbolTableRecord
100
AcDbLinetypeTableRecord
  2
AI-Linetype-21
 70
     0
  3
Adobe Illustrator Linetype No. 21
 72
    65
 73
     6
 40
45.35714174037394
 49
22.67857103840452
 74
     0
 49
-4.535714140393883
 74
     0
 49
4.535714140393883
 74
     0
 49
-4.535714140393883
 74
     0
 49
4.535714140393883
 74
     0
 49
-4.535714140393883
 74
     0
  0
LTYPE
  5
13B
330
5
100
AcDbSymbolTableRecord
100
AcDbLinetypeTableRecord
  2
AI-Linetype-22
 70
     0
  3
Adobe Illustrator Linetype No. 22
 72
    65
 73
     6
 40
45.35714174037394
 49
22.67857103840452
 74
     0
 49
-4.535714140393883
 74
     0
 49
4.535714140393883
 74
     0
 49
-4.535714140393883
 74
     0
 49
4.535714140393883
 74
     0
 49
-4.535714140393883
 74
     0
  0
LTYPE
  5
13D
330
5
100
AcDbSymbolTableRecord
100
AcDbLinetypeTableRecord
  2
AI-Linetype-23
 70
     0
  3
Adobe Illustrator Linetype No. 23
 72
    65
 73
     6
 40
45.35714174037394
 49
22.67857103840452
 74
     0
 49
-4.535714140393883
 74
     0
 49
4.535714140393883
 74
     0
 49
-4.535714140393883
 74
     0
 49
4.535714140393883
 74
     0
 49
-4.535714140393883
 74
     0
  0
LTYPE
  5
13F
330
5
100
AcDbSymbolTableRecord
100
AcDbLinetypeTableRecord
  2
AI-Linetype-24
 70
     0
  3
Adobe Illustrator Linetype No. 24
 72
    65
 73
     6
 40
45.35714174037394
 49
22.67857103840452
 74
     0
 49
-4.535714140393883
 74
     0
 49
4.535714140393883
 74
     0
 49
-4.535714140393883
 74
     0
 49
4.535714140393883
 74
     0
 49
-4.535714140393883
 74
     0
  0
LTYPE
  5
141
330
5
100
AcDbSymbolTableRecord
100
AcDbLinetypeTableRecord
  2
AI-Linetype-25
 70
     0
  3
Adobe Illustrator Linetype No. 25
 72
    65
 73
     6
 40
45.35714174037394
 49
22.67857103840452
 74
     0
 49
-4.535714140393883
 74
     0
 49
4.535714140393883
 74
     0
 49
-4.535714140393883
 74
     0
 49
4.535714140393883
 74
     0
 49
-4.535714140393883
 74
     0
  0
LTYPE
  5
143
330
5
100
AcDbSymbolTableRecord
100
AcDbLinetypeTableRecord
  2
AI-Linetype-26
 70
     0
  3
Adobe Illustrator Linetype No. 26
 72
    65
 73
     6
 40
45.35714174037394
 49
22.67857103840452
 74
     0
 49
-4.535714140393883
 74
     0
 49
4.535714140393883
 74
     0
 49
-4.535714140393883
 74
     0
 49
4.535714140393883
 74
     0
 49
-4.535714140393883
 74
     0
  0
LTYPE
  5
145
330
5
100
AcDbSymbolTableRecord
100
AcDbLinetypeTableRecord
  2
AI-Linetype-27
 70
     0
  3
Adobe Illustrator Linetype No. 27
 72
    65
 73
     6
 40
45.35714174037394
 49
22.67857103840452
 74
     0
 49
-4.535714140393883
 74
     0
 49
4.535714140393883
 74
     0
 49
-4.535714140393883
 74
     0
 49
4.535714140393883
 74
     0
 49
-4.535714140393883
 74
     0
  0
LTYPE
  5
147
330
5
100
AcDbSymbolTableRecord
100
AcDbLinetypeTableRecord
  2
AI-Linetype-28
 70
     0
  3
Adobe Illustrator Linetype No. 28
 72
    65
 73
     6
 40
45.35714174037394
 49
22.67857103840452
 74
     0
 49
-4.535714140393883
 74
     0
 49
4.535714140393883
 74
     0
 49
-4.535714140393883
 74
     0
 49
4.535714140393883
 74
     0
 49
-4.535714140393883
 74
     0
  0
LTYPE
  5
149
330
5
100
AcDbSymbolTableRecord
100
AcDbLinetypeTableRecord
  2
AI-Linetype-29
 70
     0
  3
Adobe Illustrator Linetype No. 29
 72
    65
 73
     6
 40
45.35714174037394
 49
22.67857103840452
 74
     0
 49
-4.535714140393883
 74
     0
 49
4.535714140393883
 74
     0
 49
-4.535714140393883
 74
     0
 49
4.535714140393883
 74
     0
 49
-4.535714140393883
 74
     0
  0
LTYPE
  5
14B
330
5
100
AcDbSymbolTableRecord
100
AcDbLinetypeTableRecord
  2
AI-Linetype-30
 70
     0
  3
Adobe Illustrator Linetype No. 30
 72
    65
 73
     6
 40
45.35714174037394
 49
22.67857103840452
 74
     0
 49
-4.535714140393883
 74
     0
 49
4.535714140393883
 74
     0
 49
-4.535714140393883
 74
     0
 49
4.535714140393883
 74
     0
 49
-4.535714140393883
 74
     0
  0
LTYPE
  5
14D
330
5
100
AcDbSymbolTableRecord
100
AcDbLinetypeTableRecord
  2
AI-Linetype-31
 70
     0
  3
Adobe Illustrator Linetype No. 31
 72
    65
 73
     6
 40
45.35714174037394
 49
22.67857103840452
 74
     0
 49
-4.535714140393883
 74
     0
 49
4.535714140393883
 74
     0
 49
-4.535714140393883
 74
     0
 49
4.535714140393883
 74
     0
 49
-4.535714140393883
 74
     0
  0
LTYPE
  5
14F
330
5
100
AcDbSymbolTableRecord
100
AcDbLinetypeTableRecord
  2
AI-Linetype-32
 70
     0
  3
Adobe Illustrator Linetype No. 32
 72
    65
 73
     6
 40
45.35714174037394
 49
22.67857103840452
 74
     0
 49
-4.535714140393883
 74
     0
 49
4.535714140393883
 74
     0
 49
-4.535714140393883
 74
     0
 49
4.535714140393883
 74
     0
 49
-4.535714140393883
 74
     0
  0
LTYPE
  5
151
330
5
100
AcDbSymbolTableRecord
100
AcDbLinetypeTableRecord
  2
AI-Linetype-33
 70
     0
  3
Adobe Illustrator Linetype No. 33
 72
    65
 73
     6
 40
45.35714174037394
 49
22.67857103840452
 74
     0
 49
-4.535714140393883
 74
     0
 49
4.535714140393883
 74
     0
 49
-4.535714140393883
 74
     0
 49
4.535714140393883
 74
     0
 49
-4.535714140393883
 74
     0
  0
LTYPE
  5
153
330
5
100
AcDbSymbolTableRecord
100
AcDbLinetypeTableRecord
  2
AI-Linetype-34
 70
     0
  3
Adobe Illustrator Linetype No. 34
 72
    65
 73
     6
 40
45.35714174037394
 49
22.67857103840452
 74
     0
 49
-4.535714140393883
 74
     0
 49
4.535714140393883
 74
     0
 49
-4.535714140393883
 74
     0
 49
4.535714140393883
 74
     0
 49
-4.535714140393883
 74
     0
  0
LTYPE
  5
155
330
5
100
AcDbSymbolTableRecord
100
AcDbLinetypeTableRecord
  2
AI-Linetype-35
 70
     0
  3
Adobe Illustrator Linetype No. 35
 72
    65
 73
     6
 40
45.35714174037394
 49
22.67857103840452
 74
     0
 49
-4.535714140393883
 74
     0
 49
4.535714140393883
 74
     0
 49
-4.535714140393883
 74
     0
 49
4.535714140393883
 74
     0
 49
-4.535714140393883
 74
     0
  0
LTYPE
  5
157
330
5
100
AcDbSymbolTableRecord
100
AcDbLinetypeTableRecord
  2
AI-Linetype-36
 70
     0
  3
Adobe Illustrator Linetype No. 36
 72
    65
 73
     6
 40
45.35714174037394
 49
22.67857103840452
 74
     0
 49
-4.535714140393883
 74
     0
 49
4.535714140393883
 74
     0
 49
-4.535714140393883
 74
     0
 49
4.535714140393883
 74
     0
 49
-4.535714140393883
 74
     0
  0
LTYPE
  5
159
330
5
100
AcDbSymbolTableRecord
100
AcDbLinetypeTableRecord
  2
AI-Linetype-37
 70
     0
  3
Adobe Illustrator Linetype No. 37
 72
    65
 73
     6
 40
45.35714174037394
 49
22.67857103840452
 74
     0
 49
-4.535714140393883
 74
     0
 49
4.535714140393883
 74
     0
 49
-4.535714140393883
 74
     0
 49
4.535714140393883
 74
     0
 49
-4.535714140393883
 74
     0
  0
LTYPE
  5
15B
330
5
100
AcDbSymbolTableRecord
100
AcDbLinetypeTableRecord
  2
AI-Linetype-38
 70
     0
  3
Adobe Illustrator Linetype No. 38
 72
    65
 73
     6
 40
45.35714174037394
 49
22.67857103840452
 74
     0
 49
-4.535714140393883
 74
     0
 49
4.535714140393883
 74
     0
 49
-4.535714140393883
 74
     0
 49
4.535714140393883
 74
     0
 49
-4.535714140393883
 74
     0
  0
LTYPE
  5
15D
330
5
100
AcDbSymbolTableRecord
100
AcDbLinetypeTableRecord
  2
AI-Linetype-39
 70
     0
  3
Adobe Illustrator Linetype No. 39
 72
    65
 73
     6
 40
45.35714174037394
 49
22.67857103840452
 74
     0
 49
-4.535714140393883
 74
     0
 49
4.535714140393883
 74
     0
 49
-4.535714140393883
 74
     0
 49
4.535714140393883
 74
     0
 49
-4.535714140393883
 74
     0
  0
LTYPE
  5
15F
330
5
100
AcDbSymbolTableRecord
100
AcDbLinetypeTableRecord
  2
AI-Linetype-40
 70
     0
  3
Adobe Illustrator Linetype No. 40
 72
    65
 73
     6
 40
45.35714174037394
 49
22.67857103840452
 74
     0
 49
-4.535714140393883
 74
     0
 49
4.535714140393883
 74
     0
 49
-4.535714140393883
 74
     0
 49
4.535714140393883
 74
     0
 49
-4.535714140393883
 74
     0
  0
LTYPE
  5
161
330
5
100
AcDbSymbolTableRecord
100
AcDbLinetypeTableRecord
  2
AI-Linetype-41
 70
     0
  3
Adobe Illustrator Linetype No. 41
 72
    65
 73
     6
 40
45.35714174037394
 49
22.67857103840452
 74
     0
 49
-4.535714140393883
 74
     0
 49
4.535714140393883
 74
     0
 49
-4.535714140393883
 74
     0
 49
4.535714140393883
 74
     0
 49
-4.535714140393883
 74
     0
  0
LTYPE
  5
163
330
5
100
AcDbSymbolTableRecord
100
AcDbLinetypeTableRecord
  2
AI-Linetype-42
 70
     0
  3
Adobe Illustrator Linetype No. 42
 72
    65
 73
     6
 40
45.35714174037394
 49
22.67857103840452
 74
     0
 49
-4.535714140393883
 74
     0
 49
4.535714140393883
 74
     0
 49
-4.535714140393883
 74
     0
 49
4.535714140393883
 74
     0
 49
-4.535714140393883
 74
     0
  0
LTYPE
  5
165
330
5
100
AcDbSymbolTableRecord
100
AcDbLinetypeTableRecord
  2
AI-Linetype-43
 70
     0
  3
Adobe Illustrator Linetype No. 43
 72
    65
 73
     6
 40
45.35714174037394
 49
22.67857103840452
 74
     0
 49
-4.535714140393883
 74
     0
 49
4.535714140393883
 74
     0
 49
-4.535714140393883
 74
     0
 49
4.535714140393883
 74
     0
 49
-4.535714140393883
 74
     0
  0
LTYPE
  5
167
330
5
100
AcDbSymbolTableRecord
100
AcDbLinetypeTableRecord
  2
AI-Linetype-44
 70
     0
  3
Adobe Illustrator Linetype No. 44
 72
    65
 73
     6
 40
45.35714174037394
 49
22.67857103840452
 74
     0
 49
-4.535714140393883
 74
     0
 49
4.535714140393883
 74
     0
 49
-4.535714140393883
 74
     0
 49
4.535714140393883
 74
     0
 49
-4.535714140393883
 74
     0
  0
LTYPE
  5
169
330
5
100
AcDbSymbolTableRecord
100
AcDbLinetypeTableRecord
  2
AI-Linetype-45
 70
     0
  3
Adobe Illustrator Linetype No. 45
 72
    65
 73
     6
 40
45.35714174037394
 49
22.67857103840452
 74
     0
 49
-4.535714140393883
 74
     0
 49
4.535714140393883
 74
     0
 49
-4.535714140393883
 74
     0
 49
4.535714140393883
 74
     0
 49
-4.535714140393883
 74
     0
  0
LTYPE
  5
16B
330
5
100
AcDbSymbolTableRecord
100
AcDbLinetypeTableRecord
  2
AI-Linetype-46
 70
     0
  3
Adobe Illustrator Linetype No. 46
 72
    65
 73
     6
 40
45.35714174037394
 49
22.67857103840452
 74
     0
 49
-4.535714140393883
 74
     0
 49
4.535714140393883
 74
     0
 49
-4.535714140393883
 74
     0
 49
4.535714140393883
 74
     0
 49
-4.535714140393883
 74
     0
  0
LTYPE
  5
16D
330
5
100
AcDbSymbolTableRecord
100
AcDbLinetypeTableRecord
  2
AI-Linetype-47
 70
     0
  3
Adobe Illustrator Linetype No. 47
 72
    65
 73
     6
 40
45.35714174037394
 49
22.67857103840452
 74
     0
 49
-4.535714140393883
 74
     0
 49
4.535714140393883
 74
     0
 49
-4.535714140393883
 74
     0
 49
4.535714140393883
 74
     0
 49
-4.535714140393883
 74
     0
  0
LTYPE
  5
16F
330
5
100
AcDbSymbolTableRecord
100
AcDbLinetypeTableRecord
  2
AI-Linetype-48
 70
     0
  3
Adobe Illustrator Linetype No. 48
 72
    65
 73
     6
 40
45.35714174037394
 49
22.67857103840452
 74
     0
 49
-4.535714140393883
 74
     0
 49
4.535714140393883
 74
     0
 49
-4.535714140393883
 74
     0
 49
4.535714140393883
 74
     0
 49
-4.535714140393883
 74
     0
  0
LTYPE
  5
171
330
5
100
AcDbSymbolTableRecord
100
AcDbLinetypeTableRecord
  2
AI-Linetype-49
 70
     0
  3
Adobe Illustrator Linetype No. 49
 72
    65
 73
     6
 40
45.35714174037394
 49
22.67857103840452
 74
     0
 49
-4.535714140393883
 74
     0
 49
4.535714140393883
 74
     0
 49
-4.535714140393883
 74
     0
 49
4.535714140393883
 74
     0
 49
-4.535714140393883
 74
     0
  0
LTYPE
  5
173
330
5
100
AcDbSymbolTableRecord
100
AcDbLinetypeTableRecord
  2
AI-Linetype-50
 70
     0
  3
Adobe Illustrator Linetype No. 50
 72
    65
 73
     6
 40
45.35714174037394
 49
22.67857103840452
 74
     0
 49
-4.535714140393883
 74
     0
 49
4.535714140393883
 74
     0
 49
-4.535714140393883
 74
     0
 49
4.535714140393883
 74
     0
 49
-4.535714140393883
 74
     0
  0
LTYPE
  5
175
330
5
100
AcDbSymbolTableRecord
100
AcDbLinetypeTableRecord
  2
AI-Linetype-51
 70
     0
  3
Adobe Illustrator Linetype No. 51
 72
    65
 73
     6
 40
45.35714174037394
 49
22.67857103840452
 74
     0
 49
-4.535714140393883
 74
     0
 49
4.535714140393883
 74
     0
 49
-4.535714140393883
 74
     0
 49
4.535714140393883
 74
     0
 49
-4.535714140393883
 74
     0
  0
LTYPE
  5
177
330
5
100
AcDbSymbolTableRecord
100
AcDbLinetypeTableRecord
  2
AI-Linetype-52
 70
     0
  3
Adobe Illustrator Linetype No. 52
 72
    65
 73
     6
 40
45.35714174037394
 49
22.67857103840452
 74
     0
 49
-4.535714140393883
 74
     0
 49
4.535714140393883
 74
     0
 49
-4.535714140393883
 74
     0
 49
4.535714140393883
 74
     0
 49
-4.535714140393883
 74
     0
  0
LTYPE
  5
179
330
5
100
AcDbSymbolTableRecord
100
AcDbLinetypeTableRecord
  2
AI-Linetype-53
 70
     0
  3
Adobe Illustrator Linetype No. 53
 72
    65
 73
     6
 40
45.35714174037394
 49
22.67857103840452
 74
     0
 49
-4.535714140393883
 74
     0
 49
4.535714140393883
 74
     0
 49
-4.535714140393883
 74
     0
 49
4.535714140393883
 74
     0
 49
-4.535714140393883
 74
     0
  0
LTYPE
  5
17B
330
5
100
AcDbSymbolTableRecord
100
AcDbLinetypeTableRecord
  2
AI-Linetype-54
 70
     0
  3
Adobe Illustrator Linetype No. 54
 72
    65
 73
     6
 40
45.35714174037394
 49
22.67857103840452
 74
     0
 49
-4.535714140393883
 74
     0
 49
4.535714140393883
 74
     0
 49
-4.535714140393883
 74
     0
 49
4.535714140393883
 74
     0
 49
-4.535714140393883
 74
     0
  0
LTYPE
  5
17D
330
5
100
AcDbSymbolTableRecord
100
AcDbLinetypeTableRecord
  2
AI-Linetype-55
 70
     0
  3
Adobe Illustrator Linetype No. 55
 72
    65
 73
     6
 40
45.35714174037394
 49
22.67857103840452
 74
     0
 49
-4.535714140393883
 74
     0
 49
4.535714140393883
 74
     0
 49
-4.535714140393883
 74
     0
 49
4.535714140393883
 74
     0
 49
-4.535714140393883
 74
     0
  0
LTYPE
  5
17F
330
5
100
AcDbSymbolTableRecord
100
AcDbLinetypeTableRecord
  2
AI-Linetype-56
 70
     0
  3
Adobe Illustrator Linetype No. 56
 72
    65
 73
     6
 40
45.35714174037394
 49
22.67857103840452
 74
     0
 49
-4.535714140393883
 74
     0
 49
4.535714140393883
 74
     0
 49
-4.535714140393883
 74
     0
 49
4.535714140393883
 74
     0
 49
-4.535714140393883
 74
     0
  0
LTYPE
  5
181
330
5
100
AcDbSymbolTableRecord
100
AcDbLinetypeTableRecord
  2
AI-Linetype-57
 70
     0
  3
Adobe Illustrator Linetype No. 57
 72
    65
 73
     6
 40
45.35714174037394
 49
22.67857103840452
 74
     0
 49
-4.535714140393883
 74
     0
 49
4.535714140393883
 74
     0
 49
-4.535714140393883
 74
     0
 49
4.535714140393883
 74
     0
 49
-4.535714140393883
 74
     0
  0
LTYPE
  5
183
330
5
100
AcDbSymbolTableRecord
100
AcDbLinetypeTableRecord
  2
AI-Linetype-58
 70
     0
  3
Adobe Illustrator Linetype No. 58
 72
    65
 73
     6
 40
45.35714174037394
 49
22.67857103840452
 74
     0
 49
-4.535714140393883
 74
     0
 49
4.535714140393883
 74
     0
 49
-4.535714140393883
 74
     0
 49
4.535714140393883
 74
     0
 49
-4.535714140393883
 74
     0
  0
LTYPE
  5
185
330
5
100
AcDbSymbolTableRecord
100
AcDbLinetypeTableRecord
  2
AI-Linetype-59
 70
     0
  3
Adobe Illustrator Linetype No. 59
 72
    65
 73
     6
 40
45.35714174037394
 49
22.67857103840452
 74
     0
 49
-4.535714140393883
 74
     0
 49
4.535714140393883
 74
     0
 49
-4.535714140393883
 74
     0
 49
4.535714140393883
 74
     0
 49
-4.535714140393883
 74
     0
  0
LTYPE
  5
187
330
5
100
AcDbSymbolTableRecord
100
AcDbLinetypeTableRecord
  2
AI-Linetype-60
 70
     0
  3
Adobe Illustrator Linetype No. 60
 72
    65
 73
     6
 40
45.35714174037394
 49
22.67857103840452
 74
     0
 49
-4.535714140393883
 74
     0
 49
4.535714140393883
 74
     0
 49
-4.535714140393883
 74
     0
 49
4.535714140393883
 74
     0
 49
-4.535714140393883
 74
     0
  0
LTYPE
  5
189
330
5
100
AcDbSymbolTableRecord
100
AcDbLinetypeTableRecord
  2
AI-Linetype-61
 70
     0
  3
Adobe Illustrator Linetype No. 61
 72
    65
 73
     6
 40
45.35714174037394
 49
22.67857103840452
 74
     0
 49
-4.535714140393883
 74
     0
 49
4.535714140393883
 74
     0
 49
-4.535714140393883
 74
     0
 49
4.535714140393883
 74
     0
 49
-4.535714140393883
 74
     0
  0
LTYPE
  5
18B
330
5
100
AcDbSymbolTableRecord
100
AcDbLinetypeTableRecord
  2
AI-Linetype-62
 70
     0
  3
Adobe Illustrator Linetype No. 62
 72
    65
 73
     6
 40
45.35714174037394
 49
22.67857103840452
 74
     0
 49
-4.535714140393883
 74
     0
 49
4.535714140393883
 74
     0
 49
-4.535714140393883
 74
     0
 49
4.535714140393883
 74
     0
 49
-4.535714140393883
 74
     0
  0
LTYPE
  5
18D
330
5
100
AcDbSymbolTableRecord
100
AcDbLinetypeTableRecord
  2
AI-Linetype-63
 70
     0
  3
Adobe Illustrator Linetype No. 63
 72
    65
 73
     6
 40
45.35714174037394
 49
22.67857103840452
 74
     0
 49
-4.535714140393883
 74
     0
 49
4.535714140393883
 74
     0
 49
-4.535714140393883
 74
     0
 49
4.535714140393883
 74
     0
 49
-4.535714140393883
 74
     0
  0
LTYPE
  5
18F
330
5
100
AcDbSymbolTableRecord
100
AcDbLinetypeTableRecord
  2
AI-Linetype-64
 70
     0
  3
Adobe Illustrator Linetype No. 64
 72
    65
 73
     6
 40
45.35714174037394
 49
22.67857103840452
 74
     0
 49
-4.535714140393883
 74
     0
 49
4.535714140393883
 74
     0
 49
-4.535714140393883
 74
     0
 49
4.535714140393883
 74
     0
 49
-4.535714140393883
 74
     0
  0
LTYPE
  5
191
330
5
100
AcDbSymbolTableRecord
100
AcDbLinetypeTableRecord
  2
AI-Linetype-65
 70
     0
  3
Adobe Illustrator Linetype No. 65
 72
    65
 73
     6
 40
45.35714174037394
 49
22.67857103840452
 74
     0
 49
-4.535714140393883
 74
     0
 49
4.535714140393883
 74
     0
 49
-4.535714140393883
 74
     0
 49
4.535714140393883
 74
     0
 49
-4.535714140393883
 74
     0
  0
LTYPE
  5
193
330
5
100
AcDbSymbolTableRecord
100
AcDbLinetypeTableRecord
  2
AI-Linetype-66
 70
     0
  3
Adobe Illustrator Linetype No. 66
 72
    65
 73
     6
 40
45.35714174037394
 49
22.67857103840452
 74
     0
 49
-4.535714140393883
 74
     0
 49
4.535714140393883
 74
     0
 49
-4.535714140393883
 74
     0
 49
4.535714140393883
 74
     0
 49
-4.535714140393883
 74
     0
  0
LTYPE
  5
195
330
5
100
AcDbSymbolTableRecord
100
AcDbLinetypeTableRecord
  2
AI-Linetype-67
 70
     0
  3
Adobe Illustrator Linetype No. 67
 72
    65
 73
     6
 40
45.35714174037394
 49
22.67857103840452
 74
     0
 49
-4.535714140393883
 74
     0
 49
4.535714140393883
 74
     0
 49
-4.535714140393883
 74
     0
 49
4.535714140393883
 74
     0
 49
-4.535714140393883
 74
     0
  0
LTYPE
  5
197
330
5
100
AcDbSymbolTableRecord
100
AcDbLinetypeTableRecord
  2
AI-Linetype-68
 70
     0
  3
Adobe Illustrator Linetype No. 68
 72
    65
 73
     6
 40
45.35714174037394
 49
22.67857103840452
 74
     0
 49
-4.535714140393883
 74
     0
 49
4.535714140393883
 74
     0
 49
-4.535714140393883
 74
     0
 49
4.535714140393883
 74
     0
 49
-4.535714140393883
 74
     0
  0
LTYPE
  5
199
330
5
100
AcDbSymbolTableRecord
100
AcDbLinetypeTableRecord
  2
AI-Linetype-69
 70
     0
  3
Adobe Illustrator Linetype No. 69
 72
    65
 73
     6
 40
45.35714174037394
 49
22.67857103840452
 74
     0
 49
-4.535714140393883
 74
     0
 49
4.535714140393883
 74
     0
 49
-4.535714140393883
 74
     0
 49
4.535714140393883
 74
     0
 49
-4.535714140393883
 74
     0
  0
LTYPE
  5
19B
330
5
100
AcDbSymbolTableRecord
100
AcDbLinetypeTableRecord
  2
AI-Linetype-70
 70
     0
  3
Adobe Illustrator Linetype No. 70
 72
    65
 73
     6
 40
45.35714174037394
 49
22.67857103840452
 74
     0
 49
-4.535714140393883
 74
     0
 49
4.535714140393883
 74
     0
 49
-4.535714140393883
 74
     0
 49
4.535714140393883
 74
     0
 49
-4.535714140393883
 74
     0
  0
LTYPE
  5
19D
330
5
100
AcDbSymbolTableRecord
100
AcDbLinetypeTableRecord
  2
AI-Linetype-71
 70
     0
  3
Adobe Illustrator Linetype No. 71
 72
    65
 73
     6
 40
45.35714174037394
 49
22.67857103840452
 74
     0
 49
-4.535714140393883
 74
     0
 49
4.535714140393883
 74
     0
 49
-4.535714140393883
 74
     0
 49
4.535714140393883
 74
     0
 49
-4.535714140393883
 74
     0
  0
LTYPE
  5
19F
330
5
100
AcDbSymbolTableRecord
100
AcDbLinetypeTableRecord
  2
AI-Linetype-72
 70
     0
  3
Adobe Illustrator Linetype No. 72
 72
    65
 73
     6
 40
45.35714174037394
 49
22.67857103840452
 74
     0
 49
-4.535714140393883
 74
     0
 49
4.535714140393883
 74
     0
 49
-4.535714140393883
 74
     0
 49
4.535714140393883
 74
     0
 49
-4.535714140393883
 74
     0
  0
LTYPE
  5
1A1
330
5
100
AcDbSymbolTableRecord
100
AcDbLinetypeTableRecord
  2
AI-Linetype-73
 70
     0
  3
Adobe Illustrator Linetype No. 73
 72
    65
 73
     6
 40
45.35714174037394
 49
22.67857103840452
 74
     0
 49
-4.535714140393883
 74
     0
 49
4.535714140393883
 74
     0
 49
-4.535714140393883
 74
     0
 49
4.535714140393883
 74
     0
 49
-4.535714140393883
 74
     0
  0
LTYPE
  5
1A3
330
5
100
AcDbSymbolTableRecord
100
AcDbLinetypeTableRecord
  2
AI-Linetype-74
 70
     0
  3
Adobe Illustrator Linetype No. 74
 72
    65
 73
     6
 40
45.35714174037394
 49
22.67857103840452
 74
     0
 49
-4.535714140393883
 74
     0
 49
4.535714140393883
 74
     0
 49
-4.535714140393883
 74
     0
 49
4.535714140393883
 74
     0
 49
-4.535714140393883
 74
     0
  0
LTYPE
  5
1A5
330
5
100
AcDbSymbolTableRecord
100
AcDbLinetypeTableRecord
  2
AI-Linetype-75
 70
     0
  3
Adobe Illustrator Linetype No. 75
 72
    65
 73
     6
 40
45.35714174037394
 49
22.67857103840452
 74
     0
 49
-4.535714140393883
 74
     0
 49
4.535714140393883
 74
     0
 49
-4.535714140393883
 74
     0
 49
4.535714140393883
 74
     0
 49
-4.535714140393883
 74
     0
  0
LTYPE
  5
1A7
330
5
100
AcDbSymbolTableRecord
100
AcDbLinetypeTableRecord
  2
AI-Linetype-76
 70
     0
  3
Adobe Illustrator Linetype No. 76
 72
    65
 73
     6
 40
45.35714174037394
 49
22.67857103840452
 74
     0
 49
-4.535714140393883
 74
     0
 49
4.535714140393883
 74
     0
 49
-4.535714140393883
 74
     0
 49
4.535714140393883
 74
     0
 49
-4.535714140393883
 74
     0
  0
LTYPE
  5
1A9
330
5
100
AcDbSymbolTableRecord
100
AcDbLinetypeTableRecord
  2
AI-Linetype-77
 70
     0
  3
Adobe Illustrator Linetype No. 77
 72
    65
 73
     6
 40
45.35714174037394
 49
22.67857103840452
 74
     0
 49
-4.535714140393883
 74
     0
 49
4.535714140393883
 74
     0
 49
-4.535714140393883
 74
     0
 49
4.535714140393883
 74
     0
 49
-4.535714140393883
 74
     0
  0
LTYPE
  5
1AB
330
5
100
AcDbSymbolTableRecord
100
AcDbLinetypeTableRecord
  2
AI-Linetype-78
 70
     0
  3
Adobe Illustrator Linetype No. 78
 72
    65
 73
     6
 40
45.35714174037394
 49
22.67857103840452
 74
     0
 49
-4.535714140393883
 74
     0
 49
4.535714140393883
 74
     0
 49
-4.535714140393883
 74
     0
 49
4.535714140393883
 74
     0
 49
-4.535714140393883
 74
     0
  0
LTYPE
  5
1AD
330
5
100
AcDbSymbolTableRecord
100
AcDbLinetypeTableRecord
  2
AI-Linetype-79
 70
     0
  3
Adobe Illustrator Linetype No. 79
 72
    65
 73
     6
 40
45.35714174037394
 49
22.67857103840452
 74
     0
 49
-4.535714140393883
 74
     0
 49
4.535714140393883
 74
     0
 49
-4.535714140393883
 74
     0
 49
4.535714140393883
 74
     0
 49
-4.535714140393883
 74
     0
  0
LTYPE
  5
1AF
330
5
100
AcDbSymbolTableRecord
100
AcDbLinetypeTableRecord
  2
AI-Linetype-80
 70
     0
  3
Adobe Illustrator Linetype No. 80
 72
    65
 73
     6
 40
45.35714174037394
 49
22.67857103840452
 74
     0
 49
-4.535714140393883
 74
     0
 49
4.535714140393883
 74
     0
 49
-4.535714140393883
 74
     0
 49
4.535714140393883
 74
     0
 49
-4.535714140393883
 74
     0
  0
LTYPE
  5
1B1
330
5
100
AcDbSymbolTableRecord
100
AcDbLinetypeTableRecord
  2
AI-Linetype-81
 70
     0
  3
Adobe Illustrator Linetype No. 81
 72
    65
 73
     6
 40
45.35714174037394
 49
22.67857103840452
 74
     0
 49
-4.535714140393883
 74
     0
 49
4.535714140393883
 74
     0
 49
-4.535714140393883
 74
     0
 49
4.535714140393883
 74
     0
 49
-4.535714140393883
 74
     0
  0
LTYPE
  5
1B3
330
5
100
AcDbSymbolTableRecord
100
AcDbLinetypeTableRecord
  2
AI-Linetype-82
 70
     0
  3
Adobe Illustrator Linetype No. 82
 72
    65
 73
     6
 40
45.35714174037394
 49
22.67857103840452
 74
     0
 49
-4.535714140393883
 74
     0
 49
4.535714140393883
 74
     0
 49
-4.535714140393883
 74
     0
 49
4.535714140393883
 74
     0
 49
-4.535714140393883
 74
     0
  0
LTYPE
  5
1B5
330
5
100
AcDbSymbolTableRecord
100
AcDbLinetypeTableRecord
  2
AI-Linetype-83
 70
     0
  3
Adobe Illustrator Linetype No. 83
 72
    65
 73
     6
 40
45.35714174037394
 49
22.67857103840452
 74
     0
 49
-4.535714140393883
 74
     0
 49
4.535714140393883
 74
     0
 49
-4.535714140393883
 74
     0
 49
4.535714140393883
 74
     0
 49
-4.535714140393883
 74
     0
  0
LTYPE
  5
1B7
330
5
100
AcDbSymbolTableRecord
100
AcDbLinetypeTableRecord
  2
AI-Linetype-84
 70
     0
  3
Adobe Illustrator Linetype No. 84
 72
    65
 73
     6
 40
45.35714174037394
 49
22.67857103840452
 74
     0
 49
-4.535714140393883
 74
     0
 49
4.535714140393883
 74
     0
 49
-4.535714140393883
 74
     0
 49
4.535714140393883
 74
     0
 49
-4.535714140393883
 74
     0
  0
LTYPE
  5
1B9
330
5
100
AcDbSymbolTableRecord
100
AcDbLinetypeTableRecord
  2
AI-Linetype-85
 70
     0
  3
Adobe Illustrator Linetype No. 85
 72
    65
 73
     6
 40
45.35714174037394
 49
22.67857103840452
 74
     0
 49
-4.535714140393883
 74
     0
 49
4.535714140393883
 74
     0
 49
-4.535714140393883
 74
     0
 49
4.535714140393883
 74
     0
 49
-4.535714140393883
 74
     0
  0
LTYPE
  5
1BB
330
5
100
AcDbSymbolTableRecord
100
AcDbLinetypeTableRecord
  2
AI-Linetype-86
 70
     0
  3
Adobe Illustrator Linetype No. 86
 72
    65
 73
     6
 40
45.35714174037394
 49
22.67857103840452
 74
     0
 49
-4.535714140393883
 74
     0
 49
4.535714140393883
 74
     0
 49
-4.535714140393883
 74
     0
 49
4.535714140393883
 74
     0
 49
-4.535714140393883
 74
     0
  0
LTYPE
  5
1BD
330
5
100
AcDbSymbolTableRecord
100
AcDbLinetypeTableRecord
  2
AI-Linetype-87
 70
     0
  3
Adobe Illustrator Linetype No. 87
 72
    65
 73
     6
 40
45.35714174037394
 49
22.67857103840452
 74
     0
 49
-4.535714140393883
 74
     0
 49
4.535714140393883
 74
     0
 49
-4.535714140393883
 74
     0
 49
4.535714140393883
 74
     0
 49
-4.535714140393883
 74
     0
  0
LTYPE
  5
1BF
330
5
100
AcDbSymbolTableRecord
100
AcDbLinetypeTableRecord
  2
AI-Linetype-88
 70
     0
  3
Adobe Illustrator Linetype No. 88
 72
    65
 73
     6
 40
45.35714174037394
 49
22.67857103840452
 74
     0
 49
-4.535714140393883
 74
     0
 49
4.535714140393883
 74
     0
 49
-4.535714140393883
 74
     0
 49
4.535714140393883
 74
     0
 49
-4.535714140393883
 74
     0
  0
LTYPE
  5
1C1
330
5
100
AcDbSymbolTableRecord
100
AcDbLinetypeTableRecord
  2
AI-Linetype-89
 70
     0
  3
Adobe Illustrator Linetype No. 89
 72
    65
 73
     6
 40
45.35714174037394
 49
22.67857103840452
 74
     0
 49
-4.535714140393883
 74
     0
 49
4.535714140393883
 74
     0
 49
-4.535714140393883
 74
     0
 49
4.535714140393883
 74
     0
 49
-4.535714140393883
 74
     0
  0
LTYPE
  5
1C3
330
5
100
AcDbSymbolTableRecord
100
AcDbLinetypeTableRecord
  2
AI-Linetype-90
 70
     0
  3
Adobe Illustrator Linetype No. 90
 72
    65
 73
     6
 40
45.35714174037394
 49
22.67857103840452
 74
     0
 49
-4.535714140393883
 74
     0
 49
4.535714140393883
 74
     0
 49
-4.535714140393883
 74
     0
 49
4.535714140393883
 74
     0
 49
-4.535714140393883
 74
     0
  0
LTYPE
  5
1C5
330
5
100
AcDbSymbolTableRecord
100
AcDbLinetypeTableRecord
  2
AI-Linetype-91
 70
     0
  3
Adobe Illustrator Linetype No. 91
 72
    65
 73
     6
 40
45.35714174037394
 49
22.67857103840452
 74
     0
 49
-4.535714140393883
 74
     0
 49
4.535714140393883
 74
     0
 49
-4.535714140393883
 74
     0
 49
4.535714140393883
 74
     0
 49
-4.535714140393883
 74
     0
  0
LTYPE
  5
1C7
330
5
100
AcDbSymbolTableRecord
100
AcDbLinetypeTableRecord
  2
AI-Linetype-92
 70
     0
  3
Adobe Illustrator Linetype No. 92
 72
    65
 73
     6
 40
45.35714174037394
 49
22.67857103840452
 74
     0
 49
-4.535714140393883
 74
     0
 49
4.535714140393883
 74
     0
 49
-4.535714140393883
 74
     0
 49
4.535714140393883
 74
     0
 49
-4.535714140393883
 74
     0
  0
LTYPE
  5
1C9
330
5
100
AcDbSymbolTableRecord
100
AcDbLinetypeTableRecord
  2
AI-Linetype-93
 70
     0
  3
Adobe Illustrator Linetype No. 93
 72
    65
 73
     6
 40
45.35714174037394
 49
22.67857103840452
 74
     0
 49
-4.535714140393883
 74
     0
 49
4.535714140393883
 74
     0
 49
-4.535714140393883
 74
     0
 49
4.535714140393883
 74
     0
 49
-4.535714140393883
 74
     0
  0
LTYPE
  5
1CB
330
5
100
AcDbSymbolTableRecord
100
AcDbLinetypeTableRecord
  2
AI-Linetype-94
 70
     0
  3
Adobe Illustrator Linetype No. 94
 72
    65
 73
     6
 40
45.35714174037394
 49
22.67857103840452
 74
     0
 49
-4.535714140393883
 74
     0
 49
4.535714140393883
 74
     0
 49
-4.535714140393883
 74
     0
 49
4.535714140393883
 74
     0
 49
-4.535714140393883
 74
     0
  0
LTYPE
  5
1CD
330
5
100
AcDbSymbolTableRecord
100
AcDbLinetypeTableRecord
  2
AI-Linetype-95
 70
     0
  3
Adobe Illustrator Linetype No. 95
 72
    65
 73
     6
 40
45.35714174037394
 49
22.67857103840452
 74
     0
 49
-4.535714140393883
 74
     0
 49
4.535714140393883
 74
     0
 49
-4.535714140393883
 74
     0
 49
4.535714140393883
 74
     0
 49
-4.535714140393883
 74
     0
  0
LTYPE
  5
1CF
330
5
100
AcDbSymbolTableRecord
100
AcDbLinetypeTableRecord
  2
AI-Linetype-96
 70
     0
  3
Adobe Illustrator Linetype No. 96
 72
    65
 73
     6
 40
45.35714174037394
 49
22.67857103840452
 74
     0
 49
-4.535714140393883
 74
     0
 49
4.535714140393883
 74
     0
 49
-4.535714140393883
 74
     0
 49
4.535714140393883
 74
     0
 49
-4.535714140393883
 74
     0
  0
LTYPE
  5
1D1
330
5
100
AcDbSymbolTableRecord
100
AcDbLinetypeTableRecord
  2
AI-Linetype-97
 70
     0
  3
Adobe Illustrator Linetype No. 97
 72
    65
 73
     6
 40
45.35714174037394
 49
22.67857103840452
 74
     0
 49
-4.535714140393883
 74
     0
 49
4.535714140393883
 74
     0
 49
-4.535714140393883
 74
     0
 49
4.535714140393883
 74
     0
 49
-4.535714140393883
 74
     0
  0
LTYPE
  5
1D3
330
5
100
AcDbSymbolTableRecord
100
AcDbLinetypeTableRecord
  2
AI-Linetype-98
 70
     0
  3
Adobe Illustrator Linetype No. 98
 72
    65
 73
     6
 40
45.35714174037394
 49
22.67857103840452
 74
     0
 49
-4.535714140393883
 74
     0
 49
4.535714140393883
 74
     0
 49
-4.535714140393883
 74
     0
 49
4.535714140393883
 74
     0
 49
-4.535714140393883
 74
     0
  0
LTYPE
  5
1D5
330
5
100
AcDbSymbolTableRecord
100
AcDbLinetypeTableRecord
  2
AI-Linetype-99
 70
     0
  3
Adobe Illustrator Linetype No. 99
 72
    65
 73
     6
 40
45.35714174037394
 49
22.67857103840452
 74
     0
 49
-4.535714140393883
 74
     0
 49
4.535714140393883
 74
     0
 49
-4.535714140393883
 74
     0
 49
4.535714140393883
 74
     0
 49
-4.535714140393883
 74
     0
  0
LTYPE
  5
1D7
330
5
100
AcDbSymbolTableRecord
100
AcDbLinetypeTableRecord
  2
AI-Linetype-100
 70
     0
  3
Adobe Illustrator Linetype No. 100
 72
    65
 73
     6
 40
45.35714174037394
 49
22.67857103840452
 74
     0
 49
-4.535714140393883
 74
     0
 49
4.535714140393883
 74
     0
 49
-4.535714140393883
 74
     0
 49
4.535714140393883
 74
     0
 49
-4.535714140393883
 74
     0
  0
LTYPE
  5
1D9
330
5
100
AcDbSymbolTableRecord
100
AcDbLinetypeTableRecord
  2
AI-Linetype-101
 70
     0
  3
Adobe Illustrator Linetype No. 101
 72
    65
 73
     6
 40
45.35714174037394
 49
22.67857103840452
 74
     0
 49
-4.535714140393883
 74
     0
 49
4.535714140393883
 74
     0
 49
-4.535714140393883
 74
     0
 49
4.535714140393883
 74
     0
 49
-4.535714140393883
 74
     0
  0
LTYPE
  5
1DB
330
5
100
AcDbSymbolTableRecord
100
AcDbLinetypeTableRecord
  2
AI-Linetype-102
 70
     0
  3
Adobe Illustrator Linetype No. 102
 72
    65
 73
     6
 40
45.35714174037394
 49
22.67857103840452
 74
     0
 49
-4.535714140393883
 74
     0
 49
4.535714140393883
 74
     0
 49
-4.535714140393883
 74
     0
 49
4.535714140393883
 74
     0
 49
-4.535714140393883
 74
     0
  0
LTYPE
  5
1DD
330
5
100
AcDbSymbolTableRecord
100
AcDbLinetypeTableRecord
  2
AI-Linetype-103
 70
     0
  3
Adobe Illustrator Linetype No. 103
 72
    65
 73
     6
 40
45.35714174037394
 49
22.67857103840452
 74
     0
 49
-4.535714140393883
 74
     0
 49
4.535714140393883
 74
     0
 49
-4.535714140393883
 74
     0
 49
4.535714140393883
 74
     0
 49
-4.535714140393883
 74
     0
  0
LTYPE
  5
1DF
330
5
100
AcDbSymbolTableRecord
100
AcDbLinetypeTableRecord
  2
AI-Linetype-104
 70
     0
  3
Adobe Illustrator Linetype No. 104
 72
    65
 73
     6
 40
45.35714174037394
 49
22.67857103840452
 74
     0
 49
-4.535714140393883
 74
     0
 49
4.535714140393883
 74
     0
 49
-4.535714140393883
 74
     0
 49
4.535714140393883
 74
     0
 49
-4.535714140393883
 74
     0
  0
LTYPE
  5
1E1
330
5
100
AcDbSymbolTableRecord
100
AcDbLinetypeTableRecord
  2
AI-Linetype-105
 70
     0
  3
Adobe Illustrator Linetype No. 105
 72
    65
 73
     6
 40
45.35714174037394
 49
22.67857103840452
 74
     0
 49
-4.535714140393883
 74
     0
 49
4.535714140393883
 74
     0
 49
-4.535714140393883
 74
     0
 49
4.535714140393883
 74
     0
 49
-4.535714140393883
 74
     0
  0
LTYPE
  5
1E3
330
5
100
AcDbSymbolTableRecord
100
AcDbLinetypeTableRecord
  2
AI-Linetype-106
 70
     0
  3
Adobe Illustrator Linetype No. 106
 72
    65
 73
     6
 40
45.35714174037394
 49
22.67857103840452
 74
     0
 49
-4.535714140393883
 74
     0
 49
4.535714140393883
 74
     0
 49
-4.535714140393883
 74
     0
 49
4.535714140393883
 74
     0
 49
-4.535714140393883
 74
     0
  0
LTYPE
  5
1E5
330
5
100
AcDbSymbolTableRecord
100
AcDbLinetypeTableRecord
  2
AI-Linetype-107
 70
     0
  3
Adobe Illustrator Linetype No. 107
 72
    65
 73
     6
 40
45.35714174037394
 49
22.67857103840452
 74
     0
 49
-4.535714140393883
 74
     0
 49
4.535714140393883
 74
     0
 49
-4.535714140393883
 74
     0
 49
4.535714140393883
 74
     0
 49
-4.535714140393883
 74
     0
  0
LTYPE
  5
1E7
330
5
100
AcDbSymbolTableRecord
100
AcDbLinetypeTableRecord
  2
AI-Linetype-108
 70
     0
  3
Adobe Illustrator Linetype No. 108
 72
    65
 73
     6
 40
45.35714174037394
 49
22.67857103840452
 74
     0
 49
-4.535714140393883
 74
     0
 49
4.535714140393883
 74
     0
 49
-4.535714140393883
 74
     0
 49
4.535714140393883
 74
     0
 49
-4.535714140393883
 74
     0
  0
LTYPE
  5
1E9
330
5
100
AcDbSymbolTableRecord
100
AcDbLinetypeTableRecord
  2
AI-Linetype-109
 70
     0
  3
Adobe Illustrator Linetype No. 109
 72
    65
 73
     6
 40
45.35714174037394
 49
22.67857103840452
 74
     0
 49
-4.535714140393883
 74
     0
 49
4.535714140393883
 74
     0
 49
-4.535714140393883
 74
     0
 49
4.535714140393883
 74
     0
 49
-4.535714140393883
 74
     0
  0
LTYPE
  5
1EB
330
5
100
AcDbSymbolTableRecord
100
AcDbLinetypeTableRecord
  2
AI-Linetype-110
 70
     0
  3
Adobe Illustrator Linetype No. 110
 72
    65
 73
     6
 40
45.35714174037394
 49
22.67857103840452
 74
     0
 49
-4.535714140393883
 74
     0
 49
4.535714140393883
 74
     0
 49
-4.535714140393883
 74
     0
 49
4.535714140393883
 74
     0
 49
-4.535714140393883
 74
     0
  0
LTYPE
  5
1ED
330
5
100
AcDbSymbolTableRecord
100
AcDbLinetypeTableRecord
  2
AI-Linetype-111
 70
     0
  3
Adobe Illustrator Linetype No. 111
 72
    65
 73
     6
 40
45.35714174037394
 49
22.67857103840452
 74
     0
 49
-4.535714140393883
 74
     0
 49
4.535714140393883
 74
     0
 49
-4.535714140393883
 74
     0
 49
4.535714140393883
 74
     0
 49
-4.535714140393883
 74
     0
  0
LTYPE
  5
1EF
330
5
100
AcDbSymbolTableRecord
100
AcDbLinetypeTableRecord
  2
AI-Linetype-112
 70
     0
  3
Adobe Illustrator Linetype No. 112
 72
    65
 73
     6
 40
45.35714174037394
 49
22.67857103840452
 74
     0
 49
-4.535714140393883
 74
     0
 49
4.535714140393883
 74
     0
 49
-4.535714140393883
 74
     0
 49
4.535714140393883
 74
     0
 49
-4.535714140393883
 74
     0
  0
LTYPE
  5
1F1
330
5
100
AcDbSymbolTableRecord
100
AcDbLinetypeTableRecord
  2
AI-Linetype-113
 70
     0
  3
Adobe Illustrator Linetype No. 113
 72
    65
 73
     6
 40
45.35714174037394
 49
22.67857103840452
 74
     0
 49
-4.535714140393883
 74
     0
 49
4.535714140393883
 74
     0
 49
-4.535714140393883
 74
     0
 49
4.535714140393883
 74
     0
 49
-4.535714140393883
 74
     0
  0
LTYPE
  5
1F3
330
5
100
AcDbSymbolTableRecord
100
AcDbLinetypeTableRecord
  2
AI-Linetype-114
 70
     0
  3
Adobe Illustrator Linetype No. 114
 72
    65
 73
     6
 40
45.35714174037394
 49
22.67857103840452
 74
     0
 49
-4.535714140393883
 74
     0
 49
4.535714140393883
 74
     0
 49
-4.535714140393883
 74
     0
 49
4.535714140393883
 74
     0
 49
-4.535714140393883
 74
     0
  0
LTYPE
  5
1F5
330
5
100
AcDbSymbolTableRecord
100
AcDbLinetypeTableRecord
  2
AI-Linetype-115
 70
     0
  3
Adobe Illustrator Linetype No. 115
 72
    65
 73
     6
 40
45.35714174037394
 49
22.67857103840452
 74
     0
 49
-4.535714140393883
 74
     0
 49
4.535714140393883
 74
     0
 49
-4.535714140393883
 74
     0
 49
4.535714140393883
 74
     0
 49
-4.535714140393883
 74
     0
  0
LTYPE
  5
1F7
330
5
100
AcDbSymbolTableRecord
100
AcDbLinetypeTableRecord
  2
AI-Linetype-116
 70
     0
  3
Adobe Illustrator Linetype No. 116
 72
    65
 73
     6
 40
45.35714174037394
 49
22.67857103840452
 74
     0
 49
-4.535714140393883
 74
     0
 49
4.535714140393883
 74
     0
 49
-4.535714140393883
 74
     0
 49
4.535714140393883
 74
     0
 49
-4.535714140393883
 74
     0
  0
LTYPE
  5
1F9
330
5
100
AcDbSymbolTableRecord
100
AcDbLinetypeTableRecord
  2
AI-Linetype-117
 70
     0
  3
Adobe Illustrator Linetype No. 117
 72
    65
 73
     6
 40
45.35714174037394
 49
22.67857103840452
 74
     0
 49
-4.535714140393883
 74
     0
 49
4.535714140393883
 74
     0
 49
-4.535714140393883
 74
     0
 49
4.535714140393883
 74
     0
 49
-4.535714140393883
 74
     0
  0
LTYPE
  5
1FB
330
5
100
AcDbSymbolTableRecord
100
AcDbLinetypeTableRecord
  2
AI-Linetype-118
 70
     0
  3
Adobe Illustrator Linetype No. 118
 72
    65
 73
     6
 40
45.35714174037394
 49
22.67857103840452
 74
     0
 49
-4.535714140393883
 74
     0
 49
4.535714140393883
 74
     0
 49
-4.535714140393883
 74
     0
 49
4.535714140393883
 74
     0
 49
-4.535714140393883
 74
     0
  0
LTYPE
  5
1FD
330
5
100
AcDbSymbolTableRecord
100
AcDbLinetypeTableRecord
  2
AI-Linetype-119
 70
     0
  3
Adobe Illustrator Linetype No. 119
 72
    65
 73
     6
 40
45.35714174037394
 49
22.67857103840452
 74
     0
 49
-4.535714140393883
 74
     0
 49
4.535714140393883
 74
     0
 49
-4.535714140393883
 74
     0
 49
4.535714140393883
 74
     0
 49
-4.535714140393883
 74
     0
  0
LTYPE
  5
1FF
330
5
100
AcDbSymbolTableRecord
100
AcDbLinetypeTableRecord
  2
AI-Linetype-120
 70
     0
  3
Adobe Illustrator Linetype No. 120
 72
    65
 73
     6
 40
45.35714174037394
 49
22.67857103840452
 74
     0
 49
-4.535714140393883
 74
     0
 49
4.535714140393883
 74
     0
 49
-4.535714140393883
 74
     0
 49
4.535714140393883
 74
     0
 49
-4.535714140393883
 74
     0
  0
LTYPE
  5
201
330
5
100
AcDbSymbolTableRecord
100
AcDbLinetypeTableRecord
  2
AI-Linetype-121
 70
     0
  3
Adobe Illustrator Linetype No. 121
 72
    65
 73
     6
 40
45.35714174037394
 49
22.67857103840452
 74
     0
 49
-4.535714140393883
 74
     0
 49
4.535714140393883
 74
     0
 49
-4.535714140393883
 74
     0
 49
4.535714140393883
 74
     0
 49
-4.535714140393883
 74
     0
  0
LTYPE
  5
203
330
5
100
AcDbSymbolTableRecord
100
AcDbLinetypeTableRecord
  2
AI-Linetype-122
 70
     0
  3
Adobe Illustrator Linetype No. 122
 72
    65
 73
     6
 40
45.35714174037394
 49
22.67857103840452
 74
     0
 49
-4.535714140393883
 74
     0
 49
4.535714140393883
 74
     0
 49
-4.535714140393883
 74
     0
 49
4.535714140393883
 74
     0
 49
-4.535714140393883
 74
     0
  0
LTYPE
  5
205
330
5
100
AcDbSymbolTableRecord
100
AcDbLinetypeTableRecord
  2
AI-Linetype-123
 70
     0
  3
Adobe Illustrator Linetype No. 123
 72
    65
 73
     6
 40
45.35714174037394
 49
22.67857103840452
 74
     0
 49
-4.535714140393883
 74
     0
 49
4.535714140393883
 74
     0
 49
-4.535714140393883
 74
     0
 49
4.535714140393883
 74
     0
 49
-4.535714140393883
 74
     0
  0
LTYPE
  5
207
330
5
100
AcDbSymbolTableRecord
100
AcDbLinetypeTableRecord
  2
AI-Linetype-124
 70
     0
  3
Adobe Illustrator Linetype No. 124
 72
    65
 73
     6
 40
45.35714174037394
 49
22.67857103840452
 74
     0
 49
-4.535714140393883
 74
     0
 49
4.535714140393883
 74
     0
 49
-4.535714140393883
 74
     0
 49
4.535714140393883
 74
     0
 49
-4.535714140393883
 74
     0
  0
LTYPE
  5
209
330
5
100
AcDbSymbolTableRecord
100
AcDbLinetypeTableRecord
  2
AI-Linetype-125
 70
     0
  3
Adobe Illustrator Linetype No. 125
 72
    65
 73
     6
 40
45.35714174037394
 49
22.67857103840452
 74
     0
 49
-4.535714140393883
 74
     0
 49
4.535714140393883
 74
     0
 49
-4.535714140393883
 74
     0
 49
4.535714140393883
 74
     0
 49
-4.535714140393883
 74
     0
  0
LTYPE
  5
20B
330
5
100
AcDbSymbolTableRecord
100
AcDbLinetypeTableRecord
  2
AI-Linetype-126
 70
     0
  3
Adobe Illustrator Linetype No. 126
 72
    65
 73
     6
 40
45.35714174037394
 49
22.67857103840452
 74
     0
 49
-4.535714140393883
 74
     0
 49
4.535714140393883
 74
     0
 49
-4.535714140393883
 74
     0
 49
4.535714140393883
 74
     0
 49
-4.535714140393883
 74
     0
  0
LTYPE
  5
20D
330
5
100
AcDbSymbolTableRecord
100
AcDbLinetypeTableRecord
  2
AI-Linetype-127
 70
     0
  3
Adobe Illustrator Linetype No. 127
 72
    65
 73
     6
 40
45.35714174037394
 49
22.67857103840452
 74
     0
 49
-4.535714140393883
 74
     0
 49
4.535714140393883
 74
     0
 49
-4.535714140393883
 74
     0
 49
4.535714140393883
 74
     0
 49
-4.535714140393883
 74
     0
  0
LTYPE
  5
20F
330
5
100
AcDbSymbolTableRecord
100
AcDbLinetypeTableRecord
  2
AI-Linetype-128
 70
     0
  3
Adobe Illustrator Linetype No. 128
 72
    65
 73
     6
 40
45.35714174037394
 49
22.67857103840452
 74
     0
 49
-4.535714140393883
 74
     0
 49
4.535714140393883
 74
     0
 49
-4.535714140393883
 74
     0
 49
4.535714140393883
 74
     0
 49
-4.535714140393883
 74
     0
  0
LTYPE
  5
211
330
5
100
AcDbSymbolTableRecord
100
AcDbLinetypeTableRecord
  2
AI-Linetype-129
 70
     0
  3
Adobe Illustrator Linetype No. 129
 72
    65
 73
     6
 40
45.35714174037394
 49
22.67857103840452
 74
     0
 49
-4.535714140393883
 74
     0
 49
4.535714140393883
 74
     0
 49
-4.535714140393883
 74
     0
 49
4.535714140393883
 74
     0
 49
-4.535714140393883
 74
     0
  0
LTYPE
  5
213
330
5
100
AcDbSymbolTableRecord
100
AcDbLinetypeTableRecord
  2
AI-Linetype-130
 70
     0
  3
Adobe Illustrator Linetype No. 130
 72
    65
 73
     6
 40
45.35714174037394
 49
22.67857103840452
 74
     0
 49
-4.535714140393883
 74
     0
 49
4.535714140393883
 74
     0
 49
-4.535714140393883
 74
     0
 49
4.535714140393883
 74
     0
 49
-4.535714140393883
 74
     0
  0
LTYPE
  5
215
330
5
100
AcDbSymbolTableRecord
100
AcDbLinetypeTableRecord
  2
AI-Linetype-131
 70
     0
  3
Adobe Illustrator Linetype No. 131
 72
    65
 73
     6
 40
45.35714174037394
 49
22.67857103840452
 74
     0
 49
-4.535714140393883
 74
     0
 49
4.535714140393883
 74
     0
 49
-4.535714140393883
 74
     0
 49
4.535714140393883
 74
     0
 49
-4.535714140393883
 74
     0
  0
LTYPE
  5
217
330
5
100
AcDbSymbolTableRecord
100
AcDbLinetypeTableRecord
  2
AI-Linetype-132
 70
     0
  3
Adobe Illustrator Linetype No. 132
 72
    65
 73
     6
 40
45.35714174037394
 49
22.67857103840452
 74
     0
 49
-4.535714140393883
 74
     0
 49
4.535714140393883
 74
     0
 49
-4.535714140393883
 74
     0
 49
4.535714140393883
 74
     0
 49
-4.535714140393883
 74
     0
  0
LTYPE
  5
219
330
5
100
AcDbSymbolTableRecord
100
AcDbLinetypeTableRecord
  2
AI-Linetype-133
 70
     0
  3
Adobe Illustrator Linetype No. 133
 72
    65
 73
     6
 40
45.35714174037394
 49
22.67857103840452
 74
     0
 49
-4.535714140393883
 74
     0
 49
4.535714140393883
 74
     0
 49
-4.535714140393883
 74
     0
 49
4.535714140393883
 74
     0
 49
-4.535714140393883
 74
     0
  0
LTYPE
  5
21B
330
5
100
AcDbSymbolTableRecord
100
AcDbLinetypeTableRecord
  2
AI-Linetype-134
 70
     0
  3
Adobe Illustrator Linetype No. 134
 72
    65
 73
     6
 40
45.35714174037394
 49
22.67857103840452
 74
     0
 49
-4.535714140393883
 74
     0
 49
4.535714140393883
 74
     0
 49
-4.535714140393883
 74
     0
 49
4.535714140393883
 74
     0
 49
-4.535714140393883
 74
     0
  0
LTYPE
  5
21D
330
5
100
AcDbSymbolTableRecord
100
AcDbLinetypeTableRecord
  2
AI-Linetype-135
 70
     0
  3
Adobe Illustrator Linetype No. 135
 72
    65
 73
     6
 40
45.35714174037394
 49
22.67857103840452
 74
     0
 49
-4.535714140393883
 74
     0
 49
4.535714140393883
 74
     0
 49
-4.535714140393883
 74
     0
 49
4.535714140393883
 74
     0
 49
-4.535714140393883
 74
     0
  0
LTYPE
  5
21F
330
5
100
AcDbSymbolTableRecord
100
AcDbLinetypeTableRecord
  2
AI-Linetype-136
 70
     0
  3
Adobe Illustrator Linetype No. 136
 72
    65
 73
     6
 40
45.35714174037394
 49
22.67857103840452
 74
     0
 49
-4.535714140393883
 74
     0
 49
4.535714140393883
 74
     0
 49
-4.535714140393883
 74
     0
 49
4.535714140393883
 74
     0
 49
-4.535714140393883
 74
     0
  0
LTYPE
  5
221
330
5
100
AcDbSymbolTableRecord
100
AcDbLinetypeTableRecord
  2
AI-Linetype-137
 70
     0
  3
Adobe Illustrator Linetype No. 137
 72
    65
 73
     6
 40
45.35714174037394
 49
22.67857103840452
 74
     0
 49
-4.535714140393883
 74
     0
 49
4.535714140393883
 74
     0
 49
-4.535714140393883
 74
     0
 49
4.535714140393883
 74
     0
 49
-4.535714140393883
 74
     0
  0
LTYPE
  5
223
330
5
100
AcDbSymbolTableRecord
100
AcDbLinetypeTableRecord
  2
AI-Linetype-138
 70
     0
  3
Adobe Illustrator Linetype No. 138
 72
    65
 73
     6
 40
45.35714174037394
 49
22.67857103840452
 74
     0
 49
-4.535714140393883
 74
     0
 49
4.535714140393883
 74
     0
 49
-4.535714140393883
 74
     0
 49
4.535714140393883
 74
     0
 49
-4.535714140393883
 74
     0
  0
LTYPE
  5
225
330
5
100
AcDbSymbolTableRecord
100
AcDbLinetypeTableRecord
  2
AI-Linetype-139
 70
     0
  3
Adobe Illustrator Linetype No. 139
 72
    65
 73
     6
 40
45.35714174037394
 49
22.67857103840452
 74
     0
 49
-4.535714140393883
 74
     0
 49
4.535714140393883
 74
     0
 49
-4.535714140393883
 74
     0
 49
4.535714140393883
 74
     0
 49
-4.535714140393883
 74
     0
  0
LTYPE
  5
227
330
5
100
AcDbSymbolTableRecord
100
AcDbLinetypeTableRecord
  2
AI-Linetype-140
 70
     0
  3
Adobe Illustrator Linetype No. 140
 72
    65
 73
     6
 40
45.35714174037394
 49
22.67857103840452
 74
     0
 49
-4.535714140393883
 74
     0
 49
4.535714140393883
 74
     0
 49
-4.535714140393883
 74
     0
 49
4.535714140393883
 74
     0
 49
-4.535714140393883
 74
     0
  0
LTYPE
  5
229
330
5
100
AcDbSymbolTableRecord
100
AcDbLinetypeTableRecord
  2
AI-Linetype-141
 70
     0
  3
Adobe Illustrator Linetype No. 141
 72
    65
 73
     6
 40
45.35714174037394
 49
22.67857103840452
 74
     0
 49
-4.535714140393883
 74
     0
 49
4.535714140393883
 74
     0
 49
-4.535714140393883
 74
     0
 49
4.535714140393883
 74
     0
 49
-4.535714140393883
 74
     0
  0
LTYPE
  5
22B
330
5
100
AcDbSymbolTableRecord
100
AcDbLinetypeTableRecord
  2
AI-Linetype-142
 70
     0
  3
Adobe Illustrator Linetype No. 142
 72
    65
 73
     6
 40
45.35714174037394
 49
22.67857103840452
 74
     0
 49
-4.535714140393883
 74
     0
 49
4.535714140393883
 74
     0
 49
-4.535714140393883
 74
     0
 49
4.535714140393883
 74
     0
 49
-4.535714140393883
 74
     0
  0
LTYPE
  5
22D
330
5
100
AcDbSymbolTableRecord
100
AcDbLinetypeTableRecord
  2
AI-Linetype-143
 70
     0
  3
Adobe Illustrator Linetype No. 143
 72
    65
 73
     6
 40
45.35714174037394
 49
22.67857103840452
 74
     0
 49
-4.535714140393883
 74
     0
 49
4.535714140393883
 74
     0
 49
-4.535714140393883
 74
     0
 49
4.535714140393883
 74
     0
 49
-4.535714140393883
 74
     0
  0
LTYPE
  5
22F
330
5
100
AcDbSymbolTableRecord
100
AcDbLinetypeTableRecord
  2
AI-Linetype-144
 70
     0
  3
Adobe Illustrator Linetype No. 144
 72
    65
 73
     6
 40
45.35714174037394
 49
22.67857103840452
 74
     0
 49
-4.535714140393883
 74
     0
 49
4.535714140393883
 74
     0
 49
-4.535714140393883
 74
     0
 49
4.535714140393883
 74
     0
 49
-4.535714140393883
 74
     0
  0
LTYPE
  5
231
330
5
100
AcDbSymbolTableRecord
100
AcDbLinetypeTableRecord
  2
AI-Linetype-145
 70
     0
  3
Adobe Illustrator Linetype No. 145
 72
    65
 73
     6
 40
45.35714174037394
 49
22.67857103840452
 74
     0
 49
-4.535714140393883
 74
     0
 49
4.535714140393883
 74
     0
 49
-4.535714140393883
 74
     0
 49
4.535714140393883
 74
     0
 49
-4.535714140393883
 74
     0
  0
LTYPE
  5
233
330
5
100
AcDbSymbolTableRecord
100
AcDbLinetypeTableRecord
  2
AI-Linetype-146
 70
     0
  3
Adobe Illustrator Linetype No. 146
 72
    65
 73
     6
 40
45.35714174037394
 49
22.67857103840452
 74
     0
 49
-4.535714140393883
 74
     0
 49
4.535714140393883
 74
     0
 49
-4.535714140393883
 74
     0
 49
4.535714140393883
 74
     0
 49
-4.535714140393883
 74
     0
  0
LTYPE
  5
235
330
5
100
AcDbSymbolTableRecord
100
AcDbLinetypeTableRecord
  2
AI-Linetype-147
 70
     0
  3
Adobe Illustrator Linetype No. 147
 72
    65
 73
     6
 40
45.35714174037394
 49
22.67857103840452
 74
     0
 49
-4.535714140393883
 74
     0
 49
4.535714140393883
 74
     0
 49
-4.535714140393883
 74
     0
 49
4.535714140393883
 74
     0
 49
-4.535714140393883
 74
     0
  0
LTYPE
  5
237
330
5
100
AcDbSymbolTableRecord
100
AcDbLinetypeTableRecord
  2
AI-Linetype-148
 70
     0
  3
Adobe Illustrator Linetype No. 148
 72
    65
 73
     6
 40
45.35714174037394
 49
22.67857103840452
 74
     0
 49
-4.535714140393883
 74
     0
 49
4.535714140393883
 74
     0
 49
-4.535714140393883
 74
     0
 49
4.535714140393883
 74
     0
 49
-4.535714140393883
 74
     0
  0
LTYPE
  5
239
330
5
100
AcDbSymbolTableRecord
100
AcDbLinetypeTableRecord
  2
AI-Linetype-149
 70
     0
  3
Adobe Illustrator Linetype No. 149
 72
    65
 73
     6
 40
45.35714174037394
 49
22.67857103840452
 74
     0
 49
-4.535714140393883
 74
     0
 49
4.535714140393883
 74
     0
 49
-4.535714140393883
 74
     0
 49
4.535714140393883
 74
     0
 49
-4.535714140393883
 74
     0
  0
LTYPE
  5
23B
330
5
100
AcDbSymbolTableRecord
100
AcDbLinetypeTableRecord
  2
AI-Linetype-150
 70
     0
  3
Adobe Illustrator Linetype No. 150
 72
    65
 73
     6
 40
45.35714174037394
 49
22.67857103840452
 74
     0
 49
-4.535714140393883
 74
     0
 49
4.535714140393883
 74
     0
 49
-4.535714140393883
 74
     0
 49
4.535714140393883
 74
     0
 49
-4.535714140393883
 74
     0
  0
LTYPE
  5
23D
330
5
100
AcDbSymbolTableRecord
100
AcDbLinetypeTableRecord
  2
AI-Linetype-151
 70
     0
  3
Adobe Illustrator Linetype No. 151
 72
    65
 73
     6
 40
45.35714174037394
 49
22.67857103840452
 74
     0
 49
-4.535714140393883
 74
     0
 49
4.535714140393883
 74
     0
 49
-4.535714140393883
 74
     0
 49
4.535714140393883
 74
     0
 49
-4.535714140393883
 74
     0
  0
LTYPE
  5
23F
330
5
100
AcDbSymbolTableRecord
100
AcDbLinetypeTableRecord
  2
AI-Linetype-152
 70
     0
  3
Adobe Illustrator Linetype No. 152
 72
    65
 73
     6
 40
45.35714174037394
 49
22.67857103840452
 74
     0
 49
-4.535714140393883
 74
     0
 49
4.535714140393883
 74
     0
 49
-4.535714140393883
 74
     0
 49
4.535714140393883
 74
     0
 49
-4.535714140393883
 74
     0
  0
LTYPE
  5
241
330
5
100
AcDbSymbolTableRecord
100
AcDbLinetypeTableRecord
  2
AI-Linetype-153
 70
     0
  3
Adobe Illustrator Linetype No. 153
 72
    65
 73
     6
 40
45.35714174037394
 49
22.67857103840452
 74
     0
 49
-4.535714140393883
 74
     0
 49
4.535714140393883
 74
     0
 49
-4.535714140393883
 74
     0
 49
4.535714140393883
 74
     0
 49
-4.535714140393883
 74
     0
  0
LTYPE
  5
243
330
5
100
AcDbSymbolTableRecord
100
AcDbLinetypeTableRecord
  2
AI-Linetype-154
 70
     0
  3
Adobe Illustrator Linetype No. 154
 72
    65
 73
     6
 40
45.35714174037394
 49
22.67857103840452
 74
     0
 49
-4.535714140393883
 74
     0
 49
4.535714140393883
 74
     0
 49
-4.535714140393883
 74
     0
 49
4.535714140393883
 74
     0
 49
-4.535714140393883
 74
     0
  0
LTYPE
  5
245
330
5
100
AcDbSymbolTableRecord
100
AcDbLinetypeTableRecord
  2
AI-Linetype-155
 70
     0
  3
Adobe Illustrator Linetype No. 155
 72
    65
 73
     6
 40
45.35714174037394
 49
22.67857103840452
 74
     0
 49
-4.535714140393883
 74
     0
 49
4.535714140393883
 74
     0
 49
-4.535714140393883
 74
     0
 49
4.535714140393883
 74
     0
 49
-4.535714140393883
 74
     0
  0
LTYPE
  5
247
330
5
100
AcDbSymbolTableRecord
100
AcDbLinetypeTableRecord
  2
AI-Linetype-156
 70
     0
  3
Adobe Illustrator Linetype No. 156
 72
    65
 73
     6
 40
45.35714174037394
 49
22.67857103840452
 74
     0
 49
-4.535714140393883
 74
     0
 49
4.535714140393883
 74
     0
 49
-4.535714140393883
 74
     0
 49
4.535714140393883
 74
     0
 49
-4.535714140393883
 74
     0
  0
LTYPE
  5
249
330
5
100
AcDbSymbolTableRecord
100
AcDbLinetypeTableRecord
  2
AI-Linetype-157
 70
     0
  3
Adobe Illustrator Linetype No. 157
 72
    65
 73
     6
 40
45.35714174037394
 49
22.67857103840452
 74
     0
 49
-4.535714140393883
 74
     0
 49
4.535714140393883
 74
     0
 49
-4.535714140393883
 74
     0
 49
4.535714140393883
 74
     0
 49
-4.535714140393883
 74
     0
  0
LTYPE
  5
24B
330
5
100
AcDbSymbolTableRecord
100
AcDbLinetypeTableRecord
  2
AI-Linetype-158
 70
     0
  3
Adobe Illustrator Linetype No. 158
 72
    65
 73
     6
 40
45.35714174037394
 49
22.67857103840452
 74
     0
 49
-4.535714140393883
 74
     0
 49
4.535714140393883
 74
     0
 49
-4.535714140393883
 74
     0
 49
4.535714140393883
 74
     0
 49
-4.535714140393883
 74
     0
  0
LTYPE
  5
24D
330
5
100
AcDbSymbolTableRecord
100
AcDbLinetypeTableRecord
  2
AI-Linetype-159
 70
     0
  3
Adobe Illustrator Linetype No. 159
 72
    65
 73
     6
 40
45.35714174037394
 49
22.67857103840452
 74
     0
 49
-4.535714140393883
 74
     0
 49
4.535714140393883
 74
     0
 49
-4.535714140393883
 74
     0
 49
4.535714140393883
 74
     0
 49
-4.535714140393883
 74
     0
  0
LTYPE
  5
24F
330
5
100
AcDbSymbolTableRecord
100
AcDbLinetypeTableRecord
  2
AI-Linetype-160
 70
     0
  3
Adobe Illustrator Linetype No. 160
 72
    65
 73
     6
 40
45.35714174037394
 49
22.67857103840452
 74
     0
 49
-4.535714140393883
 74
     0
 49
4.535714140393883
 74
     0
 49
-4.535714140393883
 74
     0
 49
4.535714140393883
 74
     0
 49
-4.535714140393883
 74
     0
  0
LTYPE
  5
251
330
5
100
AcDbSymbolTableRecord
100
AcDbLinetypeTableRecord
  2
AI-Linetype-161
 70
     0
  3
Adobe Illustrator Linetype No. 161
 72
    65
 73
     6
 40
45.35714174037394
 49
22.67857103840452
 74
     0
 49
-4.535714140393883
 74
     0
 49
4.535714140393883
 74
     0
 49
-4.535714140393883
 74
     0
 49
4.535714140393883
 74
     0
 49
-4.535714140393883
 74
     0
  0
LTYPE
  5
253
330
5
100
AcDbSymbolTableRecord
100
AcDbLinetypeTableRecord
  2
AI-Linetype-162
 70
     0
  3
Adobe Illustrator Linetype No. 162
 72
    65
 73
     6
 40
45.35714174037394
 49
22.67857103840452
 74
     0
 49
-4.535714140393883
 74
     0
 49
4.535714140393883
 74
     0
 49
-4.535714140393883
 74
     0
 49
4.535714140393883
 74
     0
 49
-4.535714140393883
 74
     0
  0
LTYPE
  5
255
330
5
100
AcDbSymbolTableRecord
100
AcDbLinetypeTableRecord
  2
AI-Linetype-163
 70
     0
  3
Adobe Illustrator Linetype No. 163
 72
    65
 73
     6
 40
45.35714174037394
 49
22.67857103840452
 74
     0
 49
-4.535714140393883
 74
     0
 49
4.535714140393883
 74
     0
 49
-4.535714140393883
 74
     0
 49
4.535714140393883
 74
     0
 49
-4.535714140393883
 74
     0
  0
LTYPE
  5
257
330
5
100
AcDbSymbolTableRecord
100
AcDbLinetypeTableRecord
  2
AI-Linetype-164
 70
     0
  3
Adobe Illustrator Linetype No. 164
 72
    65
 73
     6
 40
45.35714174037394
 49
22.67857103840452
 74
     0
 49
-4.535714140393883
 74
     0
 49
4.535714140393883
 74
     0
 49
-4.535714140393883
 74
     0
 49
4.535714140393883
 74
     0
 49
-4.535714140393883
 74
     0
  0
LTYPE
  5
259
330
5
100
AcDbSymbolTableRecord
100
AcDbLinetypeTableRecord
  2
AI-Linetype-165
 70
     0
  3
Adobe Illustrator Linetype No. 165
 72
    65
 73
     6
 40
45.35714174037394
 49
22.67857103840452
 74
     0
 49
-4.535714140393883
 74
     0
 49
4.535714140393883
 74
     0
 49
-4.535714140393883
 74
     0
 49
4.535714140393883
 74
     0
 49
-4.535714140393883
 74
     0
  0
LTYPE
  5
25B
330
5
100
AcDbSymbolTableRecord
100
AcDbLinetypeTableRecord
  2
AI-Linetype-166
 70
     0
  3
Adobe Illustrator Linetype No. 166
 72
    65
 73
     6
 40
45.35714174037394
 49
22.67857103840452
 74
     0
 49
-4.535714140393883
 74
     0
 49
4.535714140393883
 74
     0
 49
-4.535714140393883
 74
     0
 49
4.535714140393883
 74
     0
 49
-4.535714140393883
 74
     0
  0
LTYPE
  5
25D
330
5
100
AcDbSymbolTableRecord
100
AcDbLinetypeTableRecord
  2
AI-Linetype-167
 70
     0
  3
Adobe Illustrator Linetype No. 167
 72
    65
 73
     6
 40
45.35714174037394
 49
22.67857103840452
 74
     0
 49
-4.535714140393883
 74
     0
 49
4.535714140393883
 74
     0
 49
-4.535714140393883
 74
     0
 49
4.535714140393883
 74
     0
 49
-4.535714140393883
 74
     0
  0
LTYPE
  5
25F
330
5
100
AcDbSymbolTableRecord
100
AcDbLinetypeTableRecord
  2
AI-Linetype-168
 70
     0
  3
Adobe Illustrator Linetype No. 168
 72
    65
 73
     6
 40
45.35714174037394
 49
22.67857103840452
 74
     0
 49
-4.535714140393883
 74
     0
 49
4.535714140393883
 74
     0
 49
-4.535714140393883
 74
     0
 49
4.535714140393883
 74
     0
 49
-4.535714140393883
 74
     0
  0
LTYPE
  5
261
330
5
100
AcDbSymbolTableRecord
100
AcDbLinetypeTableRecord
  2
AI-Linetype-169
 70
     0
  3
Adobe Illustrator Linetype No. 169
 72
    65
 73
     6
 40
45.35714174037394
 49
22.67857103840452
 74
     0
 49
-4.535714140393883
 74
     0
 49
4.535714140393883
 74
     0
 49
-4.535714140393883
 74
     0
 49
4.535714140393883
 74
     0
 49
-4.535714140393883
 74
     0
  0
LTYPE
  5
263
330
5
100
AcDbSymbolTableRecord
100
AcDbLinetypeTableRecord
  2
AI-Linetype-170
 70
     0
  3
Adobe Illustrator Linetype No. 170
 72
    65
 73
     6
 40
45.35714174037394
 49
22.67857103840452
 74
     0
 49
-4.535714140393883
 74
     0
 49
4.535714140393883
 74
     0
 49
-4.535714140393883
 74
     0
 49
4.535714140393883
 74
     0
 49
-4.535714140393883
 74
     0
  0
LTYPE
  5
265
330
5
100
AcDbSymbolTableRecord
100
AcDbLinetypeTableRecord
  2
AI-Linetype-171
 70
     0
  3
Adobe Illustrator Linetype No. 171
 72
    65
 73
     6
 40
45.35714174037394
 49
22.67857103840452
 74
     0
 49
-4.535714140393883
 74
     0
 49
4.535714140393883
 74
     0
 49
-4.535714140393883
 74
     0
 49
4.535714140393883
 74
     0
 49
-4.535714140393883
 74
     0
  0
LTYPE
  5
267
330
5
100
AcDbSymbolTableRecord
100
AcDbLinetypeTableRecord
  2
AI-Linetype-172
 70
     0
  3
Adobe Illustrator Linetype No. 172
 72
    65
 73
     6
 40
45.35714174037394
 49
22.67857103840452
 74
     0
 49
-4.535714140393883
 74
     0
 49
4.535714140393883
 74
     0
 49
-4.535714140393883
 74
     0
 49
4.535714140393883
 74
     0
 49
-4.535714140393883
 74
     0
  0
LTYPE
  5
269
330
5
100
AcDbSymbolTableRecord
100
AcDbLinetypeTableRecord
  2
AI-Linetype-173
 70
     0
  3
Adobe Illustrator Linetype No. 173
 72
    65
 73
     6
 40
45.35714174037394
 49
22.67857103840452
 74
     0
 49
-4.535714140393883
 74
     0
 49
4.535714140393883
 74
     0
 49
-4.535714140393883
 74
     0
 49
4.535714140393883
 74
     0
 49
-4.535714140393883
 74
     0
  0
LTYPE
  5
26B
330
5
100
AcDbSymbolTableRecord
100
AcDbLinetypeTableRecord
  2
AI-Linetype-174
 70
     0
  3
Adobe Illustrator Linetype No. 174
 72
    65
 73
     6
 40
45.35714174037394
 49
22.67857103840452
 74
     0
 49
-4.535714140393883
 74
     0
 49
4.535714140393883
 74
     0
 49
-4.535714140393883
 74
     0
 49
4.535714140393883
 74
     0
 49
-4.535714140393883
 74
     0
  0
LTYPE
  5
26D
330
5
100
AcDbSymbolTableRecord
100
AcDbLinetypeTableRecord
  2
AI-Linetype-175
 70
     0
  3
Adobe Illustrator Linetype No. 175
 72
    65
 73
     6
 40
45.35714174037394
 49
22.67857103840452
 74
     0
 49
-4.535714140393883
 74
     0
 49
4.535714140393883
 74
     0
 49
-4.535714140393883
 74
     0
 49
4.535714140393883
 74
     0
 49
-4.535714140393883
 74
     0
  0
LTYPE
  5
26F
330
5
100
AcDbSymbolTableRecord
100
AcDbLinetypeTableRecord
  2
AI-Linetype-176
 70
     0
  3
Adobe Illustrator Linetype No. 176
 72
    65
 73
     6
 40
45.35714174037394
 49
22.67857103840452
 74
     0
 49
-4.535714140393883
 74
     0
 49
4.535714140393883
 74
     0
 49
-4.535714140393883
 74
     0
 49
4.535714140393883
 74
     0
 49
-4.535714140393883
 74
     0
  0
LTYPE
  5
271
330
5
100
AcDbSymbolTableRecord
100
AcDbLinetypeTableRecord
  2
AI-Linetype-177
 70
     0
  3
Adobe Illustrator Linetype No. 177
 72
    65
 73
     6
 40
45.35714174037394
 49
22.67857103840452
 74
     0
 49
-4.535714140393883
 74
     0
 49
4.535714140393883
 74
     0
 49
-4.535714140393883
 74
     0
 49
4.535714140393883
 74
     0
 49
-4.535714140393883
 74
     0
  0
LTYPE
  5
273
330
5
100
AcDbSymbolTableRecord
100
AcDbLinetypeTableRecord
  2
AI-Linetype-178
 70
     0
  3
Adobe Illustrator Linetype No. 178
 72
    65
 73
     6
 40
45.35714174037394
 49
22.67857103840452
 74
     0
 49
-4.535714140393883
 74
     0
 49
4.535714140393883
 74
     0
 49
-4.535714140393883
 74
     0
 49
4.535714140393883
 74
     0
 49
-4.535714140393883
 74
     0
  0
LTYPE
  5
275
330
5
100
AcDbSymbolTableRecord
100
AcDbLinetypeTableRecord
  2
AI-Linetype-179
 70
     0
  3
Adobe Illustrator Linetype No. 179
 72
    65
 73
     6
 40
45.35714174037394
 49
22.67857103840452
 74
     0
 49
-4.535714140393883
 74
     0
 49
4.535714140393883
 74
     0
 49
-4.535714140393883
 74
     0
 49
4.535714140393883
 74
     0
 49
-4.535714140393883
 74
     0
  0
LTYPE
  5
277
330
5
100
AcDbSymbolTableRecord
100
AcDbLinetypeTableRecord
  2
AI-Linetype-180
 70
     0
  3
Adobe Illustrator Linetype No. 180
 72
    65
 73
     6
 40
45.35714174037394
 49
22.67857103840452
 74
     0
 49
-4.535714140393883
 74
     0
 49
4.535714140393883
 74
     0
 49
-4.535714140393883
 74
     0
 49
4.535714140393883
 74
     0
 49
-4.535714140393883
 74
     0
  0
LTYPE
  5
279
330
5
100
AcDbSymbolTableRecord
100
AcDbLinetypeTableRecord
  2
AI-Linetype-181
 70
     0
  3
Adobe Illustrator Linetype No. 181
 72
    65
 73
     6
 40
45.35714174037394
 49
22.67857103840452
 74
     0
 49
-4.535714140393883
 74
     0
 49
4.535714140393883
 74
     0
 49
-4.535714140393883
 74
     0
 49
4.535714140393883
 74
     0
 49
-4.535714140393883
 74
     0
  0
LTYPE
  5
27B
330
5
100
AcDbSymbolTableRecord
100
AcDbLinetypeTableRecord
  2
AI-Linetype-182
 70
     0
  3
Adobe Illustrator Linetype No. 182
 72
    65
 73
     6
 40
45.35714174037394
 49
22.67857103840452
 74
     0
 49
-4.535714140393883
 74
     0
 49
4.535714140393883
 74
     0
 49
-4.535714140393883
 74
     0
 49
4.535714140393883
 74
     0
 49
-4.535714140393883
 74
     0
  0
LTYPE
  5
27D
330
5
100
AcDbSymbolTableRecord
100
AcDbLinetypeTableRecord
  2
AI-Linetype-183
 70
     0
  3
Adobe Illustrator Linetype No. 183
 72
    65
 73
     6
 40
45.35714174037394
 49
22.67857103840452
 74
     0
 49
-4.535714140393883
 74
     0
 49
4.535714140393883
 74
     0
 49
-4.535714140393883
 74
     0
 49
4.535714140393883
 74
     0
 49
-4.535714140393883
 74
     0
  0
LTYPE
  5
27F
330
5
100
AcDbSymbolTableRecord
100
AcDbLinetypeTableRecord
  2
AI-Linetype-184
 70
     0
  3
Adobe Illustrator Linetype No. 184
 72
    65
 73
     6
 40
45.35714174037394
 49
22.67857103840452
 74
     0
 49
-4.535714140393883
 74
     0
 49
4.535714140393883
 74
     0
 49
-4.535714140393883
 74
     0
 49
4.535714140393883
 74
     0
 49
-4.535714140393883
 74
     0
  0
LTYPE
  5
281
330
5
100
AcDbSymbolTableRecord
100
AcDbLinetypeTableRecord
  2
AI-Linetype-185
 70
     0
  3
Adobe Illustrator Linetype No. 185
 72
    65
 73
     6
 40
45.35714174037394
 49
22.67857103840452
 74
     0
 49
-4.535714140393883
 74
     0
 49
4.535714140393883
 74
     0
 49
-4.535714140393883
 74
     0
 49
4.535714140393883
 74
     0
 49
-4.535714140393883
 74
     0
  0
LTYPE
  5
283
330
5
100
AcDbSymbolTableRecord
100
AcDbLinetypeTableRecord
  2
AI-Linetype-186
 70
     0
  3
Adobe Illustrator Linetype No. 186
 72
    65
 73
     6
 40
45.35714174037394
 49
22.67857103840452
 74
     0
 49
-4.535714140393883
 74
     0
 49
4.535714140393883
 74
     0
 49
-4.535714140393883
 74
     0
 49
4.535714140393883
 74
     0
 49
-4.535714140393883
 74
     0
  0
LTYPE
  5
285
330
5
100
AcDbSymbolTableRecord
100
AcDbLinetypeTableRecord
  2
AI-Linetype-187
 70
     0
  3
Adobe Illustrator Linetype No. 187
 72
    65
 73
     6
 40
45.35714174037394
 49
22.67857103840452
 74
     0
 49
-4.535714140393883
 74
     0
 49
4.535714140393883
 74
     0
 49
-4.535714140393883
 74
     0
 49
4.535714140393883
 74
     0
 49
-4.535714140393883
 74
     0
  0
LTYPE
  5
287
330
5
100
AcDbSymbolTableRecord
100
AcDbLinetypeTableRecord
  2
AI-Linetype-188
 70
     0
  3
Adobe Illustrator Linetype No. 188
 72
    65
 73
     6
 40
45.35714174037394
 49
22.67857103840452
 74
     0
 49
-4.535714140393883
 74
     0
 49
4.535714140393883
 74
     0
 49
-4.535714140393883
 74
     0
 49
4.535714140393883
 74
     0
 49
-4.535714140393883
 74
     0
  0
LTYPE
  5
289
330
5
100
AcDbSymbolTableRecord
100
AcDbLinetypeTableRecord
  2
AI-Linetype-189
 70
     0
  3
Adobe Illustrator Linetype No. 189
 72
    65
 73
     6
 40
45.35714174037394
 49
22.67857103840452
 74
     0
 49
-4.535714140393883
 74
     0
 49
4.535714140393883
 74
     0
 49
-4.535714140393883
 74
     0
 49
4.535714140393883
 74
     0
 49
-4.535714140393883
 74
     0
  0
LTYPE
  5
28B
330
5
100
AcDbSymbolTableRecord
100
AcDbLinetypeTableRecord
  2
AI-Linetype-190
 70
     0
  3
Adobe Illustrator Linetype No. 190
 72
    65
 73
     6
 40
45.35714174037394
 49
22.67857103840452
 74
     0
 49
-4.535714140393883
 74
     0
 49
4.535714140393883
 74
     0
 49
-4.535714140393883
 74
     0
 49
4.535714140393883
 74
     0
 49
-4.535714140393883
 74
     0
  0
LTYPE
  5
28D
330
5
100
AcDbSymbolTableRecord
100
AcDbLinetypeTableRecord
  2
AI-Linetype-191
 70
     0
  3
Adobe Illustrator Linetype No. 191
 72
    65
 73
     6
 40
45.35714174037394
 49
22.67857103840452
 74
     0
 49
-4.535714140393883
 74
     0
 49
4.535714140393883
 74
     0
 49
-4.535714140393883
 74
     0
 49
4.535714140393883
 74
     0
 49
-4.535714140393883
 74
     0
  0
LTYPE
  5
28F
330
5
100
AcDbSymbolTableRecord
100
AcDbLinetypeTableRecord
  2
AI-Linetype-192
 70
     0
  3
Adobe Illustrator Linetype No. 192
 72
    65
 73
     6
 40
45.35714174037394
 49
22.67857103840452
 74
     0
 49
-4.535714140393883
 74
     0
 49
4.535714140393883
 74
     0
 49
-4.535714140393883
 74
     0
 49
4.535714140393883
 74
     0
 49
-4.535714140393883
 74
     0
  0
LTYPE
  5
291
330
5
100
AcDbSymbolTableRecord
100
AcDbLinetypeTableRecord
  2
AI-Linetype-193
 70
     0
  3
Adobe Illustrator Linetype No. 193
 72
    65
 73
     6
 40
45.35714174037394
 49
22.67857103840452
 74
     0
 49
-4.535714140393883
 74
     0
 49
4.535714140393883
 74
     0
 49
-4.535714140393883
 74
     0
 49
4.535714140393883
 74
     0
 49
-4.535714140393883
 74
     0
  0
LTYPE
  5
293
330
5
100
AcDbSymbolTableRecord
100
AcDbLinetypeTableRecord
  2
AI-Linetype-194
 70
     0
  3
Adobe Illustrator Linetype No. 194
 72
    65
 73
     6
 40
45.35714174037394
 49
22.67857103840452
 74
     0
 49
-4.535714140393883
 74
     0
 49
4.535714140393883
 74
     0
 49
-4.535714140393883
 74
     0
 49
4.535714140393883
 74
     0
 49
-4.535714140393883
 74
     0
  0
LTYPE
  5
295
330
5
100
AcDbSymbolTableRecord
100
AcDbLinetypeTableRecord
  2
AI-Linetype-195
 70
     0
  3
Adobe Illustrator Linetype No. 195
 72
    65
 73
     6
 40
45.35714174037394
 49
22.67857103840452
 74
     0
 49
-4.535714140393883
 74
     0
 49
4.535714140393883
 74
     0
 49
-4.535714140393883
 74
     0
 49
4.535714140393883
 74
     0
 49
-4.535714140393883
 74
     0
  0
LTYPE
  5
297
330
5
100
AcDbSymbolTableRecord
100
AcDbLinetypeTableRecord
  2
AI-Linetype-196
 70
     0
  3
Adobe Illustrator Linetype No. 196
 72
    65
 73
     6
 40
45.35714174037394
 49
22.67857103840452
 74
     0
 49
-4.535714140393883
 74
     0
 49
4.535714140393883
 74
     0
 49
-4.535714140393883
 74
     0
 49
4.535714140393883
 74
     0
 49
-4.535714140393883
 74
     0
  0
LTYPE
  5
299
330
5
100
AcDbSymbolTableRecord
100
AcDbLinetypeTableRecord
  2
AI-Linetype-197
 70
     0
  3
Adobe Illustrator Linetype No. 197
 72
    65
 73
     6
 40
45.35714174037394
 49
22.67857103840452
 74
     0
 49
-4.535714140393883
 74
     0
 49
4.535714140393883
 74
     0
 49
-4.535714140393883
 74
     0
 49
4.535714140393883
 74
     0
 49
-4.535714140393883
 74
     0
  0
LTYPE
  5
29B
330
5
100
AcDbSymbolTableRecord
100
AcDbLinetypeTableRecord
  2
AI-Linetype-198
 70
     0
  3
Adobe Illustrator Linetype No. 198
 72
    65
 73
     6
 40
45.35714174037394
 49
22.67857103840452
 74
     0
 49
-4.535714140393883
 74
     0
 49
4.535714140393883
 74
     0
 49
-4.535714140393883
 74
     0
 49
4.535714140393883
 74
     0
 49
-4.535714140393883
 74
     0
  0
LTYPE
  5
29D
330
5
100
AcDbSymbolTableRecord
100
AcDbLinetypeTableRecord
  2
AI-Linetype-199
 70
     0
  3
Adobe Illustrator Linetype No. 199
 72
    65
 73
     6
 40
45.35714174037394
 49
22.67857103840452
 74
     0
 49
-4.535714140393883
 74
     0
 49
4.535714140393883
 74
     0
 49
-4.535714140393883
 74
     0
 49
4.535714140393883
 74
     0
 49
-4.535714140393883
 74
     0
  0
LTYPE
  5
29F
330
5
100
AcDbSymbolTableRecord
100
AcDbLinetypeTableRecord
  2
AI-Linetype-200
 70
     0
  3
Adobe Illustrator Linetype No. 200
 72
    65
 73
     6
 40
45.35714174037394
 49
22.67857103840452
 74
     0
 49
-4.535714140393883
 74
     0
 49
4.535714140393883
 74
     0
 49
-4.535714140393883
 74
     0
 49
4.535714140393883
 74
     0
 49
-4.535714140393883
 74
     0
  0
LTYPE
  5
2A1
330
5
100
AcDbSymbolTableRecord
100
AcDbLinetypeTableRecord
  2
AI-Linetype-201
 70
     0
  3
Adobe Illustrator Linetype No. 201
 72
    65
 73
     6
 40
45.35714174037394
 49
22.67857103840452
 74
     0
 49
-4.535714140393883
 74
     0
 49
4.535714140393883
 74
     0
 49
-4.535714140393883
 74
     0
 49
4.535714140393883
 74
     0
 49
-4.535714140393883
 74
     0
  0
LTYPE
  5
2A3
330
5
100
AcDbSymbolTableRecord
100
AcDbLinetypeTableRecord
  2
AI-Linetype-202
 70
     0
  3
Adobe Illustrator Linetype No. 202
 72
    65
 73
     6
 40
45.35714174037394
 49
22.67857103840452
 74
     0
 49
-4.535714140393883
 74
     0
 49
4.535714140393883
 74
     0
 49
-4.535714140393883
 74
     0
 49
4.535714140393883
 74
     0
 49
-4.535714140393883
 74
     0
  0
LTYPE
  5
2A5
330
5
100
AcDbSymbolTableRecord
100
AcDbLinetypeTableRecord
  2
AI-Linetype-203
 70
     0
  3
Adobe Illustrator Linetype No. 203
 72
    65
 73
     6
 40
45.35714174037394
 49
22.67857103840452
 74
     0
 49
-4.535714140393883
 74
     0
 49
4.535714140393883
 74
     0
 49
-4.535714140393883
 74
     0
 49
4.535714140393883
 74
     0
 49
-4.535714140393883
 74
     0
  0
LTYPE
  5
2A7
330
5
100
AcDbSymbolTableRecord
100
AcDbLinetypeTableRecord
  2
AI-Linetype-204
 70
     0
  3
Adobe Illustrator Linetype No. 204
 72
    65
 73
     6
 40
45.35714174037394
 49
22.67857103840452
 74
     0
 49
-4.535714140393883
 74
     0
 49
4.535714140393883
 74
     0
 49
-4.535714140393883
 74
     0
 49
4.535714140393883
 74
     0
 49
-4.535714140393883
 74
     0
  0
LTYPE
  5
2A9
330
5
100
AcDbSymbolTableRecord
100
AcDbLinetypeTableRecord
  2
AI-Linetype-205
 70
     0
  3
Adobe Illustrator Linetype No. 205
 72
    65
 73
     6
 40
45.35714174037394
 49
22.67857103840452
 74
     0
 49
-4.535714140393883
 74
     0
 49
4.535714140393883
 74
     0
 49
-4.535714140393883
 74
     0
 49
4.535714140393883
 74
     0
 49
-4.535714140393883
 74
     0
  0
LTYPE
  5
2AB
330
5
100
AcDbSymbolTableRecord
100
AcDbLinetypeTableRecord
  2
AI-Linetype-206
 70
     0
  3
Adobe Illustrator Linetype No. 206
 72
    65
 73
     6
 40
45.35714174037394
 49
22.67857103840452
 74
     0
 49
-4.535714140393883
 74
     0
 49
4.535714140393883
 74
     0
 49
-4.535714140393883
 74
     0
 49
4.535714140393883
 74
     0
 49
-4.535714140393883
 74
     0
  0
LTYPE
  5
2AD
330
5
100
AcDbSymbolTableRecord
100
AcDbLinetypeTableRecord
  2
AI-Linetype-207
 70
     0
  3
Adobe Illustrator Linetype No. 207
 72
    65
 73
     6
 40
45.35714174037394
 49
22.67857103840452
 74
     0
 49
-4.535714140393883
 74
     0
 49
4.535714140393883
 74
     0
 49
-4.535714140393883
 74
     0
 49
4.535714140393883
 74
     0
 49
-4.535714140393883
 74
     0
  0
LTYPE
  5
2AF
330
5
100
AcDbSymbolTableRecord
100
AcDbLinetypeTableRecord
  2
AI-Linetype-208
 70
     0
  3
Adobe Illustrator Linetype No. 208
 72
    65
 73
     6
 40
45.35714174037394
 49
22.67857103840452
 74
     0
 49
-4.535714140393883
 74
     0
 49
4.535714140393883
 74
     0
 49
-4.535714140393883
 74
     0
 49
4.535714140393883
 74
     0
 49
-4.535714140393883
 74
     0
  0
LTYPE
  5
2B1
330
5
100
AcDbSymbolTableRecord
100
AcDbLinetypeTableRecord
  2
AI-Linetype-209
 70
     0
  3
Adobe Illustrator Linetype No. 209
 72
    65
 73
     6
 40
45.35714174037394
 49
22.67857103840452
 74
     0
 49
-4.535714140393883
 74
     0
 49
4.535714140393883
 74
     0
 49
-4.535714140393883
 74
     0
 49
4.535714140393883
 74
     0
 49
-4.535714140393883
 74
     0
  0
LTYPE
  5
2B3
330
5
100
AcDbSymbolTableRecord
100
AcDbLinetypeTableRecord
  2
AI-Linetype-210
 70
     0
  3
Adobe Illustrator Linetype No. 210
 72
    65
 73
     6
 40
45.35714174037394
 49
22.67857103840452
 74
     0
 49
-4.535714140393883
 74
     0
 49
4.535714140393883
 74
     0
 49
-4.535714140393883
 74
     0
 49
4.535714140393883
 74
     0
 49
-4.535714140393883
 74
     0
  0
LTYPE
  5
2B5
330
5
100
AcDbSymbolTableRecord
100
AcDbLinetypeTableRecord
  2
AI-Linetype-211
 70
     0
  3
Adobe Illustrator Linetype No. 211
 72
    65
 73
     6
 40
45.35714174037394
 49
22.67857103840452
 74
     0
 49
-4.535714140393883
 74
     0
 49
4.535714140393883
 74
     0
 49
-4.535714140393883
 74
     0
 49
4.535714140393883
 74
     0
 49
-4.535714140393883
 74
     0
  0
LTYPE
  5
2B7
330
5
100
AcDbSymbolTableRecord
100
AcDbLinetypeTableRecord
  2
AI-Linetype-212
 70
     0
  3
Adobe Illustrator Linetype No. 212
 72
    65
 73
     6
 40
45.35714174037394
 49
22.67857103840452
 74
     0
 49
-4.535714140393883
 74
     0
 49
4.535714140393883
 74
     0
 49
-4.535714140393883
 74
     0
 49
4.535714140393883
 74
     0
 49
-4.535714140393883
 74
     0
  0
LTYPE
  5
2B9
330
5
100
AcDbSymbolTableRecord
100
AcDbLinetypeTableRecord
  2
AI-Linetype-213
 70
     0
  3
Adobe Illustrator Linetype No. 213
 72
    65
 73
     6
 40
45.35714174037394
 49
22.67857103840452
 74
     0
 49
-4.535714140393883
 74
     0
 49
4.535714140393883
 74
     0
 49
-4.535714140393883
 74
     0
 49
4.535714140393883
 74
     0
 49
-4.535714140393883
 74
     0
  0
LTYPE
  5
2BB
330
5
100
AcDbSymbolTableRecord
100
AcDbLinetypeTableRecord
  2
AI-Linetype-214
 70
     0
  3
Adobe Illustrator Linetype No. 214
 72
    65
 73
     6
 40
45.35714174037394
 49
22.67857103840452
 74
     0
 49
-4.535714140393883
 74
     0
 49
4.535714140393883
 74
     0
 49
-4.535714140393883
 74
     0
 49
4.535714140393883
 74
     0
 49
-4.535714140393883
 74
     0
  0
LTYPE
  5
2BD
330
5
100
AcDbSymbolTableRecord
100
AcDbLinetypeTableRecord
  2
AI-Linetype-215
 70
     0
  3
Adobe Illustrator Linetype No. 215
 72
    65
 73
     6
 40
45.35714174037394
 49
22.67857103840452
 74
     0
 49
-4.535714140393883
 74
     0
 49
4.535714140393883
 74
     0
 49
-4.535714140393883
 74
     0
 49
4.535714140393883
 74
     0
 49
-4.535714140393883
 74
     0
  0
LTYPE
  5
2BF
330
5
100
AcDbSymbolTableRecord
100
AcDbLinetypeTableRecord
  2
AI-Linetype-216
 70
     0
  3
Adobe Illustrator Linetype No. 216
 72
    65
 73
     6
 40
45.35714174037394
 49
22.67857103840452
 74
     0
 49
-4.535714140393883
 74
     0
 49
4.535714140393883
 74
     0
 49
-4.535714140393883
 74
     0
 49
4.535714140393883
 74
     0
 49
-4.535714140393883
 74
     0
  0
LTYPE
  5
2C1
330
5
100
AcDbSymbolTableRecord
100
AcDbLinetypeTableRecord
  2
AI-Linetype-217
 70
     0
  3
Adobe Illustrator Linetype No. 217
 72
    65
 73
     6
 40
45.35714174037394
 49
22.67857103840452
 74
     0
 49
-4.535714140393883
 74
     0
 49
4.535714140393883
 74
     0
 49
-4.535714140393883
 74
     0
 49
4.535714140393883
 74
     0
 49
-4.535714140393883
 74
     0
  0
LTYPE
  5
2C3
330
5
100
AcDbSymbolTableRecord
100
AcDbLinetypeTableRecord
  2
AI-Linetype-218
 70
     0
  3
Adobe Illustrator Linetype No. 218
 72
    65
 73
     6
 40
45.35714174037394
 49
22.67857103840452
 74
     0
 49
-4.535714140393883
 74
     0
 49
4.535714140393883
 74
     0
 49
-4.535714140393883
 74
     0
 49
4.535714140393883
 74
     0
 49
-4.535714140393883
 74
     0
  0
LTYPE
  5
2C5
330
5
100
AcDbSymbolTableRecord
100
AcDbLinetypeTableRecord
  2
AI-Linetype-219
 70
     0
  3
Adobe Illustrator Linetype No. 219
 72
    65
 73
     6
 40
45.35714174037394
 49
22.67857103840452
 74
     0
 49
-4.535714140393883
 74
     0
 49
4.535714140393883
 74
     0
 49
-4.535714140393883
 74
     0
 49
4.535714140393883
 74
     0
 49
-4.535714140393883
 74
     0
  0
LTYPE
  5
2C7
330
5
100
AcDbSymbolTableRecord
100
AcDbLinetypeTableRecord
  2
AI-Linetype-220
 70
     0
  3
Adobe Illustrator Linetype No. 220
 72
    65
 73
     6
 40
45.35714174037394
 49
22.67857103840452
 74
     0
 49
-4.535714140393883
 74
     0
 49
4.535714140393883
 74
     0
 49
-4.535714140393883
 74
     0
 49
4.535714140393883
 74
     0
 49
-4.535714140393883
 74
     0
  0
LTYPE
  5
2C9
330
5
100
AcDbSymbolTableRecord
100
AcDbLinetypeTableRecord
  2
AI-Linetype-221
 70
     0
  3
Adobe Illustrator Linetype No. 221
 72
    65
 73
     6
 40
45.35714174037394
 49
22.67857103840452
 74
     0
 49
-4.535714140393883
 74
     0
 49
4.535714140393883
 74
     0
 49
-4.535714140393883
 74
     0
 49
4.535714140393883
 74
     0
 49
-4.535714140393883
 74
     0
  0
LTYPE
  5
2CB
330
5
100
AcDbSymbolTableRecord
100
AcDbLinetypeTableRecord
  2
AI-Linetype-222
 70
     0
  3
Adobe Illustrator Linetype No. 222
 72
    65
 73
     6
 40
45.35714174037394
 49
22.67857103840452
 74
     0
 49
-4.535714140393883
 74
     0
 49
4.535714140393883
 74
     0
 49
-4.535714140393883
 74
     0
 49
4.535714140393883
 74
     0
 49
-4.535714140393883
 74
     0
  0
LTYPE
  5
2CD
330
5
100
AcDbSymbolTableRecord
100
AcDbLinetypeTableRecord
  2
AI-Linetype-223
 70
     0
  3
Adobe Illustrator Linetype No. 223
 72
    65
 73
     6
 40
45.35714174037394
 49
22.67857103840452
 74
     0
 49
-4.535714140393883
 74
     0
 49
4.535714140393883
 74
     0
 49
-4.535714140393883
 74
     0
 49
4.535714140393883
 74
     0
 49
-4.535714140393883
 74
     0
  0
LTYPE
  5
2CF
330
5
100
AcDbSymbolTableRecord
100
AcDbLinetypeTableRecord
  2
AI-Linetype-224
 70
     0
  3
Adobe Illustrator Linetype No. 224
 72
    65
 73
     6
 40
45.35714174037394
 49
22.67857103840452
 74
     0
 49
-4.535714140393883
 74
     0
 49
4.535714140393883
 74
     0
 49
-4.535714140393883
 74
     0
 49
4.535714140393883
 74
     0
 49
-4.535714140393883
 74
     0
  0
LTYPE
  5
2D1
330
5
100
AcDbSymbolTableRecord
100
AcDbLinetypeTableRecord
  2
AI-Linetype-225
 70
     0
  3
Adobe Illustrator Linetype No. 225
 72
    65
 73
     6
 40
45.35714174037394
 49
22.67857103840452
 74
     0
 49
-4.535714140393883
 74
     0
 49
4.535714140393883
 74
     0
 49
-4.535714140393883
 74
     0
 49
4.535714140393883
 74
     0
 49
-4.535714140393883
 74
     0
  0
LTYPE
  5
2D3
330
5
100
AcDbSymbolTableRecord
100
AcDbLinetypeTableRecord
  2
AI-Linetype-226
 70
     0
  3
Adobe Illustrator Linetype No. 226
 72
    65
 73
     6
 40
45.35714174037394
 49
22.67857103840452
 74
     0
 49
-4.535714140393883
 74
     0
 49
4.535714140393883
 74
     0
 49
-4.535714140393883
 74
     0
 49
4.535714140393883
 74
     0
 49
-4.535714140393883
 74
     0
  0
LTYPE
  5
2D5
330
5
100
AcDbSymbolTableRecord
100
AcDbLinetypeTableRecord
  2
AI-Linetype-227
 70
     0
  3
Adobe Illustrator Linetype No. 227
 72
    65
 73
     6
 40
45.35714174037394
 49
22.67857103840452
 74
     0
 49
-4.535714140393883
 74
     0
 49
4.535714140393883
 74
     0
 49
-4.535714140393883
 74
     0
 49
4.535714140393883
 74
     0
 49
-4.535714140393883
 74
     0
  0
LTYPE
  5
2D7
330
5
100
AcDbSymbolTableRecord
100
AcDbLinetypeTableRecord
  2
AI-Linetype-228
 70
     0
  3
Adobe Illustrator Linetype No. 228
 72
    65
 73
     6
 40
45.35714174037394
 49
22.67857103840452
 74
     0
 49
-4.535714140393883
 74
     0
 49
4.535714140393883
 74
     0
 49
-4.535714140393883
 74
     0
 49
4.535714140393883
 74
     0
 49
-4.535714140393883
 74
     0
  0
LTYPE
  5
2D9
330
5
100
AcDbSymbolTableRecord
100
AcDbLinetypeTableRecord
  2
AI-Linetype-229
 70
     0
  3
Adobe Illustrator Linetype No. 229
 72
    65
 73
     6
 40
45.35714174037394
 49
22.67857103840452
 74
     0
 49
-4.535714140393883
 74
     0
 49
4.535714140393883
 74
     0
 49
-4.535714140393883
 74
     0
 49
4.535714140393883
 74
     0
 49
-4.535714140393883
 74
     0
  0
LTYPE
  5
2DB
330
5
100
AcDbSymbolTableRecord
100
AcDbLinetypeTableRecord
  2
AI-Linetype-230
 70
     0
  3
Adobe Illustrator Linetype No. 230
 72
    65
 73
     6
 40
45.35714174037394
 49
22.67857103840452
 74
     0
 49
-4.535714140393883
 74
     0
 49
4.535714140393883
 74
     0
 49
-4.535714140393883
 74
     0
 49
4.535714140393883
 74
     0
 49
-4.535714140393883
 74
     0
  0
LTYPE
  5
2DD
330
5
100
AcDbSymbolTableRecord
100
AcDbLinetypeTableRecord
  2
AI-Linetype-231
 70
     0
  3
Adobe Illustrator Linetype No. 231
 72
    65
 73
     6
 40
45.35714174037394
 49
22.67857103840452
 74
     0
 49
-4.535714140393883
 74
     0
 49
4.535714140393883
 74
     0
 49
-4.535714140393883
 74
     0
 49
4.535714140393883
 74
     0
 49
-4.535714140393883
 74
     0
  0
LTYPE
  5
2DF
330
5
100
AcDbSymbolTableRecord
100
AcDbLinetypeTableRecord
  2
AI-Linetype-232
 70
     0
  3
Adobe Illustrator Linetype No. 232
 72
    65
 73
     6
 40
45.35714174037394
 49
22.67857103840452
 74
     0
 49
-4.535714140393883
 74
     0
 49
4.535714140393883
 74
     0
 49
-4.535714140393883
 74
     0
 49
4.535714140393883
 74
     0
 49
-4.535714140393883
 74
     0
  0
LTYPE
  5
2E1
330
5
100
AcDbSymbolTableRecord
100
AcDbLinetypeTableRecord
  2
AI-Linetype-233
 70
     0
  3
Adobe Illustrator Linetype No. 233
 72
    65
 73
     6
 40
45.35714174037394
 49
22.67857103840452
 74
     0
 49
-4.535714140393883
 74
     0
 49
4.535714140393883
 74
     0
 49
-4.535714140393883
 74
     0
 49
4.535714140393883
 74
     0
 49
-4.535714140393883
 74
     0
  0
LTYPE
  5
2E3
330
5
100
AcDbSymbolTableRecord
100
AcDbLinetypeTableRecord
  2
AI-Linetype-234
 70
     0
  3
Adobe Illustrator Linetype No. 234
 72
    65
 73
     6
 40
45.35714174037394
 49
22.67857103840452
 74
     0
 49
-4.535714140393883
 74
     0
 49
4.535714140393883
 74
     0
 49
-4.535714140393883
 74
     0
 49
4.535714140393883
 74
     0
 49
-4.535714140393883
 74
     0
  0
LTYPE
  5
2E5
330
5
100
AcDbSymbolTableRecord
100
AcDbLinetypeTableRecord
  2
AI-Linetype-235
 70
     0
  3
Adobe Illustrator Linetype No. 235
 72
    65
 73
     6
 40
45.35714174037394
 49
22.67857103840452
 74
     0
 49
-4.535714140393883
 74
     0
 49
4.535714140393883
 74
     0
 49
-4.535714140393883
 74
     0
 49
4.535714140393883
 74
     0
 49
-4.535714140393883
 74
     0
  0
LTYPE
  5
2E7
330
5
100
AcDbSymbolTableRecord
100
AcDbLinetypeTableRecord
  2
AI-Linetype-236
 70
     0
  3
Adobe Illustrator Linetype No. 236
 72
    65
 73
     6
 40
45.35714174037394
 49
22.67857103840452
 74
     0
 49
-4.535714140393883
 74
     0
 49
4.535714140393883
 74
     0
 49
-4.535714140393883
 74
     0
 49
4.535714140393883
 74
     0
 49
-4.535714140393883
 74
     0
  0
LTYPE
  5
2E9
330
5
100
AcDbSymbolTableRecord
100
AcDbLinetypeTableRecord
  2
AI-Linetype-237
 70
     0
  3
Adobe Illustrator Linetype No. 237
 72
    65
 73
     6
 40
45.35714174037394
 49
22.67857103840452
 74
     0
 49
-4.535714140393883
 74
     0
 49
4.535714140393883
 74
     0
 49
-4.535714140393883
 74
     0
 49
4.535714140393883
 74
     0
 49
-4.535714140393883
 74
     0
  0
LTYPE
  5
2EB
330
5
100
AcDbSymbolTableRecord
100
AcDbLinetypeTableRecord
  2
AI-Linetype-238
 70
     0
  3
Adobe Illustrator Linetype No. 238
 72
    65
 73
     6
 40
45.35714174037394
 49
22.67857103840452
 74
     0
 49
-4.535714140393883
 74
     0
 49
4.535714140393883
 74
     0
 49
-4.535714140393883
 74
     0
 49
4.535714140393883
 74
     0
 49
-4.535714140393883
 74
     0
  0
LTYPE
  5
2ED
330
5
100
AcDbSymbolTableRecord
100
AcDbLinetypeTableRecord
  2
AI-Linetype-239
 70
     0
  3
Adobe Illustrator Linetype No. 239
 72
    65
 73
     6
 40
45.35714174037394
 49
22.67857103840452
 74
     0
 49
-4.535714140393883
 74
     0
 49
4.535714140393883
 74
     0
 49
-4.535714140393883
 74
     0
 49
4.535714140393883
 74
     0
 49
-4.535714140393883
 74
     0
  0
LTYPE
  5
2EF
330
5
100
AcDbSymbolTableRecord
100
AcDbLinetypeTableRecord
  2
AI-Linetype-240
 70
     0
  3
Adobe Illustrator Linetype No. 240
 72
    65
 73
     6
 40
45.35714174037394
 49
22.67857103840452
 74
     0
 49
-4.535714140393883
 74
     0
 49
4.535714140393883
 74
     0
 49
-4.535714140393883
 74
     0
 49
4.535714140393883
 74
     0
 49
-4.535714140393883
 74
     0
  0
LTYPE
  5
2F1
330
5
100
AcDbSymbolTableRecord
100
AcDbLinetypeTableRecord
  2
AI-Linetype-241
 70
     0
  3
Adobe Illustrator Linetype No. 241
 72
    65
 73
     6
 40
45.35714174037394
 49
22.67857103840452
 74
     0
 49
-4.535714140393883
 74
     0
 49
4.535714140393883
 74
     0
 49
-4.535714140393883
 74
     0
 49
4.535714140393883
 74
     0
 49
-4.535714140393883
 74
     0
  0
LTYPE
  5
2F3
330
5
100
AcDbSymbolTableRecord
100
AcDbLinetypeTableRecord
  2
AI-Linetype-242
 70
     0
  3
Adobe Illustrator Linetype No. 242
 72
    65
 73
     6
 40
45.35714174037394
 49
22.67857103840452
 74
     0
 49
-4.535714140393883
 74
     0
 49
4.535714140393883
 74
     0
 49
-4.535714140393883
 74
     0
 49
4.535714140393883
 74
     0
 49
-4.535714140393883
 74
     0
  0
LTYPE
  5
2F5
330
5
100
AcDbSymbolTableRecord
100
AcDbLinetypeTableRecord
  2
AI-Linetype-243
 70
     0
  3
Adobe Illustrator Linetype No. 243
 72
    65
 73
     6
 40
45.35714174037394
 49
22.67857103840452
 74
     0
 49
-4.535714140393883
 74
     0
 49
4.535714140393883
 74
     0
 49
-4.535714140393883
 74
     0
 49
4.535714140393883
 74
     0
 49
-4.535714140393883
 74
     0
  0
LTYPE
  5
2F7
330
5
100
AcDbSymbolTableRecord
100
AcDbLinetypeTableRecord
  2
AI-Linetype-244
 70
     0
  3
Adobe Illustrator Linetype No. 244
 72
    65
 73
     6
 40
45.35714174037394
 49
22.67857103840452
 74
     0
 49
-4.535714140393883
 74
     0
 49
4.535714140393883
 74
     0
 49
-4.535714140393883
 74
     0
 49
4.535714140393883
 74
     0
 49
-4.535714140393883
 74
     0
  0
LTYPE
  5
2F9
330
5
100
AcDbSymbolTableRecord
100
AcDbLinetypeTableRecord
  2
AI-Linetype-245
 70
     0
  3
Adobe Illustrator Linetype No. 245
 72
    65
 73
     6
 40
45.35714174037394
 49
22.67857103840452
 74
     0
 49
-4.535714140393883
 74
     0
 49
4.535714140393883
 74
     0
 49
-4.535714140393883
 74
     0
 49
4.535714140393883
 74
     0
 49
-4.535714140393883
 74
     0
  0
LTYPE
  5
2FB
330
5
100
AcDbSymbolTableRecord
100
AcDbLinetypeTableRecord
  2
AI-Linetype-246
 70
     0
  3
Adobe Illustrator Linetype No. 246
 72
    65
 73
     6
 40
45.35714174037394
 49
22.67857103840452
 74
     0
 49
-4.535714140393883
 74
     0
 49
4.535714140393883
 74
     0
 49
-4.535714140393883
 74
     0
 49
4.535714140393883
 74
     0
 49
-4.535714140393883
 74
     0
  0
LTYPE
  5
2FD
330
5
100
AcDbSymbolTableRecord
100
AcDbLinetypeTableRecord
  2
AI-Linetype-247
 70
     0
  3
Adobe Illustrator Linetype No. 247
 72
    65
 73
     6
 40
45.35714174037394
 49
22.67857103840452
 74
     0
 49
-4.535714140393883
 74
     0
 49
4.535714140393883
 74
     0
 49
-4.535714140393883
 74
     0
 49
4.535714140393883
 74
     0
 49
-4.535714140393883
 74
     0
  0
LTYPE
  5
2FF
330
5
100
AcDbSymbolTableRecord
100
AcDbLinetypeTableRecord
  2
AI-Linetype-248
 70
     0
  3
Adobe Illustrator Linetype No. 248
 72
    65
 73
     6
 40
45.35714174037394
 49
22.67857103840452
 74
     0
 49
-4.535714140393883
 74
     0
 49
4.535714140393883
 74
     0
 49
-4.535714140393883
 74
     0
 49
4.535714140393883
 74
     0
 49
-4.535714140393883
 74
     0
  0
LTYPE
  5
301
330
5
100
AcDbSymbolTableRecord
100
AcDbLinetypeTableRecord
  2
AI-Linetype-249
 70
     0
  3
Adobe Illustrator Linetype No. 249
 72
    65
 73
     6
 40
45.35714174037394
 49
22.67857103840452
 74
     0
 49
-4.535714140393883
 74
     0
 49
4.535714140393883
 74
     0
 49
-4.535714140393883
 74
     0
 49
4.535714140393883
 74
     0
 49
-4.535714140393883
 74
     0
  0
ENDTAB
  0
TABLE
  2
LAYER
  5
2
330
0
100
AcDbSymbolTable
 70
     7
  0
LAYER
  5
54
330
2
100
AcDbSymbolTableRecord
100
AcDbLayerTableRecord
  2
0
 70
     0
 62
     7
  6
Continuous
370
    -3
390
F
347
21
348
0
  0
LAYER
  5
78
330
2
100
AcDbSymbolTableRecord
100
AcDbLayerTableRecord
  2
FLAME
 70
     0
 62
     7
  6
Continuous
370
     0
390
F
347
21
348
0
  0
LAYER
  5
80
330
2
100
AcDbSymbolTableRecord
100
AcDbLayerTableRecord
  2
SPEC
 70
     0
 62
     7
  6
Continuous
370
     0
390
F
347
21
348
0
  0
LAYER
  5
94
330
2
100
AcDbSymbolTableRecord
100
AcDbLayerTableRecord
  2
1
 70
     0
 62
     7
  6
Continuous
370
     0
390
F
347
21
348
0
  0
LAYER
  5
E1
330
2
100
AcDbSymbolTableRecord
100
AcDbLayerTableRecord
  2
中心線
 70
     0
 62
     7
  6
Continuous
370
     0
390
F
347
21
348
0
  0
LAYER
  5
E6
330
2
100
AcDbSymbolTableRecord
100
AcDbLayerTableRecord
  2
HONTAI
 70
     0
 62
     7
  6
Continuous
370
     0
390
F
347
21
348
0
  0
LAYER
  5
111
330
2
100
AcDbSymbolTableRecord
100
AcDbLayerTableRecord
  2
SOUZOU
 70
     0
 62
     7
  6
Continuous
370
     0
390
F
347
21
348
0
  0
ENDTAB
  0
TABLE
  2
STYLE
  5
3
330
0
100
AcDbSymbolTable
 70
     2
  0
STYLE
  5
55
330
3
100
AcDbSymbolTableRecord
100
AcDbTextStyleTableRecord
  2
Standard
 70
     0
 40
0.0
 41
1.0
 50
0.0
 71
     0
 42
0.2
  3
txt
  4

  0
STYLE
  5
5A
330
3
100
AcDbSymbolTableRecord
100
AcDbTextStyleTableRecord
  2
Annotative
 70
     0
 40
0.0
 41
1.0
 50
0.0
 71
     0
 42
0.2
  3
txt
  4

1001
AcadAnnotative
1000
AnnotativeData
1002
{
1070
     1
1070
     1
1002
}
  0
ENDTAB
  0
TABLE
  2
VIEW
  5
6
330
0
100
AcDbSymbolTable
 70
     0
  0
ENDTAB
  0
TABLE
  2
UCS
  5
7
330
0
100
AcDbSymbolTable
 70
     0
  0
ENDTAB
  0
TABLE
  2
APPID
  5
9
330
0
100
AcDbSymbolTable
 70
     2
  0
APPID
  5
56
330
9
100
AcDbSymbolTableRecord
100
AcDbRegAppTableRecord
  2
ACAD
 70
     0
  0
APPID
  5
5E
330
9
100
AcDbSymbolTableRecord
100
AcDbRegAppTableRecord
  2
AcadAnnotative
 70
     0
  0
ENDTAB
  0
TABLE
  2
DIMSTYLE
  5
A
330
0
100
AcDbSymbolTable
 70
     2
100
AcDbDimStyleTable
 71
     0
  0
DIMSTYLE
105
58
330
A
100
AcDbSymbolTableRecord
100
AcDbDimStyleTableRecord
  2
Standard
 70
     0
340
55
  0
DIMSTYLE
105
59
330
A
100
AcDbSymbolTableRecord
100
AcDbDimStyleTableRecord
  2
Annotative
 70
     0
340
55
1001
AcadAnnotative
1000
AnnotativeData
1002
{
1070
     1
1070
     1
1002
}
  0
ENDTAB
  0
TABLE
  2
BLOCK_RECORD
  5
1
330
0
100
AcDbSymbolTable
 70
     2
  0
BLOCK_RECORD
  5
70
330
1
100
AcDbSymbolTableRecord
100
AcDbBlockTableRecord
  2
*Model_Space
340
73
 70
     0
280
     1
281
     0
  0
BLOCK_RECORD
  5
6C
330
1
100
AcDbSymbolTableRecord
100
AcDbBlockTableRecord
  2
*Paper_Space
340
6F
 70
     0
280
     1
281
     0
  0
BLOCK_RECORD
  5
74
330
1
100
AcDbSymbolTableRecord
100
AcDbBlockTableRecord
  2
*Paper_Space0
340
77
 70
     0
280
     1
281
     0
  0
BLOCK_RECORD
  5
82
330
1
100
AcDbSymbolTableRecord
100
AcDbBlockTableRecord
  2
Block_0
340
0
102
{BLKREFS
331
83
102
}
 70
     0
280
     1
281
     0
  0
ENDTAB
  0
ENDSEC
  0
SECTION
  2
BLOCKS
  0
BLOCK
  5
71
330
70
100
AcDbEntity
  8
0
100
AcDbBlockBegin
  2
*Model_Space
 70
     0
 10
0.0
 20
0.0
 30
0.0
  3
*Model_Space
  1

  0
ENDBLK
  5
72
330
70
100
AcDbEntity
  8
0
100
AcDbBlockEnd
  0
BLOCK
  5
6D
330
6C
100
AcDbEntity
 67
     1
  8
0
100
AcDbBlockBegin
  2
*Paper_Space
 70
     0
 10
0.0
 20
0.0
 30
0.0
  3
*Paper_Space
  1

  0
ENDBLK
  5
6E
330
6C
100
AcDbEntity
 67
     1
  8
0
100
AcDbBlockEnd
  0
BLOCK
  5
75
330
74
100
AcDbEntity
 67
     1
  8
0
100
AcDbBlockBegin
  2
*Paper_Space0
 70
     0
 10
0.0
 20
0.0
 30
0.0
  3
*Paper_Space0
  1

  0
ENDBLK
  5
76
330
74
100
AcDbEntity
 67
     1
  8
0
100
AcDbBlockEnd
  0
BLOCK
  5
84
330
82
100
AcDbEntity
  8
0
100
AcDbBlockBegin
  2
Block_0
 70
     0
 10
0.0
 20
0.0
 30
0.0
  3
Block_0
  1

  0
MTEXT
  5
86
330
82
100
AcDbEntity
  8
SPEC
100
AcDbMText
 10
187.6349293557605
 20
24.28965110171568
 30
0.0
 40
0.2
 41
0.0
 46
0.0
 71
     7
 72
     1
  1
\C9;\c12632256;\FKozuka Gothic Pr6N R|b0|i0|c128;\H7.493000;\W1.000000;E26 LED
 73
     1
 44
1.0
  0
MTEXT
  5
87
330
82
100
AcDbEntity
  8
SPEC
100
AcDbMText
 10
240.0859267588262
 20
24.28965110171568
 30
0.0
 40
0.2
 41
0.0
 46
0.0
 71
     7
 72
     1
  1
\C9;\c12632256;\FMS PGothic|b0|i0|c128;\H7.493000;\W1.000000;電球
 73
     1
 44
1.0
  0
MTEXT
  5
88
330
82
100
AcDbEntity
  8
SPEC
100
AcDbMText
 10
261.8837564449457
 20
24.28965110171568
 30
0.0
 40
0.2
 41
0.0
 46
0.0
 71
     7
 72
     1
  1
\C9;\c12632256;\FKozuka Gothic Pr6N R|b0|i0|c128;\H7.493000;\W1.000000;(100W
 73
     1
 44
1.0
  0
MTEXT
  5
89
330
82
100
AcDbEntity
  8
SPEC
100
AcDbMText
 10
294.3534153520301
 20
24.28965110171568
 30
0.0
 40
0.2
 41
0.0
 46
0.0
 71
     7
 72
     1
  1
\C9;\c12632256;\FMS PGothic|b0|i0|c128;\H7.493000;\W1.000000;相当
 73
     1
 44
1.0
  0
MTEXT
  5
8A
330
82
100
AcDbEntity
  8
SPEC
100
AcDbMText
 10
316.1512235063029
 20
24.28965110171568
 30
0.0
 40
0.2
 41
0.0
 46
0.0
 71
     7
 72
     1
  1
\C9;\c12632256;\FKozuka Gothic Pr6N R|b0|i0|c128;\H7.493000;\W1.000000;,
 73
     1
 44
1.0
  0
MTEXT
  5
8B
330
82
100
AcDbEntity
  8
SPEC
100
AcDbMText
 10
319.8977433146653
 20
24.28965110171568
 30
0.0
 40
0.2
 41
0.0
 46
0.0
 71
     7
 72
     1
  1
\C9;\c12632256;\FMS PGothic|b0|i0|c128;\H7.493000;\W1.000000;電球色
 73
     1
 44
1.0
  0
MTEXT
  5
8C
330
82
100
AcDbEntity
  8
SPEC
100
AcDbMText
 10
352.5944555460745
 20
24.28965110171568
 30
0.0
 40
0.2
 41
0.0
 46
0.0
 71
     7
 72
     1
  1
\C9;\c12632256;\FKozuka Gothic Pr6N R|b0|i0|c128;\H7.493000;\W1.000000;,
 73
     1
 44
1.0
  0
MTEXT
  5
8D
330
82
100
AcDbEntity
  8
SPEC
100
AcDbMText
 10
356.3409538225901
 20
24.28965110171568
 30
0.0
 40
0.2
 41
0.0
 46
0.0
 71
     7
 72
     1
  1
\C9;\c12632256;\FMS PGothic|b0|i0|c128;\H7.493000;\W1.000000;全方向
 73
     1
 44
1.0
  0
MTEXT
  5
8E
330
82
100
AcDbEntity
  8
SPEC
100
AcDbMText
 10
389.0377091176928
 20
24.28965110171568
 30
0.0
 40
0.2
 41
0.0
 46
0.0
 71
     7
 72
     1
  1
\C9;\c12632256;\FKozuka Gothic Pr6N R|b0|i0|c128;\H7.493000;\W1.000000;/
 73
     1
 44
1.0
  0
MTEXT
  5
8F
330
82
100
AcDbEntity
  8
SPEC
100
AcDbMText
 10
396.5307056707241
 20
24.28965110171568
 30
0.0
 40
0.2
 41
0.0
 46
0.0
 71
     7
 72
     1
  1
\C9;\c12632256;\FMS PGothic|b0|i0|c128;\H7.493000;\W1.000000;広配光ﾀｲﾌﾟ
 73
     1
 44
1.0
  0
MTEXT
  5
90
330
82
100
AcDbEntity
  8
SPEC
100
AcDbMText
 10
449.6203161175211
 20
24.28965110171568
 30
0.0
 40
0.2
 41
0.0
 46
0.0
 71
     7
 72
     1
  1
\C9;\c12632256;\FKozuka Gothic Pr6N R|b0|i0|c128;\H7.493000;\W1.000000;)
 73
     1
 44
1.0
  0
MTEXT
  5
91
330
82
100
AcDbEntity
  8
SPEC
100
AcDbMText
 10
454.6156184437463
 20
24.28965110171568
 30
0.0
 40
0.2
 41
0.0
 46
0.0
 71
     7
 72
     1
  1
\C9;\c12632256;\FMS PGothic|b0|i0|c128;\H7.493000;\W1.000000;ｘ
 73
     1
 44
1.0
  0
MTEXT
  5
92
330
82
100
AcDbEntity
  8
SPEC
100
AcDbMText
 10
460.2779773833029
 20
24.28965110171568
 30
0.0
 40
0.2
 41
0.0
 46
0.0
 71
     7
 72
     1
  1
\C9;\c12632256;\FKozuka Gothic Pr6N R|b0|i0|c128;\H7.493000;\W1.000000;1
 73
     1
 44
1.0
  0
MTEXT
  5
93
330
82
100
AcDbEntity
  8
SPEC
100
AcDbMText
 10
465.273279709528
 20
24.28965110171568
 30
0.0
 40
0.2
 41
0.0
 46
0.0
 71
     7
 72
     1
  1
\C9;\c12632256;\FMS PGothic|b0|i0|c128;\H7.493000;\W1.000000;灯
 73
     1
 44
1.0
  0
ENDBLK
  5
85
330
82
100
AcDbEntity
  8
0
100
AcDbBlockEnd
  0
ENDSEC
  0
SECTION
  2
ENTITIES
  0
LINE
  5
79
330
70
100
AcDbEntity
  8
FLAME
 62
     2
420
 16776960
370
    25
100
AcDbLine
 10
501.9523808268935
 20
380.9999999047501
 30
0.0
 11
501.9523808268935
 21
0.0
 31
0.0
  0
LINE
  5
7A
330
70
100
AcDbEntity
  8
FLAME
 62
     2
420
 16776960
370
    25
100
AcDbLine
 10
175.380952337109
 20
0.0
 30
0.0
 11
175.380952337109
 21
380.9999999047501
 31
0.0
  0
LINE
  5
7B
330
70
100
AcDbEntity
  8
FLAME
 62
     2
420
 16776960
370
    25
100
AcDbLine
 10
501.9523808268935
 20
1.05833333306875
 30
0.0
 11
175.380952337109
 21
1.05833333306875
 31
0.0
  0
LINE
  5
7C
330
70
100
AcDbEntity
  8
FLAME
 62
     2
420
 16776960
370
    25
100
AcDbLine
 10
501.9523808268935
 20
18.14285713832436
 30
0.0
 11
175.380952337109
 21
18.14285713832436
 31
0.0
  0
LINE
  5
7D
330
70
100
AcDbEntity
  8
FLAME
 62
     2
420
 16776960
370
    25
100
AcDbLine
 10
501.9523808268935
 20
36.28571427663846
 30
0.0
 11
175.380952337109
 21
36.28571427663846
 31
0.0
  0
LINE
  5
7E
330
70
100
AcDbEntity
  8
FLAME
 62
     2
420
 16776960
370
    25
100
AcDbLine
 10
501.9523808268935
 20
54.42857141496283
 30
0.0
 11
175.380952337109
 21
54.42857141496283
 31
0.0
  0
LINE
  5
7F
330
70
100
AcDbEntity
  8
FLAME
 62
     2
420
 16776960
370
    25
100
AcDbLine
 10
501.9523808268935
 20
380.2944443493709
 30
0.0
 11
175.380952337109
 21
380.2944443493709
 31
0.0
  0
MTEXT
  5
81
330
70
100
AcDbEntity
  8
SPEC
100
AcDbMText
 10
187.6349293557605
 20
41.1836753530328
 30
0.0
 40
0.2
 41
0.0
 46
0.0
 71
     7
 72
     1
  1
\C9;\c12632256;\FKozuka Gothic Pr6N R|b0|i0|c128;\H9.071429;\W1.000000;KF330LCW
 73
     1
 44
1.0
  0
INSERT
  5
83
330
70
100
AcDbEntity
  8
SPEC
100
AcDbBlockReference
  2
Block_0
 10
0.0
 20
0.0
 30
0.0
  0
LINE
  5
95
330
70
100
AcDbEntity
  8
1
 62
     4
420
    65535
370
    25
100
AcDbLine
 10
419.0002850720095
 20
94.39791854729282
 30
0.0
 11
417.65914134108
 21
94.39791854729282
 31
0.0
  0
LINE
  5
96
330
70
100
AcDbEntity
  8
1
 62
     4
420
    65535
370
    25
100
AcDbLine
 10
419.0002850720095
 20
95.55892215641643
 30
0.0
 11
416.9116650997191
 21
95.55892215641643
 31
0.0
  0
SPLINE
  5
97
330
70
100
AcDbEntity
  8
1
 62
    18
420
        0
370
    25
100
AcDbSpline
210
0.0
220
0.0
230
1.0
 70
     8
 71
     3
 72
     8
 73
     4
 74
     0
 42
0.0000000001
 43
0.0000000001
 40
0.0
 40
0.0
 40
0.0
 40
0.0
 40
1.0
 40
1.0
 40
1.0
 40
1.0
 10
405.990239876375
 20
99.10279621929422
 30
0.0
 10
405.990239876375
 20
99.41340736008031
 30
0.0
 10
405.7517957160369
 20
99.67199405103155
 30
0.0
 10
405.4422031566107
 20
99.69712824941248
 30
0.0
  0
LINE
  5
98
330
70
100
AcDbEntity
  8
1
 62
    18
420
        0
370
    25
100
AcDbLine
 10
406.4871460633948
 20
98.85428861060624
 30
0.0
 11
401.7168466680133
 21
98.85428861060624
 31
0.0
  0
LINE
  5
99
330
70
100
AcDbEntity
  8
1
 62
    18
420
        0
370
    25
100
AcDbLine
 10
406.4871460633948
 20
93.48770179080657
 30
0.0
 11
401.7168466680133
 21
93.48770179080657
 31
0.0
  0
LINE
  5
9A
330
70
100
AcDbEntity
  8
1
 62
    18
420
        0
370
    25
100
AcDbLine
 10
407.7791021496436
 20
93.58708302820875
 30
0.0
 11
401.7168466680133
 21
93.58708302820875
 31
0.0
  0
LINE
  5
9B
330
70
100
AcDbEntity
  8
1
 62
    18
420
        0
370
    25
100
AcDbLine
 10
394.3626351001419
 20
94.9784203518495
 30
0.0
 11
409.0710582358924
 21
94.9784203518495
 31
0.0
  0
LINE
  5
9C
330
70
100
AcDbEntity
  8
1
 62
    18
420
        0
370
    25
100
AcDbLine
 10
409.0710582358924
 20
94.87903911445759
 30
0.0
 11
401.7168466680133
 21
94.87903911445759
 31
0.0
  0
SPLINE
  5
9D
330
70
100
AcDbEntity
  8
1
 62
    18
420
        0
370
    25
100
AcDbSpline
210
0.0
220
0.0
230
1.0
 70
     8
 71
     3
 72
     8
 73
     4
 74
     0
 42
0.0000000001
 43
0.0000000001
 40
0.0
 40
0.0
 40
0.0
 40
0.0
 40
1.0
 40
1.0
 40
1.0
 40
1.0
 10
396.9465472726466
 20
98.85428861059597
 30
0.0
 10
395.4207159311397
 20
98.15595141355881
 30
0.0
 10
394.4203958429856
 20
96.65547128132926
 30
0.0
 10
394.3626351001432
 20
94.97842035184692
 30
0.0
  0
LINE
  5
9E
330
70
100
AcDbEntity
  8
1
 62
     4
420
    65535
370
    25
100
AcDbLine
 10
334.4301176160419
 20
99.64933850983392
 30
0.0
 11
364.8320037839089
 21
99.64933850983392
 31
0.0
  0
LINE
  5
9F
330
70
100
AcDbEntity
  8
1
 62
    18
420
        0
370
    25
100
AcDbLine
 10
394.3664631265874
 20
94.9784203518495
 30
0.0
 11
394.3626351001419
 21
94.87903911445759
 31
0.0
  0
LINE
  5
A0
330
70
100
AcDbEntity
  8
1
 62
    18
420
        0
370
    25
100
AcDbLine
 10
396.9465472726422
 20
93.58708302820875
 30
0.0
 11
396.9465472726422
 21
93.48770179080657
 31
0.0
  0
LINE
  5
A1
330
70
100
AcDbEntity
  8
1
 62
    18
420
        0
370
    25
100
AcDbLine
 10
396.9465472726422
 20
93.48770179080657
 30
0.0
 11
401.7168466680133
 21
93.48770179080657
 31
0.0
  0
LINE
  5
A2
330
70
100
AcDbEntity
  8
1
 62
    18
420
        0
370
    25
100
AcDbLine
 10
395.6545911863882
 20
93.58708302820875
 30
0.0
 11
401.7168466680133
 21
93.58708302820875
 31
0.0
  0
LINE
  5
A3
330
70
100
AcDbEntity
  8
1
 62
    18
420
        0
370
    25
100
AcDbLine
 10
394.3626351001419
 20
94.87903911445759
 30
0.0
 11
401.7168466680133
 21
94.87903911445759
 31
0.0
  0
SPLINE
  5
A4
330
70
100
AcDbEntity
  8
1
 62
    18
420
        0
370
    25
100
AcDbSpline
210
0.0
220
0.0
230
1.0
 70
     8
 71
     3
 72
     8
 73
     4
 74
     0
 42
0.0000000001
 43
0.0000000001
 40
0.0
 40
0.0
 40
0.0
 40
0.0
 40
1.0
 40
1.0
 40
1.0
 40
1.0
 10
394.36263510014
 20
94.87903911445759
 30
0.0
 10
394.36263510014
 20
94.16551147057138
 30
0.0
 10
394.941063542502
 20
93.58708302820939
 30
0.0
 10
395.6545911863882
 20
93.58708302820939
 30
0.0
  0
LINE
  5
A5
330
70
100
AcDbEntity
  8
1
 62
     4
420
    65535
370
    25
100
AcDbLine
 10
334.4301176160419
 20
100.8419133586806
 30
0.0
 11
364.8320037839089
 21
100.8419133586806
 31
0.0
  0
SPLINE
  5
A6
330
70
100
AcDbEntity
  8
1
 62
    18
420
        0
370
    25
100
AcDbSpline
210
0.0
220
0.0
230
1.0
 70
     8
 71
     3
 72
     8
 73
     4
 74
     0
 42
0.0000000001
 43
0.0000000001
 40
0.0
 40
0.0
 40
0.0
 40
0.0
 40
1.0
 40
1.0
 40
1.0
 40
1.0
 10
397.9914901794243
 20
99.69712824941248
 30
0.0
 10
397.6818976199955
 20
99.67199405103476
 30
0.0
 10
397.4434534596543
 20
99.41340736008289
 30
0.0
 10
397.4434534596543
 20
99.10279621929422
 30
0.0
  0
LINE
  5
A7
330
70
100
AcDbEntity
  8
1
 62
    18
420
        0
370
    25
100
AcDbLine
 10
397.4434534596556
 20
98.85428861060624
 30
0.0
 11
397.4434534596556
 21
99.10279621929422
 31
0.0
  0
LINE
  5
A8
330
70
100
AcDbEntity
  8
1
 62
    18
420
        0
370
    25
100
AcDbLine
 10
396.9465472726422
 20
98.85428861060624
 30
0.0
 11
401.7168466680133
 21
98.85428861060624
 31
0.0
  0
SPLINE
  5
A9
330
70
100
AcDbEntity
  8
1
 62
    18
420
        0
370
    25
100
AcDbSpline
210
0.0
220
0.0
230
1.0
 70
     8
 71
     3
 72
     8
 73
     4
 74
     0
 42
0.0000000001
 43
0.0000000001
 40
0.0
 40
0.0
 40
0.0
 40
0.0
 40
1.0
 40
1.0
 40
1.0
 40
1.0
 10
405.4422031567833
 20
99.69712824940351
 30
0.0
 10
402.9627110162951
 20
99.89842522972594
 30
0.0
 10
400.4709823197315
 20
99.89842522972594
 30
0.0
 10
397.9914901792433
 20
99.69712824940351
 30
0.0
  0
SPLINE
  5
AA
330
70
100
AcDbEntity
  8
1
 62
    18
420
        0
370
    25
100
AcDbSpline
210
0.0
220
0.0
230
1.0
 70
     8
 71
     3
 72
    14
 73
    10
 74
     0
 42
0.0000000001
 43
0.0000000001
 40
0.0
 40
0.0
 40
0.0
 40
0.0
 40
1.0
 40
1.0
 40
1.0
 40
2.0
 40
2.0
 40
2.0
 40
3.0
 40
3.0
 40
3.0
 40
3.0
 10
415.5830617563407
 20
93.75132667560187
 30
0.0
 10
416.0103257121642
 20
94.02924801805115
 30
0.0
 10
416.4375896679819
 20
94.30716936049787
 30
0.0
 10
416.3515318518467
 20
94.58019190252471
 30
0.0
 10
416.2665963217871
 20
94.84965393824468
 30
0.0
 10
415.6816402505507
 20
95.11434411161504
 30
0.0
 10
415.583061756342
 20
95.38884092261472
 30
0.0
 10
415.4791866529398
 20
95.6780864102336
 30
0.0
 10
415.9153592523948
 20
95.9782206648809
 30
0.0
 10
416.3515318518487
 20
96.27835491953012
 30
0.0
  0
SPLINE
  5
AB
330
70
100
AcDbEntity
  8
1
 62
    18
420
        0
370
    25
100
AcDbSpline
210
0.0
220
0.0
230
1.0
 70
     8
 71
     3
 72
     8
 73
     4
 74
     0
 42
0.0000000001
 43
0.0000000001
 40
0.0
 40
0.0
 40
0.0
 40
0.0
 40
1.0
 40
1.0
 40
1.0
 40
1.0
 10
409.0710582358937
 20
94.97842035184692
 30
0.0
 10
409.0132974930513
 20
96.65547128132926
 30
0.0
 10
408.0129774048972
 20
98.15595141355881
 30
0.0
 10
406.4871460633902
 20
98.85428861059597
 30
0.0
  0
LINE
  5
AC
330
70
100
AcDbEntity
  8
1
 62
     4
420
    65535
370
    25
100
AcDbLine
 10
416.3315521546749
 20
94.41370416715948
 30
0.0
 11
408.9843464881952
 21
94.41370416715948
 31
0.0
  0
LINE
  5
AD
330
70
100
AcDbEntity
  8
1
 62
     4
420
    65535
370
    25
100
AcDbLine
 10
394.4493468478365
 20
94.41370416715948
 30
0.0
 11
382.5954587092851
 21
94.41370416715948
 31
0.0
  0
LINE
  5
AE
330
70
100
AcDbEntity
  8
1
 62
    18
420
        0
370
    25
100
AcDbLine
 10
406.4871460633948
 20
93.58708302820875
 30
0.0
 11
406.4871460633948
 21
93.48770179080657
 31
0.0
  0
LINE
  5
AF
330
70
100
AcDbEntity
  8
1
 62
    18
420
        0
370
    25
100
AcDbLine
 10
409.0672302094469
 20
94.9784203518495
 30
0.0
 11
409.0710582358924
 21
94.87903911445759
 31
0.0
  0
SPLINE
  5
B0
330
70
100
AcDbEntity
  8
1
 62
    18
420
        0
370
    25
100
AcDbSpline
210
0.0
220
0.0
230
1.0
 70
     8
 71
     3
 72
     8
 73
     4
 74
     0
 42
0.0000000001
 43
0.0000000001
 40
0.0
 40
0.0
 40
0.0
 40
0.0
 40
1.0
 40
1.0
 40
1.0
 40
1.0
 10
407.7791021496436
 20
93.58708302820939
 30
0.0
 10
408.4926297935298
 20
93.58708302820939
 30
0.0
 10
409.0710582358918
 20
94.16551147057138
 30
0.0
 10
409.0710582358918
 20
94.87903911445759
 30
0.0
  0
LINE
  5
B1
330
70
100
AcDbEntity
  8
1
 62
    18
420
        0
370
    25
100
AcDbLine
 10
409.0710582358924
 20
94.87903911445759
 30
0.0
 11
408.3524170444636
 21
94.87903911445759
 31
0.0
  0
SPLINE
  5
B2
330
70
100
AcDbEntity
  8
1
 62
     4
420
    65535
370
    25
100
AcDbSpline
210
0.0
220
0.0
230
1.0
 70
     8
 71
     3
 72
    14
 73
    10
 74
     0
 42
0.0000000001
 43
0.0000000001
 40
0.0
 40
0.0
 40
0.0
 40
0.0
 40
1.0
 40
1.0
 40
1.0
 40
2.0
 40
2.0
 40
2.0
 40
3.0
 40
3.0
 40
3.0
 40
3.0
 10
416.9073049219551
 20
93.72835211848116
 30
0.0
 10
417.334568877776
 20
94.00627346092015
 30
0.0
 10
417.7618328335955
 20
94.28419480335596
 30
0.0
 10
417.6757750174618
 20
94.55721734538023
 30
0.0
 10
417.5908394874034
 20
94.82667938109958
 30
0.0
 10
417.0058834161637
 20
95.09136955447699
 30
0.0
 10
416.9073049219551
 20
95.36586636547987
 30
0.0
 10
416.8034298185522
 20
95.65511185310262
 30
0.0
 10
417.2396024180119
 20
95.9552461077499
 30
0.0
 10
417.6757750174656
 20
96.25538036239912
 30
0.0
  0
LINE
  5
B3
330
70
100
AcDbEntity
  8
1
 62
     4
420
    65535
370
    25
100
AcDbLine
 10
415.584854136776
 20
95.57470777627282
 30
0.0
 11
409.0099467119343
 21
95.57470777627282
 31
0.0
  0
LINE
  5
B4
330
70
100
AcDbEntity
  8
1
 62
     4
420
    65535
370
    25
100
AcDbLine
 10
394.4237466241
 20
95.57470777627282
 30
0.0
 11
383.4812788664454
 21
95.57470777627282
 31
0.0
  0
LINE
  5
B5
330
70
100
AcDbEntity
  8
1
 62
    18
420
        0
370
    25
100
AcDbLine
 10
405.9902398763762
 20
98.85428861060624
 30
0.0
 11
405.9902398763762
 21
99.10279621929422
 31
0.0
  0
LINE
  5
B6
330
70
100
AcDbEntity
  8
1
 62
    18
420
        0
370
    25
100
AcDbLine
 10
405.9902398763762
 20
98.85428861060624
 30
0.0
 11
405.9902398763762
 21
99.10279621929422
 31
0.0
  0
LINE
  5
B7
330
70
100
AcDbEntity
  8
1
 62
     4
420
    65535
370
    25
100
AcDbLine
 10
424.8617356387108
 20
146.6033315758636
 30
0.0
 11
424.8617356387108
 21
101.4203727231229
 31
0.0
  0
LINE
  5
B8
330
70
100
AcDbEntity
  8
1
 62
     4
420
    65535
370
    25
100
AcDbLine
 10
427.8431727608248
 20
156.1439303666266
 30
0.0
 11
425.4580230631341
 21
156.1439303666266
 31
0.0
  0
LINE
  5
B9
330
70
100
AcDbEntity
  8
1
 62
     4
420
    65535
370
    25
100
AcDbLine
 10
427.644410286018
 20
155.5476429422135
 30
0.0
 11
425.4580230631341
 21
155.5476429422135
 31
0.0
  0
LINE
  5
BA
330
70
100
AcDbEntity
  8
1
 62
     4
420
    65535
370
    25
100
AcDbLine
 10
427.8431727608248
 20
155.7464054170076
 30
0.0
 11
425.4580230631341
 21
155.7464054170076
 31
0.0
  0
LINE
  5
BB
330
70
100
AcDbEntity
  8
1
 62
     4
420
    65535
370
    25
100
AcDbLine
 10
427.0481228615921
 20
150.1810561224036
 30
0.0
 11
425.4580230631341
 21
150.1810561224036
 31
0.0
  0
LINE
  5
BC
330
70
100
AcDbEntity
  8
1
 62
     4
420
    65535
370
    25
100
AcDbLine
 10
426.6505979119807
 20
149.7835311727846
 30
0.0
 11
425.4580230631341
 21
149.7835311727846
 31
0.0
  0
LINE
  5
BD
330
70
100
AcDbEntity
  8
1
 62
     4
420
    65535
370
    25
100
AcDbLine
 10
425.4580230631341
 20
146.6033315758636
 30
0.0
 11
426.2651077874529
 21
146.6033315758636
 31
0.0
  0
SPLINE
  5
BE
330
70
100
AcDbEntity
  8
1
 62
     4
420
    65535
370
    25
100
AcDbSpline
210
0.0
220
0.0
230
1.0
 70
     8
 71
     3
 72
    11
 73
     7
 74
     0
 42
0.0000000001
 43
0.0000000001
 40
0.0
 40
0.0
 40
0.0
 40
0.0
 40
1.0
 40
1.0
 40
1.0
 40
2.0
 40
2.0
 40
2.0
 40
2.0
 10
423.8679232646736
 20
150.7773435468269
 30
0.0
 10
423.959118368991
 20
150.798853542741
 30
0.0
 10
424.0174135794648
 20
150.8873080698869
 30
0.0
 10
424.0666857394819
 20
150.9761060216255
 30
0.0
 10
424.8800495680645
 20
152.4419447827164
 30
0.0
 10
423.234632147172
 20
154.0013667451293
 30
0.0
 10
423.2716358402528
 20
155.5476429422135
 30
0.0
  0
LINE
  5
BF
330
70
100
AcDbEntity
  8
1
 62
     4
420
    65535
370
    25
100
AcDbLine
 10
424.452562938327
 20
146.789695588153
 30
0.0
 11
424.26544821429
 21
149.7835311727846
 31
0.0
  0
SPLINE
  5
C0
330
70
100
AcDbEntity
  8
1
 62
     4
420
    65535
370
    25
100
AcDbSpline
210
0.0
220
0.0
230
1.0
 70
     8
 71
     3
 72
     8
 73
     4
 74
     0
 42
0.0000000001
 43
0.0000000001
 40
0.0
 40
0.0
 40
0.0
 40
0.0
 40
1.0
 40
1.0
 40
1.0
 40
1.0
 10
424.4525629383308
 20
146.7896955881479
 30
0.0
 10
424.459110111146
 20
146.6849408230975
 30
0.0
 10
424.5459791740315
 20
146.6033315758707
 30
0.0
 10
424.6509383388179
 20
146.6033315758707
 30
0.0
  0
LINE
  5
C1
330
70
100
AcDbEntity
  8
1
 62
     4
420
    65535
370
    25
100
AcDbLine
 10
425.4580230631341
 20
146.6033315758636
 30
0.0
 11
424.6509383388179
 21
146.6033315758636
 31
0.0
  0
LINE
  5
C2
330
70
100
AcDbEntity
  8
1
 62
     4
420
    65535
370
    25
100
AcDbLine
 10
424.26544821429
 20
149.7835311727846
 30
0.0
 11
423.8679232646736
 21
150.1810561224036
 31
0.0
  0
LINE
  5
C3
330
70
100
AcDbEntity
  8
1
 62
     4
420
    65535
370
    25
100
AcDbLine
 10
423.8679232646736
 20
150.1810561224036
 30
0.0
 11
425.4580230631341
 21
150.1810561224036
 31
0.0
  0
LINE
  5
C4
330
70
100
AcDbEntity
  8
1
 62
     4
420
    65535
370
    25
100
AcDbLine
 10
424.26544821429
 20
149.7835311727846
 30
0.0
 11
425.4580230631341
 21
149.7835311727846
 31
0.0
  0
LINE
  5
C5
330
70
100
AcDbEntity
  8
1
 62
     4
420
    65535
370
    25
100
AcDbLine
 10
423.8679232646736
 20
150.1810561224036
 30
0.0
 11
423.8679232646736
 21
150.7773435468269
 31
0.0
  0
LINE
  5
C6
330
70
100
AcDbEntity
  8
1
 62
     4
420
    65535
370
    25
100
AcDbLine
 10
423.0728733654434
 20
155.7464054170076
 30
0.0
 11
423.0728733654434
 21
156.1439303666266
 31
0.0
  0
LINE
  5
C7
330
70
100
AcDbEntity
  8
1
 62
     4
420
    65535
370
    25
100
AcDbLine
 10
424.3648294516922
 20
159.5228924383622
 30
0.0
 11
424.3648294516922
 21
156.1439303666266
 31
0.0
  0
LINE
  5
C8
330
70
100
AcDbEntity
  8
1
 62
     4
420
    65535
370
    25
100
AcDbLine
 10
424.0666857394831
 20
156.1439303666266
 30
0.0
 11
424.0666857394831
 21
159.5228924383622
 31
0.0
  0
LINE
  5
C9
330
70
100
AcDbEntity
  8
1
 62
     4
420
    65535
370
    25
100
AcDbLine
 10
424.0666857394831
 20
159.5228924383622
 30
0.0
 11
424.3648294516922
 21
159.5228924383622
 31
0.0
  0
LINE
  5
CA
330
70
100
AcDbEntity
  8
1
 62
     4
420
    65535
370
    25
100
AcDbLine
 10
423.2716358402528
 20
155.5476429422135
 30
0.0
 11
425.4580230631341
 21
155.5476429422135
 31
0.0
  0
LINE
  5
CB
330
70
100
AcDbEntity
  8
1
 62
     4
420
    65535
370
    25
100
AcDbLine
 10
423.2716358402528
 20
155.5476429422135
 30
0.0
 11
423.0728733654434
 21
155.7464054170076
 31
0.0
  0
LINE
  5
CC
330
70
100
AcDbEntity
  8
1
 62
     4
420
    65535
370
    25
100
AcDbLine
 10
423.0728733654434
 20
155.7464054170076
 30
0.0
 11
425.4580230631341
 21
155.7464054170076
 31
0.0
  0
LINE
  5
CD
330
70
100
AcDbEntity
  8
1
 62
     4
420
    65535
370
    25
100
AcDbLine
 10
423.0728733654434
 20
156.1439303666266
 30
0.0
 11
425.4580230631341
 21
156.1439303666266
 31
0.0
  0
SPLINE
  5
CE
330
70
100
AcDbEntity
  8
1
 62
     4
420
    65535
370
    25
100
AcDbSpline
210
0.0
220
0.0
230
1.0
 70
     8
 71
     3
 72
    11
 73
     7
 74
     0
 42
0.0000000001
 43
0.0000000001
 40
0.0
 40
0.0
 40
0.0
 40
0.0
 40
1.0
 40
1.0
 40
1.0
 40
2.0
 40
2.0
 40
2.0
 40
2.0
 10
427.0481228615921
 20
150.7773435468269
 30
0.0
 10
426.9569277572747
 20
150.798853542741
 30
0.0
 10
426.8986325468029
 20
150.8873080698888
 30
0.0
 10
426.8493603867871
 20
150.9761060216287
 30
0.0
 10
426.0359965582249
 20
152.4419447827543
 30
0.0
 10
427.6814139790988
 20
154.0013667451293
 30
0.0
 10
427.644410286018
 20
155.5476429422135
 30
0.0
  0
LINE
  5
CF
330
70
100
AcDbEntity
  8
1
 62
     4
420
    65535
370
    25
100
AcDbLine
 10
426.4634831879387
 20
146.789695588153
 30
0.0
 11
426.6505979119807
 21
149.7835311727846
 31
0.0
  0
SPLINE
  5
D0
330
70
100
AcDbEntity
  8
1
 62
     4
420
    65535
370
    25
100
AcDbSpline
210
0.0
220
0.0
230
1.0
 70
     8
 71
     3
 72
     8
 73
     4
 74
     0
 42
0.0000000001
 43
0.0000000001
 40
0.0
 40
0.0
 40
0.0
 40
0.0
 40
1.0
 40
1.0
 40
1.0
 40
1.0
 10
426.2651077874529
 20
146.6033315758707
 30
0.0
 10
426.3700669522393
 20
146.6033315758707
 30
0.0
 10
426.4569360151248
 20
146.6849408230975
 30
0.0
 10
426.46348318794
 20
146.7896955881479
 30
0.0
  0
LINE
  5
D1
330
70
100
AcDbEntity
  8
1
 62
     4
420
    65535
370
    25
100
AcDbLine
 10
426.6505979119807
 20
149.7835311727846
 30
0.0
 11
427.0481228615921
 21
150.1810561224036
 31
0.0
  0
LINE
  5
D2
330
70
100
AcDbEntity
  8
1
 62
     4
420
    65535
370
    25
100
AcDbLine
 10
427.0481228615921
 20
150.1810561224036
 30
0.0
 11
427.0481228615921
 21
150.7773435468269
 31
0.0
  0
LINE
  5
D3
330
70
100
AcDbEntity
  8
1
 62
     4
420
    65535
370
    25
100
AcDbLine
 10
426.8493603867877
 20
156.1439303666266
 30
0.0
 11
426.8493603867877
 21
159.5228924383622
 31
0.0
  0
LINE
  5
D4
330
70
100
AcDbEntity
  8
1
 62
     4
420
    65535
370
    25
100
AcDbLine
 10
426.551216674576
 20
159.5228924383622
 30
0.0
 11
426.551216674576
 21
156.1439303666266
 31
0.0
  0
LINE
  5
D5
330
70
100
AcDbEntity
  8
1
 62
     4
420
    65535
370
    25
100
AcDbLine
 10
427.8431727608248
 20
155.7464054170076
 30
0.0
 11
427.8431727608248
 21
156.1439303666266
 31
0.0
  0
LINE
  5
D6
330
70
100
AcDbEntity
  8
1
 62
     4
420
    65535
370
    25
100
AcDbLine
 10
427.644410286018
 20
155.5476429422135
 30
0.0
 11
427.8431727608248
 21
155.7464054170076
 31
0.0
  0
LINE
  5
D7
330
70
100
AcDbEntity
  8
1
 62
     4
420
    65535
370
    25
100
AcDbLine
 10
426.8493603867877
 20
159.5228924383622
 30
0.0
 11
426.551216674576
 21
159.5228924383622
 31
0.0
  0
SPLINE
  5
D8
330
70
100
AcDbEntity
  8
1
 62
     4
420
    65535
370
    25
100
AcDbSpline
210
0.0
220
0.0
230
1.0
 70
     8
 71
     3
 72
     8
 73
     4
 74
     0
 42
0.0000000001
 43
0.0000000001
 40
0.0
 40
0.0
 40
0.0
 40
0.0
 40
1.0
 40
1.0
 40
1.0
 40
1.0
 10
419.0002850720095
 20
94.39791854729154
 30
0.0
 10
422.8786794197064
 20
94.39791854729154
 30
0.0
 10
426.0227392478408
 20
97.54197837542596
 30
0.0
 10
426.0227392478408
 20
101.4203727231229
 30
0.0
  0
SPLINE
  5
D9
330
70
100
AcDbEntity
  8
1
 62
     4
420
    65535
370
    25
100
AcDbSpline
210
0.0
220
0.0
230
1.0
 70
     8
 71
     3
 72
     8
 73
     4
 74
     0
 42
0.0000000001
 43
0.0000000001
 40
0.0
 40
0.0
 40
0.0
 40
0.0
 40
1.0
 40
1.0
 40
1.0
 40
1.0
 10
419.0002850720095
 20
95.55892215641836
 30
0.0
 10
422.2374748318872
 20
95.55892215641836
 30
0.0
 10
424.861735638714
 20
98.18318296324513
 30
0.0
 10
424.861735638714
 20
101.4203727231229
 30
0.0
  0
LINE
  5
DA
330
70
100
AcDbEntity
  8
1
 62
     4
420
    65535
370
    25
100
AcDbLine
 10
426.0543104875575
 20
146.6033315758636
 30
0.0
 11
426.0543104875575
 21
101.4203727231229
 31
0.0
  0
LINE
  5
DB
330
70
100
AcDbEntity
  8
1
 62
     4
420
    65535
370
    25
100
AcDbLine
 10
379.2255643514902
 20
95.13253021861613
 30
0.0
 11
368.6798336781361
 21
98.97086228230797
 31
0.0
  0
LINE
  5
DC
330
70
100
AcDbEntity
  8
1
 62
     4
420
    65535
370
    25
100
AcDbLine
 10
379.6334489722131
 20
96.25318400381932
 30
0.0
 11
369.0877182988616
 21
100.0915160675009
 31
0.0
  0
SPLINE
  5
DD
330
70
100
AcDbEntity
  8
1
 62
     4
420
    65535
370
    25
100
AcDbSpline
210
0.0
220
0.0
230
1.0
 70
     8
 71
     3
 72
     8
 73
     4
 74
     0
 42
0.0000000001
 43
0.0000000001
 40
0.0
 40
0.0
 40
0.0
 40
0.0
 40
1.0
 40
1.0
 40
1.0
 40
1.0
 10
368.6798336781227
 20
98.9708622823054
 30
0.0
 10
367.4466138037976
 20
99.41971760886321
 30
0.0
 10
366.1443689627413
 20
99.6493385098288
 30
0.0
 10
364.8320037839089
 20
99.6493385098288
 30
0.0
  0
SPLINE
  5
DE
330
70
100
AcDbEntity
  8
1
 62
     4
420
    65535
370
    25
100
AcDbSpline
210
0.0
220
0.0
230
1.0
 70
     8
 71
     3
 72
     8
 73
     4
 74
     0
 42
0.0000000001
 43
0.0000000001
 40
0.0
 40
0.0
 40
0.0
 40
0.0
 40
1.0
 40
1.0
 40
1.0
 40
1.0
 10
369.0877182988501
 20
100.0915160675002
 30
0.0
 10
367.7237724219357
 20
100.587951767845
 30
0.0
 10
366.2834846689806
 20
100.8419133586735
 30
0.0
 10
364.8320037839089
 20
100.8419133586735
 30
0.0
  0
SPLINE
  5
DF
330
70
100
AcDbEntity
  8
1
 62
     4
420
    65535
370
    25
100
AcDbSpline
210
0.0
220
0.0
230
1.0
 70
     8
 71
     3
 72
     8
 73
     4
 74
     0
 42
0.0000000001
 43
0.0000000001
 40
0.0
 40
0.0
 40
0.0
 40
0.0
 40
1.0
 40
1.0
 40
1.0
 40
1.0
 10
379.6334489722318
 20
96.25318400380136
 30
0.0
 10
380.8666688465568
 20
95.80432867724352
 30
0.0
 10
382.1689136876131
 20
95.57470777627795
 30
0.0
 10
383.4812788664454
 20
95.57470777627795
 30
0.0
  0
SPLINE
  5
E0
330
70
100
AcDbEntity
  8
1
 62
     4
420
    65535
370
    25
100
AcDbSpline
210
0.0
220
0.0
230
1.0
 70
     8
 71
     3
 72
     8
 73
     4
 74
     0
 42
0.0000000001
 43
0.0000000001
 40
0.0
 40
0.0
 40
0.0
 40
0.0
 40
1.0
 40
1.0
 40
1.0
 40
1.0
 10
379.2255643515043
 20
95.1325302186065
 30
0.0
 10
380.8698034180778
 20
94.53407614035885
 30
0.0
 10
382.6217760190811
 20
94.28913690969215
 30
0.0
 10
384.3670990236237
 20
94.41370416715178
 30
0.0
  0
LINE
  5
E2
330
70
100
AcDbEntity
  8
中心線
  6
AI-Linetype-0
 62
     1
420
 16711680
370
    25
100
AcDbLine
 10
425.4422374432752
 20
161.3728372242124
 30
0.0
 11
425.4422374432752
 21
101.4203727231229
 31
0.0
  0
SPLINE
  5
E4
330
70
100
AcDbEntity
  8
中心線
  6
AI-Linetype-1
 62
     1
420
 16711680
370
    25
100
AcDbSpline
210
0.0
220
0.0
230
1.0
 70
     8
 71
     3
 72
     8
 73
     4
 74
     0
 42
0.0000000001
 43
0.0000000001
 40
0.0
 40
0.0
 40
0.0
 40
0.0
 40
1.0
 40
1.0
 40
1.0
 40
1.0
 10
419.0002850720095
 20
94.97842035185525
 30
0.0
 10
422.5580771257972
 20
94.97842035185525
 30
0.0
 10
425.442237443277
 20
97.86258066933521
 30
0.0
 10
425.442237443277
 20
101.4203727231229
 30
0.0
  0
LINE
  5
E7
330
70
100
AcDbEntity
  8
HONTAI
 62
     2
420
 16776960
370
    25
100
AcDbLine
 10
356.1083811848079
 20
82.33111679477508
 30
0.0
 11
356.1083811848079
 21
83.44597041951045
 31
0.0
  0
LINE
  5
E8
330
70
100
AcDbEntity
  8
HONTAI
 62
     2
420
 16776960
370
    25
100
AcDbLine
 10
309.9215881606417
 20
82.33111679477508
 30
0.0
 11
309.9215881606417
 21
83.44597041951045
 31
0.0
  0
LINE
  5
E9
330
70
100
AcDbEntity
  8
HONTAI
 62
     2
420
 16776960
370
    25
100
AcDbLine
 10
332.2186606550691
 20
98.71298974442037
 30
0.0
 11
332.2186606550691
 21
97.62136718291635
 31
0.0
  0
LINE
  5
EA
330
70
100
AcDbEntity
  8
HONTAI
 62
     2
420
 16776960
370
    25
100
AcDbLine
 10
333.8113086903856
 20
98.71298974442037
 30
0.0
 11
333.8113086903856
 21
97.62136718291635
 31
0.0
  0
SPLINE
  5
EB
330
70
100
AcDbEntity
  8
HONTAI
 62
     2
420
 16776960
370
    25
100
AcDbSpline
210
0.0
220
0.0
230
1.0
 70
     8
 71
     3
 72
     8
 73
     4
 74
     0
 42
0.0000000001
 43
0.0000000001
 40
0.0
 40
0.0
 40
0.0
 40
0.0
 40
1.0
 40
1.0
 40
1.0
 40
1.0
 10
336.3737106025058
 20
89.02023854306854
 30
0.0
 10
336.8148925586913
 20
86.91595907132574
 30
0.0
 10
338.1106759665716
 20
85.08964358151779
 30
0.0
 10
339.9511113473119
 20
83.97814404351382
 30
0.0
  0
SPLINE
  5
EC
330
70
100
AcDbEntity
  8
HONTAI
 62
     2
420
 16776960
370
    25
100
AcDbSpline
210
0.0
220
0.0
230
1.0
 70
     8
 71
     3
 72
     8
 73
     4
 74
     0
 42
0.0000000001
 43
0.0000000001
 40
0.0
 40
0.0
 40
0.0
 40
0.0
 40
1.0
 40
1.0
 40
1.0
 40
1.0
 10
335.0220259461902
 20
97.62136718289518
 30
0.0
 10
335.3207987829601
 20
94.7325205201456
 30
0.0
 10
335.771989165693
 20
91.86147622387451
 30
0.0
 10
336.3737106025955
 20
89.02023854264438
 30
0.0
  0
LINE
  5
ED
330
70
100
AcDbEntity
  8
HONTAI
 62
     2
420
 16776960
370
    25
100
AcDbLine
 10
340.1819008316461
 20
83.56915007632705
 30
0.0
 11
340.1819008316461
 21
83.44597041951045
 31
0.0
  0
SPLINE
  5
EE
330
70
100
AcDbEntity
  8
HONTAI
 62
     2
420
 16776960
370
    25
100
AcDbSpline
210
0.0
220
0.0
230
1.0
 70
     8
 71
     3
 72
     8
 73
     4
 74
     0
 42
0.0000000001
 43
0.0000000001
 40
0.0
 40
0.0
 40
0.0
 40
0.0
 40
1.0
 40
1.0
 40
1.0
 40
1.0
 10
340.1819008316468
 20
83.56915007632705
 30
0.0
 10
340.1819008316468
 20
83.73648991394274
 30
0.0
 10
340.0943549318938
 20
83.89163452530855
 30
0.0
 10
339.9511113473415
 20
83.97814404350098
 30
0.0
  0
SPLINE
  5
EF
330
70
100
AcDbEntity
  8
HONTAI
 62
     2
420
 16776960
370
    25
100
AcDbSpline
210
0.0
220
0.0
230
1.0
 70
     8
 71
     3
 72
     8
 73
     4
 74
     0
 42
0.0000000001
 43
0.0000000001
 40
0.0
 40
0.0
 40
0.0
 40
0.0
 40
1.0
 40
1.0
 40
1.0
 40
1.0
 10
326.078857998138
 20
83.97814404351382
 30
0.0
 10
327.919293378878
 20
85.08964358151779
 30
0.0
 10
329.2150767867583
 20
86.91595907132574
 30
0.0
 10
329.6562587429439
 20
89.02023854306854
 30
0.0
  0
SPLINE
  5
F0
330
70
100
AcDbEntity
  8
HONTAI
 62
     2
420
 16776960
370
    25
100
AcDbSpline
210
0.0
220
0.0
230
1.0
 70
     8
 71
     3
 72
     8
 73
     4
 74
     0
 42
0.0000000001
 43
0.0000000001
 40
0.0
 40
0.0
 40
0.0
 40
0.0
 40
1.0
 40
1.0
 40
1.0
 40
1.0
 10
329.6562587428514
 20
89.02023854264438
 30
0.0
 10
330.257980179754
 20
91.86147622387451
 30
0.0
 10
330.7091705624869
 20
94.7325205201456
 30
0.0
 10
331.0079433992568
 20
97.62136718289518
 30
0.0
  0
LINE
  5
F1
330
70
100
AcDbEntity
  8
HONTAI
 62
     2
420
 16776960
370
    25
100
AcDbLine
 10
325.848068513806
 20
83.56915007632705
 30
0.0
 11
325.848068513806
 21
83.44597041951045
 31
0.0
  0
SPLINE
  5
F2
330
70
100
AcDbEntity
  8
HONTAI
 62
     2
420
 16776960
370
    25
100
AcDbSpline
210
0.0
220
0.0
230
1.0
 70
     8
 71
     3
 72
     8
 73
     4
 74
     0
 42
0.0000000001
 43
0.0000000001
 40
0.0
 40
0.0
 40
0.0
 40
0.0
 40
1.0
 40
1.0
 40
1.0
 40
1.0
 10
326.0788579981078
 20
83.97814404350098
 30
0.0
 10
325.9356144135558
 20
83.89163452530855
 30
0.0
 10
325.8480685138025
 20
83.73648991394274
 30
0.0
 10
325.8480685138025
 20
83.56915007632705
 30
0.0
  0
LINE
  5
F3
330
70
100
AcDbEntity
  8
HONTAI
 62
     2
420
 16776960
370
    25
100
AcDbLine
 10
336.6641997613552
 20
308.0093433990707
 30
0.0
 11
329.365769584097
 21
304.8240473284378
 31
0.0
  0
LINE
  5
F4
330
70
100
AcDbEntity
  8
HONTAI
 62
     2
420
 16776960
370
    25
100
AcDbLine
 10
328.4250612178017
 20
307.8897905162798
 30
0.0
 11
329.365769584097
 21
304.8240473284378
 31
0.0
  0
SPLINE
  5
F5
330
70
100
AcDbEntity
  8
HONTAI
 62
     2
420
 16776960
370
    25
100
AcDbSpline
210
0.0
220
0.0
230
1.0
 70
     8
 71
     3
 72
     8
 73
     4
 74
     0
 42
0.0000000001
 43
0.0000000001
 40
0.0
 40
0.0
 40
0.0
 40
0.0
 40
1.0
 40
1.0
 40
1.0
 40
1.0
 10
332.5439731848043
 20
100.2892871671127
 30
0.0
 10
360.8678044874896
 20
165.9879535702939
 30
0.0
 10
360.7739061783354
 20
240.4725478176189
 30
0.0
 10
332.2845203417661
 20
306.0995931684086
 30
0.0
  0
SPLINE
  5
F6
330
70
100
AcDbEntity
  8
HONTAI
 62
     2
420
 16776960
370
    25
100
AcDbSpline
210
0.0
220
0.0
230
1.0
 70
     8
 71
     3
 72
     8
 73
     4
 74
     0
 42
0.0000000001
 43
0.0000000001
 40
0.0
 40
0.0
 40
0.0
 40
0.0
 40
1.0
 40
1.0
 40
1.0
 40
1.0
 10
334.0064962083263
 20
99.65876819827515
 30
0.0
 10
362.5043800732131
 20
165.7611589810605
 30
0.0
 10
362.4099047502675
 20
240.7034679469468
 30
0.0
 10
333.7454490035786
 20
306.7337975593512
 30
0.0
  0
LINE
  5
F7
330
70
100
AcDbEntity
  8
HONTAI
 62
    18
420
        0
370
    25
100
AcDbLine
 10
312.0025138475583
 20
354.5909084370608
 30
0.0
 11
307.202355065648
 21
352.4971908664631
 31
0.0
  0
LINE
  5
F8
330
70
100
AcDbEntity
  8
HONTAI
 62
    18
420
        0
370
    25
100
AcDbLine
 10
310.873324259807
 20
307.9290242438004
 30
0.0
 11
305.5814096477579
 21
315.0118933073802
 31
0.0
  0
LINE
  5
F9
330
70
100
AcDbEntity
  8
HONTAI
 62
    18
420
        0
370
    25
100
AcDbLine
 10
302.541180218611
 20
320.5119307239219
 30
0.0
 11
300.0863325087989
 21
343.8331666580985
 31
0.0
  0
LINE
  5
FA
330
70
100
AcDbEntity
  8
HONTAI
 62
    18
420
        0
370
    25
100
AcDbLine
 10
324.4684466966457
 20
306.1640073246442
 30
0.0
 11
317.6023020211809
 21
305.7341191102441
 31
0.0
  0
LINE
  5
FB
330
70
100
AcDbEntity
  8
HONTAI
 62
    18
420
        0
370
    25
100
AcDbLine
 10
317.6023020211809
 20
305.7341191102441
 30
0.0
 11
310.873324259807
 21
307.9290242438004
 31
0.0
  0
LINE
  5
FC
330
70
100
AcDbEntity
  8
HONTAI
 62
    18
420
        0
370
    25
100
AcDbLine
 10
305.5814096477579
 20
315.0118933073802
 30
0.0
 11
302.541180218611
 21
320.5119307239219
 31
0.0
  0
LINE
  5
FD
330
70
100
AcDbEntity
  8
HONTAI
 62
    18
420
        0
370
    25
100
AcDbLine
 10
324.4684466966457
 20
306.1640073246442
 30
0.0
 11
331.7415015924729
 21
309.3363446407922
 31
0.0
  0
LINE
  5
FE
330
70
100
AcDbEntity
  8
HONTAI
 62
    18
420
        0
370
    25
100
AcDbLine
 10
302.6431147380789
 20
349.586193094363
 30
0.0
 11
307.4231829872227
 21
352.5935108676323
 31
0.0
  0
LINE
  5
FF
330
70
100
AcDbEntity
  8
HONTAI
 62
    18
420
        0
370
    25
100
AcDbLine
 10
302.6431147380789
 20
349.586193094363
 30
0.0
 11
300.0863325087989
 21
343.8331666580985
 31
0.0
  0
SPLINE
  5
100
330
70
100
AcDbEntity
  8
HONTAI
 62
     2
420
 16776960
370
    25
100
AcDbSpline
210
0.0
220
0.0
230
1.0
 70
     8
 71
     3
 72
     8
 73
     4
 74
     0
 42
0.0000000001
 43
0.0000000001
 40
0.0
 40
0.0
 40
0.0
 40
0.0
 40
1.0
 40
1.0
 40
1.0
 40
1.0
 10
332.5439731845499
 20
100.289287166514
 30
0.0
 10
332.3293595286793
 20
99.79147912522503
 30
0.0
 10
332.2186606550646
 20
99.25508924382851
 30
0.0
 10
332.2186606550646
 20
98.71298974442037
 30
0.0
  0
SPLINE
  5
101
330
70
100
AcDbEntity
  8
HONTAI
 62
     2
420
 16776960
370
    25
100
AcDbSpline
210
0.0
220
0.0
230
1.0
 70
     8
 71
     3
 72
     8
 73
     4
 74
     0
 42
0.0000000001
 43
0.0000000001
 40
0.0
 40
0.0
 40
0.0
 40
0.0
 40
1.0
 40
1.0
 40
1.0
 40
1.0
 10
334.0064962080719
 20
99.65876819767645
 30
0.0
 10
333.8777280145496
 20
99.36008337290317
 30
0.0
 10
333.8113086903808
 20
99.03824944406537
 30
0.0
 10
333.8113086903808
 20
98.71298974442037
 30
0.0
  0
LINE
  5
102
330
70
100
AcDbEntity
  8
HONTAI
 62
    18
420
        0
370
    25
100
AcDbLine
 10
312.0025138475583
 20
354.5909084370608
 30
0.0
 11
316.8026726294713
 21
356.6846260076687
 31
0.0
  0
LINE
  5
103
330
70
100
AcDbEntity
  8
HONTAI
 62
    18
420
        0
370
    25
100
AcDbLine
 10
346.9699681408799
 20
323.6735404081435
 30
0.0
 11
345.3790099140675
 21
332.3706805331317
 31
0.0
  0
LINE
  5
104
330
70
100
AcDbEntity
  8
HONTAI
 62
    18
420
        0
370
    25
100
AcDbLine
 10
343.4162700991146
 20
338.3406938483612
 30
0.0
 11
327.9938410433361
 21
356.0057725290661
 31
0.0
  0
LINE
  5
105
330
70
100
AcDbEntity
  8
HONTAI
 62
    18
420
        0
370
    25
100
AcDbLine
 10
339.0145564883028
 20
312.50868195693
 30
0.0
 11
344.0007975690111
 21
317.2485286281166
 31
0.0
  0
LINE
  5
106
330
70
100
AcDbEntity
  8
HONTAI
 62
    18
420
        0
370
    25
100
AcDbLine
 10
344.0007975690111
 20
317.2485286281166
 30
0.0
 11
346.9699681408799
 21
323.6735404081435
 31
0.0
  0
LINE
  5
107
330
70
100
AcDbEntity
  8
HONTAI
 62
    18
420
        0
370
    25
100
AcDbLine
 10
345.3790099140675
 20
332.3706805331317
 30
0.0
 11
343.4162700991146
 21
338.3406938483612
 31
0.0
  0
LINE
  5
108
330
70
100
AcDbEntity
  8
HONTAI
 62
    18
420
        0
370
    25
100
AcDbLine
 10
339.0145564883028
 20
312.50868195693
 30
0.0
 11
331.7415015924729
 21
309.3363446407922
 31
0.0
  0
LINE
  5
109
330
70
100
AcDbEntity
  8
HONTAI
 62
    18
420
        0
370
    25
100
AcDbLine
 10
322.0379277936284
 20
358.045759270744
 30
0.0
 11
316.5818447078915
 21
356.5883060064789
 31
0.0
  0
LINE
  5
10A
330
70
100
AcDbEntity
  8
HONTAI
 62
    18
420
        0
370
    25
100
AcDbLine
 10
322.0379277936284
 20
358.045759270744
 30
0.0
 11
327.9938410433361
 21
356.0057725290661
 31
0.0
  0
LINE
  5
10B
330
70
100
AcDbEntity
  8
HONTAI
 62
     2
420
 16776960
370
    25
100
AcDbLine
 10
335.0579419671443
 20
310.7828987653046
 30
0.0
 11
336.6648926042059
 21
308.0077549538499
 31
0.0
  0
SPLINE
  5
10C
330
70
100
AcDbEntity
  8
HONTAI
 62
     2
420
 16776960
370
    25
100
AcDbSpline
210
0.0
220
0.0
230
1.0
 70
     8
 71
     3
 72
    17
 73
    13
 74
     0
 42
0.0000000001
 43
0.0000000001
 40
0.0
 40
0.0
 40
0.0
 40
0.0
 40
1.0
 40
1.0
 40
1.0
 40
2.0
 40
2.0
 40
2.0
 40
3.0
 40
3.0
 40
3.0
 40
4.0
 40
4.0
 40
4.0
 40
4.0
 10
332.2186606550669
 20
98.07915058952351
 30
0.0
 10
331.2011844455887
 20
97.96986781807703
 30
0.0
 10
330.7328834136128
 20
97.67632001539141
 30
0.0
 10
331.1726810244894
 20
97.42349322119695
 30
0.0
 10
331.6124786353658
 20
97.17066642700252
 30
0.0
 10
332.7938324809048
 20
97.05430100486335
 30
0.0
 10
333.8113086903827
 20
97.16358377630918
 30
0.0
 10
334.8287848998609
 20
97.27286654775568
 30
0.0
 10
335.2970859318368
 20
97.5664143504413
 30
0.0
 10
334.8572883209602
 20
97.81924114463572
 30
0.0
 10
334.6545162980187
 20
97.93580885497519
 30
0.0
 10
334.2804238110404
 20
98.02876493919018
 30
0.0
 10
333.811308690384
 20
98.07915058952351
 30
0.0
  0
SPLINE
  5
10D
330
70
100
AcDbEntity
  8
HONTAI
 62
     2
420
 16776960
370
    25
100
AcDbSpline
210
0.0
220
0.0
230
1.0
 70
     8
 71
     3
 72
    11
 73
     7
 74
     0
 42
0.0000000001
 43
0.0000000001
 40
0.0
 40
0.0
 40
0.0
 40
0.0
 40
1.0
 40
1.0
 40
1.0
 40
2.0
 40
2.0
 40
2.0
 40
2.0
 10
332.2186606550663
 20
97.62136718291635
 30
0.0
 10
332.2186606550663
 20
97.49975075818166
 30
0.0
 10
332.5751870618478
 20
97.40116116641441
 30
0.0
 10
333.0149846727248
 20
97.40116116641441
 30
0.0
 10
333.4547822836017
 20
97.40116116641441
 30
0.0
 10
333.8113086903833
 20
97.49975075818166
 30
0.0
 10
333.8113086903833
 20
97.62136718291635
 30
0.0
  0
SPLINE
  5
10E
330
70
100
AcDbEntity
  8
HONTAI
 62
     2
420
 16776960
370
    25
100
AcDbSpline
210
0.0
220
0.0
230
1.0
 70
     8
 71
     3
 72
    11
 73
     7
 74
     0
 42
0.0000000001
 43
0.0000000001
 40
0.0
 40
0.0
 40
0.0
 40
0.0
 40
1.0
 40
1.0
 40
1.0
 40
2.0
 40
2.0
 40
2.0
 40
2.0
 10
325.8480685138028
 20
83.44597041951045
 30
0.0
 10
325.8480685138028
 20
82.63376667457357
 30
0.0
 10
329.0568061748363
 20
81.97534544718337
 30
0.0
 10
333.0149846727248
 20
81.97534544718337
 30
0.0
 10
336.9731631706132
 20
81.97534544718337
 30
0.0
 10
340.1819008316468
 20
82.63376667457357
 30
0.0
 10
340.1819008316468
 20
83.44597041951045
 30
0.0
  0
SPLINE
  5
10F
330
70
100
AcDbEntity
  8
HONTAI
 62
     2
420
 16776960
370
    25
100
AcDbSpline
210
0.0
220
0.0
230
1.0
 70
     8
 71
     3
 72
    17
 73
    13
 74
     0
 42
0.0000000001
 43
0.0000000001
 40
0.0
 40
0.0
 40
0.0
 40
0.0
 40
1.0
 40
1.0
 40
1.0
 40
2.0
 40
2.0
 40
2.0
 40
3.0
 40
3.0
 40
3.0
 40
4.0
 40
4.0
 40
4.0
 40
4.0
 10
329.7613108195311
 20
89.52402986668177
 30
0.0
 10
317.134402844477
 20
89.04631577986547
 30
0.0
 10
308.3549908595235
 20
85.93781209025205
 30
0.0
 10
310.1519453095656
 20
82.58099254901431
 30
0.0
 10
311.9488997596077
 20
79.22417300777656
 30
0.0
 10
323.6417505508646
 20
76.89019688552282
 30
0.0
 10
336.2686585259185
 20
77.36791097233913
 30
0.0
 10
348.8955665009726
 20
77.84562505915544
 30
0.0
 10
357.6749784859264
 20
80.95412874876885
 30
0.0
 10
355.878024035884
 20
84.31094829000661
 30
0.0
 10
354.4306578304989
 20
87.01471585709816
 30
0.0
 10
346.4390665076974
 20
89.13925259807747
 30
0.0
 10
336.2686585259185
 20
89.52402986668177
 30
0.0
  0
SPLINE
  5
110
330
70
100
AcDbEntity
  8
HONTAI
 62
     2
420
 16776960
370
    25
100
AcDbSpline
210
0.0
220
0.0
230
1.0
 70
     8
 71
     3
 72
    11
 73
     7
 74
     0
 42
0.0000000001
 43
0.0000000001
 40
0.0
 40
0.0
 40
0.0
 40
0.0
 40
1.0
 40
1.0
 40
1.0
 40
2.0
 40
2.0
 40
2.0
 40
2.0
 10
309.9215881606411
 20
82.33111679477508
 30
0.0
 10
309.9215881606411
 20
78.94047553076902
 30
0.0
 10
320.2608539573054
 20
76.19181770124672
 30
0.0
 10
333.0149846727248
 20
76.19181770124672
 30
0.0
 10
345.7691153881441
 20
76.19181770124672
 30
0.0
 10
356.1083811848086
 20
78.94047553076902
 30
0.0
 10
356.1083811848086
 20
82.33111679477508
 30
0.0
  0
LINE
  5
112
330
70
100
AcDbEntity
  8
SOUZOU
  6
AI-Linetype-2
 62
     8
420
  8421504
370
    25
100
AcDbLine
 10
311.5422913010192
 20
353.4678068450903
 30
0.0
 11
311.534753577657
 21
354.3868822911801
 31
0.0
  0
LINE
  5
114
330
70
100
AcDbEntity
  8
SOUZOU
  6
AI-Linetype-3
 62
     8
420
  8421504
370
    25
100
AcDbLine
 10
311.5422913010192
 20
353.4678068450903
 30
0.0
 11
311.0812059668639
 21
354.1890553765004
 31
0.0
  0
LINE
  5
116
330
70
100
AcDbEntity
  8
SOUZOU
  6
AI-Linetype-4
 62
     8
420
  8421504
370
    25
100
AcDbLine
 10
311.0812059668639
 20
354.1890553765004
 30
0.0
 11
309.9700851848936
 21
352.7820471193345
 31
0.0
  0
LINE
  5
118
330
70
100
AcDbEntity
  8
SOUZOU
  6
AI-Linetype-5
 62
     8
420
  8421504
370
    25
100
AcDbLine
 10
309.9700851848936
 20
352.7820471193345
 30
0.0
 11
310.6556518298126
 21
354.0034385636959
 31
0.0
  0
LINE
  5
11A
330
70
100
AcDbEntity
  8
SOUZOU
  6
AI-Linetype-6
 62
     8
420
  8421504
370
    25
100
AcDbLine
 10
310.6556518298126
 20
354.0034385636959
 30
0.0
 11
308.4699035695941
 21
352.1277028049653
 31
0.0
  0
LINE
  5
11C
330
70
100
AcDbEntity
  8
SOUZOU
  6
AI-Linetype-7
 62
     8
420
  8421504
370
    25
100
AcDbLine
 10
308.4699035695941
 20
352.1277028049653
 30
0.0
 11
310.2016334512988
 21
353.805406311104
 31
0.0
  0
LINE
  5
11E
330
70
100
AcDbEntity
  8
SOUZOU
  6
AI-Linetype-8
 62
     8
420
  8421504
370
    25
100
AcDbLine
 10
310.2016334512988
 20
353.805406311104
 30
0.0
 11
307.0873287143696
 21
351.5246558228528
 31
0.0
  0
LINE
  5
120
330
70
100
AcDbEntity
  8
SOUZOU
  6
AI-Linetype-9
 62
     8
420
  8421504
370
    25
100
AcDbLine
 10
307.0873287143696
 20
351.5246558228528
 30
0.0
 11
309.7461063409488
 21
353.6067159847712
 31
0.0
  0
LINE
  5
122
330
70
100
AcDbEntity
  8
SOUZOU
  6
AI-Linetype-10
 62
     8
420
  8421504
370
    25
100
AcDbLine
 10
309.7461063409488
 20
353.6067159847712
 30
0.0
 11
305.8643694565719
 21
350.9912294504228
 31
0.0
  0
LINE
  5
124
330
70
100
AcDbEntity
  8
SOUZOU
  6
AI-Linetype-11
 62
     8
420
  8421504
370
    25
100
AcDbLine
 10
305.8643694565719
 20
350.9912294504228
 30
0.0
 11
309.13783010066
 21
353.34140004213
 31
0.0
  0
LINE
  5
126
330
70
100
AcDbEntity
  8
SOUZOU
  6
AI-Linetype-12
 62
     8
420
  8421504
370
    25
100
AcDbLine
 10
309.13783010066
 20
353.34140004213
 30
0.0
 11
304.8381847944153
 21
350.5436315780465
 31
0.0
  0
LINE
  5
128
330
70
100
AcDbEntity
  8
SOUZOU
  6
AI-Linetype-13
 62
     8
420
  8421504
370
    25
100
AcDbLine
 10
304.8381847944153
 20
350.5436315780465
 30
0.0
 11
308.4323413505349
 21
353.0336822646104
 31
0.0
  0
LINE
  5
12A
330
70
100
AcDbEntity
  8
SOUZOU
  6
AI-Linetype-14
 62
     8
420
  8421504
370
    25
100
AcDbLine
 10
308.4323413505349
 20
353.0336822646104
 30
0.0
 11
304.0399548295732
 21
350.1954622405936
 31
0.0
  0
LINE
  5
12C
330
70
100
AcDbEntity
  8
SOUZOU
  6
AI-Linetype-15
 62
     8
420
  8421504
370
    25
100
AcDbLine
 10
304.0399548295732
 20
350.1954622405936
 30
0.0
 11
307.9135790454436
 21
352.8074102177062
 31
0.0
  0
LINE
  5
12E
330
70
100
AcDbEntity
  8
SOUZOU
  6
AI-Linetype-16
 62
     8
420
  8421504
370
    25
100
AcDbLine
 10
307.9135790454436
 20
352.8074102177062
 30
0.0
 11
302.7549110404391
 21
349.634956040165
 31
0.0
  0
LINE
  5
130
330
70
100
AcDbEntity
  8
SOUZOU
  6
AI-Linetype-17
 62
     8
420
  8421504
370
    25
100
AcDbLine
 10
302.7549110404391
 20
349.634956040165
 30
0.0
 11
307.6062849581929
 21
352.6733756869536
 31
0.0
  0
LINE
  5
132
330
70
100
AcDbEntity
  8
SOUZOU
  6
AI-Linetype-18
 62
     8
420
  8421504
370
    25
100
AcDbLine
 10
312.3405212658537
 20
353.8159761825535
 30
0.0
 11
312.913173884533
 21
349.4279364112951
 31
0.0
  0
LINE
  5
134
330
70
100
AcDbEntity
  8
SOUZOU
  6
AI-Linetype-19
 62
     8
420
  8421504
370
    25
100
AcDbLine
 10
312.913173884533
 20
349.4279364112951
 30
0.0
 11
311.5422913010192
 21
353.4678068450903
 31
0.0
  0
LINE
  5
136
330
70
100
AcDbEntity
  8
SOUZOU
  6
AI-Linetype-20
 62
     8
420
  8421504
370
    25
100
AcDbLine
 10
311.5422913010192
 20
353.4678068450903
 30
0.0
 11
311.745918135178
 21
348.9188066131145
 31
0.0
  0
LINE
  5
138
330
70
100
AcDbEntity
  8
SOUZOU
  6
AI-Linetype-21
 62
     8
420
  8421504
370
    25
100
AcDbLine
 10
311.745918135178
 20
348.9188066131145
 30
0.0
 11
309.9700851848936
 21
352.7820471193345
 31
0.0
  0
LINE
  5
13A
330
70
100
AcDbEntity
  8
SOUZOU
  6
AI-Linetype-22
 62
     8
420
  8421504
370
    25
100
AcDbLine
 10
309.9700851848936
 20
352.7820471193345
 30
0.0
 11
310.0290883404394
 21
348.16996540385
 31
0.0
  0
LINE
  5
13C
330
70
100
AcDbEntity
  8
SOUZOU
  6
AI-Linetype-23
 62
     8
420
  8421504
370
    25
100
AcDbLine
 10
310.0290883404394
 20
348.16996540385
 30
0.0
 11
308.4699035695941
 21
352.1277028049653
 31
0.0
  0
LINE
  5
13E
330
70
100
AcDbEntity
  8
SOUZOU
  6
AI-Linetype-24
 62
     8
420
  8421504
370
    25
100
AcDbLine
 10
308.4699035695941
 20
352.1277028049653
 30
0.0
 11
308.3588424348308
 21
347.4414430031043
 31
0.0
  0
LINE
  5
140
330
70
100
AcDbEntity
  8
SOUZOU
  6
AI-Linetype-25
 62
     8
420
  8421504
370
    25
100
AcDbLine
 10
308.3588424348308
 20
347.4414430031043
 30
0.0
 11
307.0873287143696
 21
351.5246558228528
 31
0.0
  0
LINE
  5
142
330
70
100
AcDbEntity
  8
SOUZOU
  6
AI-Linetype-26
 62
     8
420
  8421504
370
    25
100
AcDbLine
 10
307.0873287143696
 20
351.5246558228528
 30
0.0
 11
306.5572089376345
 21
346.655612392015
 31
0.0
  0
LINE
  5
144
330
70
100
AcDbEntity
  8
SOUZOU
  6
AI-Linetype-27
 62
     8
420
  8421504
370
    25
100
AcDbLine
 10
306.5572089376345
 20
346.655612392015
 30
0.0
 11
305.8643694565719
 21
350.9912294504228
 31
0.0
  0
LINE
  5
146
330
70
100
AcDbEntity
  8
SOUZOU
  6
AI-Linetype-28
 62
     8
420
  8421504
370
    25
100
AcDbLine
 10
305.8643694565719
 20
350.9912294504228
 30
0.0
 11
304.4539894055767
 21
345.7382369698468
 31
0.0
  0
LINE
  5
148
330
70
100
AcDbEntity
  8
SOUZOU
  6
AI-Linetype-29
 62
     8
420
  8421504
370
    25
100
AcDbLine
 10
304.4539894055767
 20
345.7382369698468
 30
0.0
 11
304.8381847944153
 21
350.5436315780465
 31
0.0
  0
LINE
  5
14A
330
70
100
AcDbEntity
  8
SOUZOU
  6
AI-Linetype-30
 62
     8
420
  8421504
370
    25
100
AcDbLine
 10
304.8381847944153
 20
350.5436315780465
 30
0.0
 11
302.7424138775506
 21
344.9916875494603
 31
0.0
  0
LINE
  5
14C
330
70
100
AcDbEntity
  8
SOUZOU
  6
AI-Linetype-31
 62
     8
420
  8421504
370
    25
100
AcDbLine
 10
302.7424138775506
 20
344.9916875494603
 30
0.0
 11
304.0399548295732
 21
350.1954622405936
 31
0.0
  0
LINE
  5
14E
330
70
100
AcDbEntity
  8
SOUZOU
  6
AI-Linetype-32
 62
     8
420
  8421504
370
    25
100
AcDbLine
 10
304.0399548295732
 20
350.1954622405936
 30
0.0
 11
301.0965512409279
 21
344.2738005632733
 31
0.0
  0
LINE
  5
150
330
70
100
AcDbEntity
  8
SOUZOU
  6
AI-Linetype-33
 62
     8
420
  8421504
370
    25
100
AcDbLine
 10
301.0965512409279
 20
344.2738005632733
 30
0.0
 11
302.7549110404391
 21
349.634956040165
 31
0.0
  0
LINE
  5
152
330
70
100
AcDbEntity
  8
SOUZOU
  6
AI-Linetype-34
 62
     8
420
  8421504
370
    25
100
AcDbLine
 10
312.913173884533
 20
349.4279364112951
 30
0.0
 11
319.5172991615985
 21
327.9165188065885
 31
0.0
  0
LINE
  5
154
330
70
100
AcDbEntity
  8
SOUZOU
  6
AI-Linetype-35
 62
     8
420
  8421504
370
    25
100
AcDbLine
 10
312.913173884533
 20
349.4279364112951
 30
0.0
 11
322.9787251588628
 21
329.4263122861261
 31
0.0
  0
LINE
  5
156
330
70
100
AcDbEntity
  8
SOUZOU
  6
AI-Linetype-36
 62
     8
420
  8421504
370
    25
100
AcDbLine
 10
311.534753577657
 20
354.3868822911801
 30
0.0
 11
312.3405212658537
 21
353.8159761825535
 31
0.0
  0
LINE
  5
158
330
70
100
AcDbEntity
  8
SOUZOU
  6
AI-Linetype-37
 62
     8
420
  8421504
370
    25
100
AcDbLine
 10
302.7549110404391
 20
349.634956040165
 30
0.0
 11
300.3347654420867
 21
343.941527323068
 31
0.0
  0
LINE
  5
15A
330
70
100
AcDbEntity
  8
SOUZOU
  6
AI-Linetype-38
 62
     8
420
  8421504
370
    25
100
AcDbLine
 10
319.5172991615985
 20
327.9165188065885
 30
0.0
 11
311.745918135178
 21
348.9188066131145
 31
0.0
  0
LINE
  5
15C
330
70
100
AcDbEntity
  8
SOUZOU
  6
AI-Linetype-39
 62
     8
420
  8421504
370
    25
100
AcDbLine
 10
311.745918135178
 20
348.9188066131145
 30
0.0
 11
315.97874925727
 21
326.3730856732796
 31
0.0
  0
LINE
  5
15E
330
70
100
AcDbEntity
  8
SOUZOU
  6
AI-Linetype-40
 62
     8
420
  8421504
370
    25
100
AcDbLine
 10
315.97874925727
 20
326.3730856732796
 30
0.0
 11
310.0290883404394
 21
348.16996540385
 31
0.0
  0
LINE
  5
160
330
70
100
AcDbEntity
  8
SOUZOU
  6
AI-Linetype-41
 62
     8
420
  8421504
370
    25
100
AcDbLine
 10
310.0290883404394
 20
348.16996540385
 30
0.0
 11
312.7486193848934
 21
324.964178181592
 31
0.0
  0
LINE
  5
162
330
70
100
AcDbEntity
  8
SOUZOU
  6
AI-Linetype-42
 62
     8
420
  8421504
370
    25
100
AcDbLine
 10
312.7486193848934
 20
324.964178181592
 30
0.0
 11
308.3588424348308
 21
347.4414430031043
 31
0.0
  0
LINE
  5
164
330
70
100
AcDbEntity
  8
SOUZOU
  6
AI-Linetype-43
 62
     8
420
  8421504
370
    25
100
AcDbLine
 10
308.3588424348308
 20
347.4414430031043
 30
0.0
 11
309.8237992784146
 21
323.6884397058532
 31
0.0
  0
LINE
  5
166
330
70
100
AcDbEntity
  8
SOUZOU
  6
AI-Linetype-44
 62
     8
420
  8421504
370
    25
100
AcDbLine
 10
309.8237992784146
 20
323.6884397058532
 30
0.0
 11
306.5572089376345
 21
346.655612392015
 31
0.0
  0
LINE
  5
168
330
70
100
AcDbEntity
  8
SOUZOU
  6
AI-Linetype-45
 62
     8
420
  8421504
370
    25
100
AcDbLine
 10
306.5572089376345
 20
346.655612392015
 30
0.0
 11
307.2864066884432
 21
322.5816880981468
 31
0.0
  0
LINE
  5
16A
330
70
100
AcDbEntity
  8
SOUZOU
  6
AI-Linetype-46
 62
     8
420
  8421504
370
    25
100
AcDbLine
 10
307.2864066884432
 20
322.5816880981468
 30
0.0
 11
304.4539894055767
 21
345.7382369698468
 31
0.0
  0
LINE
  5
16C
330
70
100
AcDbEntity
  8
SOUZOU
  6
AI-Linetype-47
 62
     8
420
  8421504
370
    25
100
AcDbLine
 10
304.4539894055767
 20
345.7382369698468
 30
0.0
 11
305.0810530601151
 21
321.6197641596258
 31
0.0
  0
LINE
  5
16E
330
70
100
AcDbEntity
  8
SOUZOU
  6
AI-Linetype-48
 62
     8
420
  8421504
370
    25
100
AcDbLine
 10
305.0810530601151
 20
321.6197641596258
 30
0.0
 11
302.7424138775506
 21
344.9916875494603
 31
0.0
  0
LINE
  5
170
330
70
100
AcDbEntity
  8
SOUZOU
  6
AI-Linetype-49
 62
     8
420
  8421504
370
    25
100
AcDbLine
 10
302.7424138775506
 20
344.9916875494603
 30
0.0
 11
303.7618166110882
 21
321.0443439165578
 31
0.0
  0
LINE
  5
172
330
70
100
AcDbEntity
  8
SOUZOU
  6
AI-Linetype-50
 62
     8
420
  8421504
370
    25
100
AcDbLine
 10
303.7618166110882
 20
321.0443439165578
 30
0.0
 11
301.0965512409279
 21
344.2738005632733
 31
0.0
  0
LINE
  5
174
330
70
100
AcDbEntity
  8
SOUZOU
  6
AI-Linetype-51
 62
     8
420
  8421504
370
    25
100
AcDbLine
 10
301.0965512409279
 20
344.2738005632733
 30
0.0
 11
302.9410845973905
 21
320.6863597089685
 31
0.0
  0
LINE
  5
176
330
70
100
AcDbEntity
  8
SOUZOU
  6
AI-Linetype-52
 62
     8
420
  8421504
370
    25
100
AcDbLine
 10
302.9410845973905
 20
320.6863597089685
 30
0.0
 11
300.3347654420867
 21
343.941527323068
 31
0.0
  0
LINE
  5
178
330
70
100
AcDbEntity
  8
SOUZOU
  6
AI-Linetype-53
 62
     8
420
  8421504
370
    25
100
AcDbLine
 10
300.3347654420867
 20
343.941527323068
 30
0.0
 11
302.6382490629951
 21
320.554269895236
 31
0.0
  0
LINE
  5
17A
330
70
100
AcDbEntity
  8
SOUZOU
  6
AI-Linetype-54
 62
     8
420
  8421504
370
    25
100
AcDbLine
 10
322.9787251588628
 20
329.4263122861261
 30
0.0
 11
323.7898404435967
 21
322.953987146815
 31
0.0
  0
LINE
  5
17C
330
70
100
AcDbEntity
  8
SOUZOU
  6
AI-Linetype-55
 62
     8
420
  8421504
370
    25
100
AcDbLine
 10
323.7898404435967
 20
322.953987146815
 30
0.0
 11
319.5172991615985
 21
327.9165188065885
 31
0.0
  0
LINE
  5
17E
330
70
100
AcDbEntity
  8
SOUZOU
  6
AI-Linetype-56
 62
     8
420
  8421504
370
    25
100
AcDbLine
 10
319.5172991615985
 20
327.9165188065885
 30
0.0
 11
320.4604627859292
 21
321.5017900804917
 31
0.0
  0
LINE
  5
180
330
70
100
AcDbEntity
  8
SOUZOU
  6
AI-Linetype-57
 62
     8
420
  8421504
370
    25
100
AcDbLine
 10
320.4604627859292
 20
321.5017900804917
 30
0.0
 11
315.97874925727
 21
326.3730856732796
 31
0.0
  0
LINE
  5
182
330
70
100
AcDbEntity
  8
SOUZOU
  6
AI-Linetype-58
 62
     8
420
  8421504
370
    25
100
AcDbLine
 10
315.97874925727
 20
326.3730856732796
 30
0.0
 11
317.2836076005871
 21
320.1161197677045
 31
0.0
  0
LINE
  5
184
330
70
100
AcDbEntity
  8
SOUZOU
  6
AI-Linetype-59
 62
     8
420
  8421504
370
    25
100
AcDbLine
 10
317.2836076005871
 20
320.1161197677045
 30
0.0
 11
312.7486193848934
 21
324.964178181592
 31
0.0
  0
LINE
  5
186
330
70
100
AcDbEntity
  8
SOUZOU
  6
AI-Linetype-60
 62
     8
420
  8421504
370
    25
100
AcDbLine
 10
312.7486193848934
 20
324.964178181592
 30
0.0
 11
314.3558020248134
 21
318.8390790997233
 31
0.0
  0
LINE
  5
188
330
70
100
AcDbEntity
  8
SOUZOU
  6
AI-Linetype-61
 62
     8
420
  8421504
370
    25
100
AcDbLine
 10
314.3558020248134
 20
318.8390790997233
 30
0.0
 11
309.8237992784146
 21
323.6884397058532
 31
0.0
  0
LINE
  5
18A
330
70
100
AcDbEntity
  8
SOUZOU
  6
AI-Linetype-62
 62
     8
420
  8421504
370
    25
100
AcDbLine
 10
309.8237992784146
 20
323.6884397058532
 30
0.0
 11
311.7660059494893
 21
317.7094703110244
 31
0.0
  0
LINE
  5
18C
330
70
100
AcDbEntity
  8
SOUZOU
  6
AI-Linetype-63
 62
     8
420
  8421504
370
    25
100
AcDbLine
 10
311.7660059494893
 20
317.7094703110244
 30
0.0
 11
307.2864066884432
 21
322.5816880981468
 31
0.0
  0
LINE
  5
18E
330
70
100
AcDbEntity
  8
SOUZOU
  6
AI-Linetype-64
 62
     8
420
  8421504
370
    25
100
AcDbLine
 10
307.2864066884432
 20
322.5816880981468
 30
0.0
 11
309.2180541005409
 21
316.5981130002614
 31
0.0
  0
LINE
  5
190
330
70
100
AcDbEntity
  8
SOUZOU
  6
AI-Linetype-65
 62
     8
420
  8421504
370
    25
100
AcDbLine
 10
309.2180541005409
 20
316.5981130002614
 30
0.0
 11
305.0810530601151
 21
321.6197641596258
 31
0.0
  0
LINE
  5
192
330
70
100
AcDbEntity
  8
SOUZOU
  6
AI-Linetype-66
 62
     8
420
  8421504
370
    25
100
AcDbLine
 10
305.0810530601151
 20
321.6197641596258
 30
0.0
 11
307.0952315518206
 21
315.6721871983169
 31
0.0
  0
LINE
  5
194
330
70
100
AcDbEntity
  8
SOUZOU
  6
AI-Linetype-67
 62
     8
420
  8421504
370
    25
100
AcDbLine
 10
307.0952315518206
 20
315.6721871983169
 30
0.0
 11
303.7618166110882
 21
321.0443439165578
 31
0.0
  0
LINE
  5
196
330
70
100
AcDbEntity
  8
SOUZOU
  6
AI-Linetype-68
 62
     8
420
  8421504
370
    25
100
AcDbLine
 10
303.7618166110882
 20
321.0443439165578
 30
0.0
 11
306.4504826011689
 21
315.3909627080703
 31
0.0
  0
LINE
  5
198
330
70
100
AcDbEntity
  8
SOUZOU
  6
AI-Linetype-69
 62
     8
420
  8421504
370
    25
100
AcDbLine
 10
306.4504826011689
 20
315.3909627080703
 30
0.0
 11
302.9410845973905
 21
320.6863597089685
 31
0.0
  0
LINE
  5
19A
330
70
100
AcDbEntity
  8
SOUZOU
  6
AI-Linetype-70
 62
     8
420
  8421504
370
    25
100
AcDbLine
 10
302.9410845973905
 20
320.6863597089685
 30
0.0
 11
305.7227886470303
 21
315.0735595372513
 31
0.0
  0
LINE
  5
19C
330
70
100
AcDbEntity
  8
SOUZOU
  6
AI-Linetype-71
 62
     8
420
  8421504
370
    25
100
AcDbLine
 10
328.9216462003434
 20
315.8012823259617
 30
0.0
 11
323.7898404435967
 21
322.953987146815
 31
0.0
  0
LINE
  5
19E
330
70
100
AcDbEntity
  8
SOUZOU
  6
AI-Linetype-72
 62
     8
420
  8421504
370
    25
100
AcDbLine
 10
323.7898404435967
 20
322.953987146815
 30
0.0
 11
327.4660503820984
 21
315.1663852988507
 31
0.0
  0
LINE
  5
1A0
330
70
100
AcDbEntity
  8
SOUZOU
  6
AI-Linetype-73
 62
     8
420
  8421504
370
    25
100
AcDbLine
 10
327.4660503820984
 20
315.1663852988507
 30
0.0
 11
320.4604627859292
 21
321.5017900804917
 31
0.0
  0
LINE
  5
1A2
330
70
100
AcDbEntity
  8
SOUZOU
  6
AI-Linetype-74
 62
     8
420
  8421504
370
    25
100
AcDbLine
 10
320.4604627859292
 20
321.5017900804917
 30
0.0
 11
324.599086287993
 21
313.9158822695053
 31
0.0
  0
LINE
  5
1A4
330
70
100
AcDbEntity
  8
SOUZOU
  6
AI-Linetype-75
 62
     8
420
  8421504
370
    25
100
AcDbLine
 10
324.599086287993
 20
313.9158822695053
 30
0.0
 11
317.2836076005871
 21
320.1161197677045
 31
0.0
  0
LINE
  5
1A6
330
70
100
AcDbEntity
  8
SOUZOU
  6
AI-Linetype-76
 62
     8
420
  8421504
370
    25
100
AcDbLine
 10
317.2836076005871
 20
320.1161197677045
 30
0.0
 11
321.6282119307119
 21
312.6200560011524
 31
0.0
  0
LINE
  5
1A8
330
70
100
AcDbEntity
  8
SOUZOU
  6
AI-Linetype-77
 62
     8
420
  8421504
370
    25
100
AcDbLine
 10
321.6282119307119
 20
312.6200560011524
 30
0.0
 11
314.3558020248134
 21
318.8390790997233
 31
0.0
  0
LINE
  5
1AA
330
70
100
AcDbEntity
  8
SOUZOU
  6
AI-Linetype-78
 62
     8
420
  8421504
370
    25
100
AcDbLine
 10
314.3558020248134
 20
318.8390790997233
 30
0.0
 11
319.0335343366751
 21
311.4883180075857
 31
0.0
  0
LINE
  5
1AC
330
70
100
AcDbEntity
  8
SOUZOU
  6
AI-Linetype-79
 62
     8
420
  8421504
370
    25
100
AcDbLine
 10
319.0335343366751
 20
311.4883180075857
 30
0.0
 11
311.7660059494893
 21
317.7094703110244
 31
0.0
  0
LINE
  5
1AE
330
70
100
AcDbEntity
  8
SOUZOU
  6
AI-Linetype-80
 62
     8
420
  8421504
370
    25
100
AcDbLine
 10
311.7660059494893
 20
317.7094703110244
 30
0.0
 11
316.5828898173951
 21
310.4194038898612
 31
0.0
  0
LINE
  5
1B0
330
70
100
AcDbEntity
  8
SOUZOU
  6
AI-Linetype-81
 62
     8
420
  8421504
370
    25
100
AcDbLine
 10
316.5828898173951
 20
310.4194038898612
 30
0.0
 11
309.2180541005409
 21
316.5981130002614
 31
0.0
  0
LINE
  5
1B2
330
70
100
AcDbEntity
  8
SOUZOU
  6
AI-Linetype-82
 62
     8
420
  8421504
370
    25
100
AcDbLine
 10
309.2180541005409
 20
316.5981130002614
 30
0.0
 11
314.3840386727727
 21
309.4603161834336
 31
0.0
  0
LINE
  5
1B4
330
70
100
AcDbEntity
  8
SOUZOU
  6
AI-Linetype-83
 62
     8
420
  8421504
370
    25
100
AcDbLine
 10
314.3840386727727
 20
309.4603161834336
 30
0.0
 11
307.0952315518206
 21
315.6721871983169
 31
0.0
  0
LINE
  5
1B6
330
70
100
AcDbEntity
  8
SOUZOU
  6
AI-Linetype-84
 62
     8
420
  8421504
370
    25
100
AcDbLine
 10
307.0952315518206
 20
315.6721871983169
 30
0.0
 11
312.5585248112177
 21
308.6640695130641
 31
0.0
  0
LINE
  5
1B8
330
70
100
AcDbEntity
  8
SOUZOU
  6
AI-Linetype-85
 62
     8
420
  8421504
370
    25
100
AcDbLine
 10
312.5585248112177
 20
308.6640695130641
 30
0.0
 11
306.4504826011689
 21
315.3909627080703
 31
0.0
  0
LINE
  5
1BA
330
70
100
AcDbEntity
  8
SOUZOU
  6
AI-Linetype-86
 62
     8
420
  8421504
370
    25
100
AcDbLine
 10
306.4504826011689
 20
315.3909627080703
 30
0.0
 11
310.9805105180218
 21
307.9757763956205
 31
0.0
  0
LINE
  5
1BC
330
70
100
AcDbEntity
  8
SOUZOU
  6
AI-Linetype-87
 62
     8
420
  8421504
370
    25
100
AcDbLine
 10
310.9805105180218
 20
307.9757763956205
 30
0.0
 11
305.7227886470303
 21
315.0735595372513
 31
0.0
  0
LINE
  5
1BE
330
70
100
AcDbEntity
  8
SOUZOU
  6
AI-Linetype-88
 62
     8
420
  8421504
370
    25
100
AcDbLine
 10
330.8015497950973
 20
311.4913238691855
 30
0.0
 11
327.4660503820984
 21
315.1663852988507
 31
0.0
  0
LINE
  5
1C0
330
70
100
AcDbEntity
  8
SOUZOU
  6
AI-Linetype-89
 62
     8
420
  8421504
370
    25
100
AcDbLine
 10
327.4660503820984
 20
315.1663852988507
 30
0.0
 11
328.4425224797522
 21
310.4622688664935
 31
0.0
  0
LINE
  5
1C2
330
70
100
AcDbEntity
  8
SOUZOU
  6
AI-Linetype-90
 62
     8
420
  8421504
370
    25
100
AcDbLine
 10
328.4425224797522
 20
310.4622688664935
 30
0.0
 11
324.599086287993
 21
313.9158822695053
 31
0.0
  0
LINE
  5
1C4
330
70
100
AcDbEntity
  8
SOUZOU
  6
AI-Linetype-91
 62
     8
420
  8421504
370
    25
100
AcDbLine
 10
324.599086287993
 20
313.9158822695053
 30
0.0
 11
326.4884442391426
 21
309.6099326658724
 31
0.0
  0
LINE
  5
1C6
330
70
100
AcDbEntity
  8
SOUZOU
  6
AI-Linetype-92
 62
     8
420
  8421504
370
    25
100
AcDbLine
 10
326.4884442391426
 20
309.6099326658724
 30
0.0
 11
321.6282119307119
 21
312.6200560011524
 31
0.0
  0
LINE
  5
1C8
330
70
100
AcDbEntity
  8
SOUZOU
  6
AI-Linetype-93
 62
     8
420
  8421504
370
    25
100
AcDbLine
 10
321.6282119307119
 20
312.6200560011524
 30
0.0
 11
324.7743980326247
 21
308.8623245763758
 31
0.0
  0
LINE
  5
1CA
330
70
100
AcDbEntity
  8
SOUZOU
  6
AI-Linetype-94
 62
     8
420
  8421504
370
    25
100
AcDbLine
 10
324.7743980326247
 20
308.8623245763758
 30
0.0
 11
319.0335343366751
 21
311.4883180075857
 31
0.0
  0
LINE
  5
1CC
330
70
100
AcDbEntity
  8
SOUZOU
  6
AI-Linetype-95
 62
     8
420
  8421504
370
    25
100
AcDbLine
 10
319.0335343366751
 20
311.4883180075857
 30
0.0
 11
322.9931164881699
 21
308.0853280545515
 31
0.0
  0
LINE
  5
1CE
330
70
100
AcDbEntity
  8
SOUZOU
  6
AI-Linetype-96
 62
     8
420
  8421504
370
    25
100
AcDbLine
 10
322.9931164881699
 20
308.0853280545515
 30
0.0
 11
316.5828898173951
 21
310.4194038898612
 31
0.0
  0
LINE
  5
1D0
330
70
100
AcDbEntity
  8
SOUZOU
  6
AI-Linetype-97
 62
     8
420
  8421504
370
    25
100
AcDbLine
 10
316.5828898173951
 20
310.4194038898612
 30
0.0
 11
320.9929839980514
 21
307.212759909007
 31
0.0
  0
LINE
  5
1D2
330
70
100
AcDbEntity
  8
SOUZOU
  6
AI-Linetype-98
 62
     8
420
  8421504
370
    25
100
AcDbLine
 10
320.9929839980514
 20
307.212759909007
 30
0.0
 11
314.3840386727727
 21
309.4603161834336
 31
0.0
  0
LINE
  5
1D4
330
70
100
AcDbEntity
  8
SOUZOU
  6
AI-Linetype-99
 62
     8
420
  8421504
370
    25
100
AcDbLine
 10
314.3840386727727
 20
309.4603161834336
 30
0.0
 11
319.3664352739286
 21
306.5031688694507
 31
0.0
  0
LINE
  5
1D6
330
70
100
AcDbEntity
  8
SOUZOU
  6
AI-Linetype-100
 62
     8
420
  8421504
370
    25
100
AcDbLine
 10
319.3664352739286
 20
306.5031688694507
 30
0.0
 11
312.5585248112177
 21
308.6640695130641
 31
0.0
  0
LINE
  5
1D8
330
70
100
AcDbEntity
  8
SOUZOU
  6
AI-Linetype-101
 62
     8
420
  8421504
370
    25
100
AcDbLine
 10
312.5585248112177
 20
308.6640695130641
 30
0.0
 11
318.4006120025667
 21
306.082323349061
 31
0.0
  0
LINE
  5
1DA
330
70
100
AcDbEntity
  8
SOUZOU
  6
AI-Linetype-102
 62
     8
420
  8421504
370
    25
100
AcDbLine
 10
318.4006120025667
 20
306.082323349061
 30
0.0
 11
310.9805105180218
 21
307.9757763956205
 31
0.0
  0
LINE
  5
1DC
330
70
100
AcDbEntity
  8
SOUZOU
  6
AI-Linetype-103
 62
     8
420
  8421504
370
    25
100
AcDbLine
 10
310.9805105180218
 20
307.9757763956205
 30
0.0
 11
317.8901955951888
 21
305.8596915885162
 31
0.0
  0
LINE
  5
1DE
330
70
100
AcDbEntity
  8
SOUZOU
  6
AI-Linetype-104
 62
     8
420
  8421504
370
    25
100
AcDbLine
 10
317.8901955951888
 20
305.8596915885162
 30
0.0
 11
310.9805105180218
 21
307.9757763956205
 31
0.0
  0
LINE
  5
1E0
330
70
100
AcDbEntity
  8
SOUZOU
  6
AI-Linetype-105
 62
     8
420
  8421504
370
    25
100
AcDbLine
 10
330.8015497950973
 20
311.4913238691855
 30
0.0
 11
331.2907364358566
 21
309.1397313678712
 31
0.0
  0
LINE
  5
1E2
330
70
100
AcDbEntity
  8
SOUZOU
  6
AI-Linetype-106
 62
     8
420
  8421504
370
    25
100
AcDbLine
 10
331.2907364358566
 20
309.1397313678712
 30
0.0
 11
328.4425224797522
 21
310.4622688664935
 31
0.0
  0
LINE
  5
1E4
330
70
100
AcDbEntity
  8
SOUZOU
  6
AI-Linetype-107
 62
     8
420
  8421504
370
    25
100
AcDbLine
 10
328.4425224797522
 20
310.4622688664935
 30
0.0
 11
330.4029023938093
 21
308.7524788168469
 31
0.0
  0
LINE
  5
1E6
330
70
100
AcDbEntity
  8
SOUZOU
  6
AI-Linetype-108
 62
     8
420
  8421504
370
    25
100
AcDbLine
 10
330.4029023938093
 20
308.7524788168469
 30
0.0
 11
326.4884442391426
 21
309.6099326658724
 31
0.0
  0
LINE
  5
1E8
330
70
100
AcDbEntity
  8
SOUZOU
  6
AI-Linetype-109
 62
     8
420
  8421504
370
    25
100
AcDbLine
 10
326.4884442391426
 20
309.6099326658724
 30
0.0
 11
329.5557410110502
 21
308.3829667334431
 31
0.0
  0
LINE
  5
1EA
330
70
100
AcDbEntity
  8
SOUZOU
  6
AI-Linetype-110
 62
     8
420
  8421504
370
    25
100
AcDbLine
 10
329.5557410110502
 20
308.3829667334431
 30
0.0
 11
324.7743980326247
 21
308.8623245763758
 31
0.0
  0
LINE
  5
1EC
330
70
100
AcDbEntity
  8
SOUZOU
  6
AI-Linetype-111
 62
     8
420
  8421504
370
    25
100
AcDbLine
 10
324.7743980326247
 20
308.8623245763758
 30
0.0
 11
328.7749928575104
 21
308.0424225553127
 31
0.0
  0
LINE
  5
1EE
330
70
100
AcDbEntity
  8
SOUZOU
  6
AI-Linetype-112
 62
     8
420
  8421504
370
    25
100
AcDbLine
 10
328.7749928575104
 20
308.0424225553127
 30
0.0
 11
322.9931164881699
 21
308.0853280545515
 31
0.0
  0
LINE
  5
1F0
330
70
100
AcDbEntity
  8
SOUZOU
  6
AI-Linetype-113
 62
     8
420
  8421504
370
    25
100
AcDbLine
 10
322.9931164881699
 20
308.0853280545515
 30
0.0
 11
327.8230754453267
 21
307.6272183293334
 31
0.0
  0
LINE
  5
1F2
330
70
100
AcDbEntity
  8
SOUZOU
  6
AI-Linetype-114
 62
     8
420
  8421504
370
    25
100
AcDbLine
 10
327.8230754453267
 20
307.6272183293334
 30
0.0
 11
320.9929839980514
 21
307.212759909007
 31
0.0
  0
LINE
  5
1F4
330
70
100
AcDbEntity
  8
SOUZOU
  6
AI-Linetype-115
 62
     8
420
  8421504
370
    25
100
AcDbLine
 10
320.9929839980514
 20
307.212759909007
 30
0.0
 11
326.9060729331489
 21
307.2272431703233
 31
0.0
  0
LINE
  5
1F6
330
70
100
AcDbEntity
  8
SOUZOU
  6
AI-Linetype-116
 62
     8
420
  8421504
370
    25
100
AcDbLine
 10
326.9060729331489
 20
307.2272431703233
 30
0.0
 11
319.3664352739286
 21
306.5031688694507
 31
0.0
  0
LINE
  5
1F8
330
70
100
AcDbEntity
  8
SOUZOU
  6
AI-Linetype-117
 62
     8
420
  8421504
370
    25
100
AcDbLine
 10
319.3664352739286
 20
306.5031688694507
 30
0.0
 11
326.0089169945528
 21
306.8359246249404
 31
0.0
  0
LINE
  5
1FA
330
70
100
AcDbEntity
  8
SOUZOU
  6
AI-Linetype-118
 62
     8
420
  8421504
370
    25
100
AcDbLine
 10
326.0089169945528
 20
306.8359246249404
 30
0.0
 11
318.4006120025667
 21
306.082323349061
 31
0.0
  0
LINE
  5
1FC
330
70
100
AcDbEntity
  8
SOUZOU
  6
AI-Linetype-119
 62
     8
420
  8421504
370
    25
100
AcDbLine
 10
318.4006120025667
 20
306.082323349061
 30
0.0
 11
325.3249520867876
 21
306.5375950466605
 31
0.0
  0
LINE
  5
1FE
330
70
100
AcDbEntity
  8
SOUZOU
  6
AI-Linetype-120
 62
     8
420
  8421504
370
    25
100
AcDbLine
 10
325.3249520867876
 20
306.5375950466605
 30
0.0
 11
317.8901955951888
 21
305.8596915885162
 31
0.0
  0
LINE
  5
200
330
70
100
AcDbEntity
  8
SOUZOU
  6
AI-Linetype-121
 62
     8
420
  8421504
370
    25
100
AcDbLine
 10
317.8901955951888
 20
305.8596915885162
 30
0.0
 11
324.7766350667098
 21
306.2984319207413
 31
0.0
  0
LINE
  5
202
330
70
100
AcDbEntity
  8
SOUZOU
  6
AI-Linetype-122
 62
     8
420
  8421504
370
    25
100
AcDbLine
 10
324.7766350667098
 20
306.2984319207413
 30
0.0
 11
317.7183159675587
 21
305.7847216942428
 31
0.0
  0
LINE
  5
204
330
70
100
AcDbEntity
  8
SOUZOU
  6
AI-Linetype-123
 62
     8
420
  8421504
370
    25
100
AcDbLine
 10
311.5519723882179
 20
308.2250347666194
 30
0.0
 11
306.4504826011689
 21
315.3909627080703
 31
0.0
  0
LINE
  5
206
330
70
100
AcDbEntity
  8
SOUZOU
  6
AI-Linetype-124
 62
     8
420
  8421504
370
    25
100
AcDbLine
 10
318.3077573937489
 20
306.0703620447353
 30
0.0
 11
311.5519723882179
 21
308.2250347666194
 31
0.0
  0
LINE
  5
208
330
70
100
AcDbEntity
  8
SOUZOU
  6
AI-Linetype-125
 62
     8
420
  8421504
370
    25
100
AcDbLine
 10
306.4504826011689
 20
315.3909627080703
 30
0.0
 11
303.8874739309417
 21
320.5521292215329
 31
0.0
  0
LINE
  5
20A
330
70
100
AcDbEntity
  8
SOUZOU
  6
AI-Linetype-126
 62
     8
420
  8421504
370
    25
100
AcDbLine
 10
313.1387512306906
 20
354.1641455200065
 30
0.0
 11
312.4702741174571
 21
354.7949345829414
 31
0.0
  0
LINE
  5
20C
330
70
100
AcDbEntity
  8
SOUZOU
  6
AI-Linetype-127
 62
     8
420
  8421504
370
    25
100
AcDbLine
 10
313.1387512306906
 20
354.1641455200065
 30
0.0
 11
312.9238217282527
 21
354.9927614976314
 31
0.0
  0
LINE
  5
20E
330
70
100
AcDbEntity
  8
SOUZOU
  6
AI-Linetype-128
 62
     8
420
  8421504
370
    25
100
AcDbLine
 10
312.9238217282527
 20
354.9927614976314
 30
0.0
 11
314.7109573468138
 21
354.8499052457726
 31
0.0
  0
LINE
  5
210
330
70
100
AcDbEntity
  8
SOUZOU
  6
AI-Linetype-129
 62
     8
420
  8421504
370
    25
100
AcDbLine
 10
314.7109573468138
 20
354.8499052457726
 30
0.0
 11
313.3493758653016
 21
355.1783783104257
 31
0.0
  0
LINE
  5
212
330
70
100
AcDbEntity
  8
SOUZOU
  6
AI-Linetype-130
 62
     8
420
  8421504
370
    25
100
AcDbLine
 10
313.3493758653016
 20
355.1783783104257
 30
0.0
 11
316.2111389621133
 21
355.5042495601314
 31
0.0
  0
LINE
  5
214
330
70
100
AcDbEntity
  8
SOUZOU
  6
AI-Linetype-131
 62
     8
420
  8421504
370
    25
100
AcDbLine
 10
316.2111389621133
 20
355.5042495601314
 30
0.0
 11
313.8033942438153
 21
355.3764105630278
 31
0.0
  0
LINE
  5
216
330
70
100
AcDbEntity
  8
SOUZOU
  6
AI-Linetype-132
 62
     8
420
  8421504
370
    25
100
AcDbLine
 10
313.8033942438153
 20
355.3764105630278
 30
0.0
 11
317.5937138173429
 21
356.107296542244
 31
0.0
  0
LINE
  5
218
330
70
100
AcDbEntity
  8
SOUZOU
  6
AI-Linetype-133
 62
     8
420
  8421504
370
    25
100
AcDbLine
 10
317.5937138173429
 20
356.107296542244
 30
0.0
 11
314.258921354173
 21
355.5751008893607
 31
0.0
  0
LINE
  5
21A
330
70
100
AcDbEntity
  8
SOUZOU
  6
AI-Linetype-134
 62
     8
420
  8421504
370
    25
100
AcDbLine
 10
314.258921354173
 20
355.5751008893607
 30
0.0
 11
318.8166730751355
 21
356.6407229146843
 31
0.0
  0
LINE
  5
21C
330
70
100
AcDbEntity
  8
SOUZOU
  6
AI-Linetype-135
 62
     8
420
  8421504
370
    25
100
AcDbLine
 10
318.8166730751355
 20
356.6407229146843
 30
0.0
 11
314.8671975944592
 21
355.8404168320018
 31
0.0
  0
LINE
  5
21E
330
70
100
AcDbEntity
  8
SOUZOU
  6
AI-Linetype-136
 62
     8
420
  8421504
370
    25
100
AcDbLine
 10
314.8671975944592
 20
355.8404168320018
 30
0.0
 11
319.8428577372972
 21
357.0883207870502
 31
0.0
  0
LINE
  5
220
330
70
100
AcDbEntity
  8
SOUZOU
  6
AI-Linetype-137
 62
     8
420
  8421504
370
    25
100
AcDbLine
 10
319.8428577372972
 20
357.0883207870502
 30
0.0
 11
315.5726863445766
 21
356.1481346095009
 31
0.0
  0
LINE
  5
222
330
70
100
AcDbEntity
  8
SOUZOU
  6
AI-Linetype-138
 62
     8
420
  8421504
370
    25
100
AcDbLine
 10
315.5726863445766
 20
356.1481346095009
 30
0.0
 11
320.6410877021367
 21
357.4364901245135
 31
0.0
  0
LINE
  5
224
330
70
100
AcDbEntity
  8
SOUZOU
  6
AI-Linetype-139
 62
     8
420
  8421504
370
    25
100
AcDbLine
 10
320.6410877021367
 20
357.4364901245135
 30
0.0
 11
316.0914486496706
 21
356.3744066564256
 31
0.0
  0
LINE
  5
226
330
70
100
AcDbEntity
  8
SOUZOU
  6
AI-Linetype-140
 62
     8
420
  8421504
370
    25
100
AcDbLine
 10
316.0914486496706
 20
356.3744066564256
 30
0.0
 11
321.9261314912734
 21
357.9969963249318
 31
0.0
  0
LINE
  5
228
330
70
100
AcDbEntity
  8
SOUZOU
  6
AI-Linetype-141
 62
     8
420
  8421504
370
    25
100
AcDbLine
 10
321.9261314912734
 20
357.9969963249318
 30
0.0
 11
316.3987427369237
 21
356.508441187168
 31
0.0
  0
LINE
  5
22A
330
70
100
AcDbEntity
  8
SOUZOU
  6
AI-Linetype-142
 62
     8
420
  8421504
370
    25
100
AcDbLine
 10
312.3405212658537
 20
353.8159761825535
 30
0.0
 11
315.1669996675995
 21
350.4110027758488
 31
0.0
  0
LINE
  5
22C
330
70
100
AcDbEntity
  8
SOUZOU
  6
AI-Linetype-143
 62
     8
420
  8421504
370
    25
100
AcDbLine
 10
315.1669996675995
 20
350.4110027758488
 30
0.0
 11
313.1387512306906
 21
354.1641455200065
 31
0.0
  0
LINE
  5
22E
330
70
100
AcDbEntity
  8
SOUZOU
  6
AI-Linetype-144
 62
     8
420
  8421504
370
    25
100
AcDbLine
 10
313.1387512306906
 20
354.1641455200065
 30
0.0
 11
316.3342554169545
 21
350.9201325740191
 31
0.0
  0
LINE
  5
230
330
70
100
AcDbEntity
  8
SOUZOU
  6
AI-Linetype-145
 62
     8
420
  8421504
370
    25
100
AcDbLine
 10
316.3342554169545
 20
350.9201325740191
 30
0.0
 11
314.7109573468138
 21
354.8499052457726
 31
0.0
  0
LINE
  5
232
330
70
100
AcDbEntity
  8
SOUZOU
  6
AI-Linetype-146
 62
     8
420
  8421504
370
    25
100
AcDbLine
 10
314.7109573468138
 20
354.8499052457726
 30
0.0
 11
318.0510852116905
 21
351.6689737832941
 31
0.0
  0
LINE
  5
234
330
70
100
AcDbEntity
  8
SOUZOU
  6
AI-Linetype-147
 62
     8
420
  8421504
370
    25
100
AcDbLine
 10
318.0510852116905
 20
351.6689737832941
 30
0.0
 11
316.2111389621133
 21
355.5042495601314
 31
0.0
  0
LINE
  5
236
330
70
100
AcDbEntity
  8
SOUZOU
  6
AI-Linetype-148
 62
     8
420
  8421504
370
    25
100
AcDbLine
 10
316.2111389621133
 20
355.5042495601314
 30
0.0
 11
319.7213311173016
 21
352.39749618405
 31
0.0
  0
LINE
  5
238
330
70
100
AcDbEntity
  8
SOUZOU
  6
AI-Linetype-149
 62
     8
420
  8421504
370
    25
100
AcDbLine
 10
319.7213311173016
 20
352.39749618405
 30
0.0
 11
317.5937138173429
 21
356.107296542244
 31
0.0
  0
LINE
  5
23A
330
70
100
AcDbEntity
  8
SOUZOU
  6
AI-Linetype-150
 62
     8
420
  8421504
370
    25
100
AcDbLine
 10
317.5937138173429
 20
356.107296542244
 30
0.0
 11
321.522964614498
 21
353.1833267951187
 31
0.0
  0
LINE
  5
23C
330
70
100
AcDbEntity
  8
SOUZOU
  6
AI-Linetype-151
 62
     8
420
  8421504
370
    25
100
AcDbLine
 10
321.522964614498
 20
353.1833267951187
 30
0.0
 11
318.8166730751355
 21
356.6407229146843
 31
0.0
  0
LINE
  5
23E
330
70
100
AcDbEntity
  8
SOUZOU
  6
AI-Linetype-152
 62
     8
420
  8421504
370
    25
100
AcDbLine
 10
318.8166730751355
 20
356.6407229146843
 30
0.0
 11
323.6261841465506
 21
354.1007022173074
 31
0.0
  0
LINE
  5
240
330
70
100
AcDbEntity
  8
SOUZOU
  6
AI-Linetype-153
 62
     8
420
  8421504
370
    25
100
AcDbLine
 10
323.6261841465506
 20
354.1007022173074
 30
0.0
 11
319.8428577372972
 21
357.0883207870502
 31
0.0
  0
LINE
  5
242
330
70
100
AcDbEntity
  8
SOUZOU
  6
AI-Linetype-154
 62
     8
420
  8421504
370
    25
100
AcDbLine
 10
319.8428577372972
 20
357.0883207870502
 30
0.0
 11
325.3377596745818
 21
354.847251637694
 31
0.0
  0
LINE
  5
244
330
70
100
AcDbEntity
  8
SOUZOU
  6
AI-Linetype-155
 62
     8
420
  8421504
370
    25
100
AcDbLine
 10
325.3377596745818
 20
354.847251637694
 30
0.0
 11
320.6410877021367
 21
357.4364901245135
 31
0.0
  0
LINE
  5
246
330
70
100
AcDbEntity
  8
SOUZOU
  6
AI-Linetype-156
 62
     8
420
  8421504
370
    25
100
AcDbLine
 10
320.6410877021367
 20
357.4364901245135
 30
0.0
 11
326.9836223112045
 21
355.5651386238707
 31
0.0
  0
LINE
  5
248
330
70
100
AcDbEntity
  8
SOUZOU
  6
AI-Linetype-157
 62
     8
420
  8421504
370
    25
100
AcDbLine
 10
326.9836223112045
 20
355.5651386238707
 30
0.0
 11
321.9261314912734
 21
357.9969963249318
 31
0.0
  0
LINE
  5
24A
330
70
100
AcDbEntity
  8
SOUZOU
  6
AI-Linetype-158
 62
     8
420
  8421504
370
    25
100
AcDbLine
 10
315.1669996675995
 20
350.4110027758488
 30
0.0
 11
326.4401511561296
 21
330.9361057657048
 31
0.0
  0
LINE
  5
24C
330
70
100
AcDbEntity
  8
SOUZOU
  6
AI-Linetype-159
 62
     8
420
  8421504
370
    25
100
AcDbLine
 10
315.1669996675995
 20
350.4110027758488
 30
0.0
 11
322.9787251588628
 21
329.4263122861261
 31
0.0
  0
LINE
  5
24E
330
70
100
AcDbEntity
  8
SOUZOU
  6
AI-Linetype-160
 62
     8
420
  8421504
370
    25
100
AcDbLine
 10
312.4702741174571
 20
354.7949345829414
 30
0.0
 11
312.3405212658537
 21
353.8159761825535
 31
0.0
  0
LINE
  5
250
330
70
100
AcDbEntity
  8
SOUZOU
  6
AI-Linetype-161
 62
     8
420
  8421504
370
    25
100
AcDbLine
 10
321.9261314912734
 20
357.9969963249318
 30
0.0
 11
327.7454081100483
 21
355.8974118640863
 31
0.0
  0
LINE
  5
252
330
70
100
AcDbEntity
  8
SOUZOU
  6
AI-Linetype-162
 62
     8
420
  8421504
370
    25
100
AcDbLine
 10
326.4401511561296
 20
330.9361057657048
 30
0.0
 11
316.3342554169545
 21
350.9201325740191
 31
0.0
  0
LINE
  5
254
330
70
100
AcDbEntity
  8
SOUZOU
  6
AI-Linetype-163
 62
     8
420
  8421504
370
    25
100
AcDbLine
 10
316.3342554169545
 20
350.9201325740191
 30
0.0
 11
329.9787010604556
 21
332.4795388989933
 31
0.0
  0
LINE
  5
256
330
70
100
AcDbEntity
  8
SOUZOU
  6
AI-Linetype-164
 62
     8
420
  8421504
370
    25
100
AcDbLine
 10
329.9787010604556
 20
332.4795388989933
 30
0.0
 11
318.0510852116905
 21
351.6689737832941
 31
0.0
  0
LINE
  5
258
330
70
100
AcDbEntity
  8
SOUZOU
  6
AI-Linetype-165
 62
     8
420
  8421504
370
    25
100
AcDbLine
 10
318.0510852116905
 20
351.6689737832941
 30
0.0
 11
333.2088309328296
 21
333.8884463906808
 31
0.0
  0
LINE
  5
25A
330
70
100
AcDbEntity
  8
SOUZOU
  6
AI-Linetype-166
 62
     8
420
  8421504
370
    25
100
AcDbLine
 10
333.2088309328296
 20
333.8884463906808
 30
0.0
 11
319.7213311173016
 21
352.39749618405
 31
0.0
  0
LINE
  5
25C
330
70
100
AcDbEntity
  8
SOUZOU
  6
AI-Linetype-167
 62
     8
420
  8421504
370
    25
100
AcDbLine
 10
319.7213311173016
 20
352.39749618405
 30
0.0
 11
336.133651039311
 21
335.1641848664196
 31
0.0
  0
LINE
  5
25E
330
70
100
AcDbEntity
  8
SOUZOU
  6
AI-Linetype-168
 62
     8
420
  8421504
370
    25
100
AcDbLine
 10
336.133651039311
 20
335.1641848664196
 30
0.0
 11
321.522964614498
 21
353.1833267951187
 31
0.0
  0
LINE
  5
260
330
70
100
AcDbEntity
  8
SOUZOU
  6
AI-Linetype-169
 62
     8
420
  8421504
370
    25
100
AcDbLine
 10
321.522964614498
 20
353.1833267951187
 30
0.0
 11
338.6710436292823
 21
336.270936474126
 31
0.0
  0
LINE
  5
262
330
70
100
AcDbEntity
  8
SOUZOU
  6
AI-Linetype-170
 62
     8
420
  8421504
370
    25
100
AcDbLine
 10
338.6710436292823
 20
336.270936474126
 30
0.0
 11
323.6261841465506
 21
354.1007022173074
 31
0.0
  0
LINE
  5
264
330
70
100
AcDbEntity
  8
SOUZOU
  6
AI-Linetype-171
 62
     8
420
  8421504
370
    25
100
AcDbLine
 10
323.6261841465506
 20
354.1007022173074
 30
0.0
 11
340.876397257613
 21
337.232860412647
 31
0.0
  0
LINE
  5
266
330
70
100
AcDbEntity
  8
SOUZOU
  6
AI-Linetype-172
 62
     8
420
  8421504
370
    25
100
AcDbLine
 10
340.876397257613
 20
337.232860412647
 30
0.0
 11
325.3377596745818
 21
354.847251637694
 31
0.0
  0
LINE
  5
268
330
70
100
AcDbEntity
  8
SOUZOU
  6
AI-Linetype-173
 62
     8
420
  8421504
370
    25
100
AcDbLine
 10
325.3377596745818
 20
354.847251637694
 30
0.0
 11
342.1956337066347
 21
337.808280655715
 31
0.0
  0
LINE
  5
26A
330
70
100
AcDbEntity
  8
SOUZOU
  6
AI-Linetype-174
 62
     8
420
  8421504
370
    25
100
AcDbLine
 10
342.1956337066347
 20
337.808280655715
 30
0.0
 11
326.9836223112045
 21
355.5651386238707
 31
0.0
  0
LINE
  5
26C
330
70
100
AcDbEntity
  8
SOUZOU
  6
AI-Linetype-175
 62
     8
420
  8421504
370
    25
100
AcDbLine
 10
326.9836223112045
 20
355.5651386238707
 30
0.0
 11
343.0163657203324
 21
338.1662648633147
 31
0.0
  0
LINE
  5
26E
330
70
100
AcDbEntity
  8
SOUZOU
  6
AI-Linetype-176
 62
     8
420
  8421504
370
    25
100
AcDbLine
 10
343.0163657203324
 20
338.1662648633147
 30
0.0
 11
327.7454081100483
 21
355.8974118640863
 31
0.0
  0
LINE
  5
270
330
70
100
AcDbEntity
  8
SOUZOU
  6
AI-Linetype-177
 62
     8
420
  8421504
370
    25
100
AcDbLine
 10
327.7454081100483
 20
355.8974118640863
 30
0.0
 11
343.3192012547304
 21
338.2983546770368
 31
0.0
  0
LINE
  5
272
330
70
100
AcDbEntity
  8
SOUZOU
  6
AI-Linetype-178
 62
     8
420
  8421504
370
    25
100
AcDbLine
 10
322.9787251588628
 20
329.4263122861261
 30
0.0
 11
327.170579118226
 21
324.4285866936866
 31
0.0
  0
LINE
  5
274
330
70
100
AcDbEntity
  8
SOUZOU
  6
AI-Linetype-179
 62
     8
420
  8421504
370
    25
100
AcDbLine
 10
327.170579118226
 20
324.4285866936866
 30
0.0
 11
326.4401511561296
 21
330.9361057657048
 31
0.0
  0
LINE
  5
276
330
70
100
AcDbEntity
  8
SOUZOU
  6
AI-Linetype-180
 62
     8
420
  8421504
370
    25
100
AcDbLine
 10
326.4401511561296
 20
330.9361057657048
 30
0.0
 11
330.4999567758962
 21
325.8807837599997
 31
0.0
  0
LINE
  5
278
330
70
100
AcDbEntity
  8
SOUZOU
  6
AI-Linetype-181
 62
     8
420
  8421504
370
    25
100
AcDbLine
 10
330.4999567758962
 20
325.8807837599997
 30
0.0
 11
329.9787010604556
 21
332.4795388989933
 31
0.0
  0
LINE
  5
27A
330
70
100
AcDbEntity
  8
SOUZOU
  6
AI-Linetype-182
 62
     8
420
  8421504
370
    25
100
AcDbLine
 10
329.9787010604556
 20
332.4795388989933
 30
0.0
 11
333.6768119612434
 21
327.2664540727971
 31
0.0
  0
LINE
  5
27C
330
70
100
AcDbEntity
  8
SOUZOU
  6
AI-Linetype-183
 62
     8
420
  8421504
370
    25
100
AcDbLine
 10
333.6768119612434
 20
327.2664540727971
 30
0.0
 11
333.2088309328296
 21
333.8884463906808
 31
0.0
  0
LINE
  5
27E
330
70
100
AcDbEntity
  8
SOUZOU
  6
AI-Linetype-184
 62
     8
420
  8421504
370
    25
100
AcDbLine
 10
333.2088309328296
 20
333.8884463906808
 30
0.0
 11
336.6046175370145
 21
328.5434947407886
 31
0.0
  0
LINE
  5
280
330
70
100
AcDbEntity
  8
SOUZOU
  6
AI-Linetype-185
 62
     8
420
  8421504
370
    25
100
AcDbLine
 10
336.6046175370145
 20
328.5434947407886
 30
0.0
 11
336.133651039311
 21
335.1641848664196
 31
0.0
  0
LINE
  5
282
330
70
100
AcDbEntity
  8
SOUZOU
  6
AI-Linetype-186
 62
     8
420
  8421504
370
    25
100
AcDbLine
 10
336.133651039311
 20
335.1641848664196
 30
0.0
 11
339.1944136123413
 21
329.673103529467
 31
0.0
  0
LINE
  5
284
330
70
100
AcDbEntity
  8
SOUZOU
  6
AI-Linetype-187
 62
     8
420
  8421504
370
    25
100
AcDbLine
 10
339.1944136123413
 20
329.673103529467
 30
0.0
 11
338.6710436292823
 21
336.270936474126
 31
0.0
  0
LINE
  5
286
330
70
100
AcDbEntity
  8
SOUZOU
  6
AI-Linetype-188
 62
     8
420
  8421504
370
    25
100
AcDbLine
 10
338.6710436292823
 20
336.270936474126
 30
0.0
 11
341.742365461287
 21
330.7844608402506
 31
0.0
  0
LINE
  5
288
330
70
100
AcDbEntity
  8
SOUZOU
  6
AI-Linetype-189
 62
     8
420
  8421504
370
    25
100
AcDbLine
 10
341.742365461287
 20
330.7844608402506
 30
0.0
 11
340.876397257613
 21
337.232860412647
 31
0.0
  0
LINE
  5
28A
330
70
100
AcDbEntity
  8
SOUZOU
  6
AI-Linetype-190
 62
     8
420
  8421504
370
    25
100
AcDbLine
 10
340.876397257613
 20
337.232860412647
 30
0.0
 11
343.8651880100099
 21
331.7103866421745
 31
0.0
  0
LINE
  5
28C
330
70
100
AcDbEntity
  8
SOUZOU
  6
AI-Linetype-191
 62
     8
420
  8421504
370
    25
100
AcDbLine
 10
343.8651880100099
 20
331.7103866421745
 30
0.0
 11
342.1956337066347
 21
337.808280655715
 31
0.0
  0
LINE
  5
28E
330
70
100
AcDbEntity
  8
SOUZOU
  6
AI-Linetype-192
 62
     8
420
  8421504
370
    25
100
AcDbLine
 10
342.1956337066347
 20
337.808280655715
 30
0.0
 11
344.5099369606565
 21
331.9916111324313
 31
0.0
  0
LINE
  5
290
330
70
100
AcDbEntity
  8
SOUZOU
  6
AI-Linetype-193
 62
     8
420
  8421504
370
    25
100
AcDbLine
 10
344.5099369606565
 20
331.9916111324313
 30
0.0
 11
343.0163657203324
 21
338.1662648633147
 31
0.0
  0
LINE
  5
292
330
70
100
AcDbEntity
  8
SOUZOU
  6
AI-Linetype-194
 62
     8
420
  8421504
370
    25
100
AcDbLine
 10
343.0163657203324
 20
338.1662648633147
 30
0.0
 11
345.2376309148003
 21
332.3090143032504
 31
0.0
  0
LINE
  5
294
330
70
100
AcDbEntity
  8
SOUZOU
  6
AI-Linetype-195
 62
     8
420
  8421504
370
    25
100
AcDbLine
 10
328.9216462003434
 20
315.8012823259617
 30
0.0
 11
327.170579118226
 21
324.4285866936866
 31
0.0
  0
LINE
  5
296
330
70
100
AcDbEntity
  8
SOUZOU
  6
AI-Linetype-196
 62
     8
420
  8421504
370
    25
100
AcDbLine
 10
327.170579118226
 20
324.4285866936866
 30
0.0
 11
330.3772420185883
 21
316.4361793530932
 31
0.0
  0
LINE
  5
298
330
70
100
AcDbEntity
  8
SOUZOU
  6
AI-Linetype-197
 62
     8
420
  8421504
370
    25
100
AcDbLine
 10
330.3772420185883
 20
316.4361793530932
 30
0.0
 11
330.4999567758962
 21
325.8807837599997
 31
0.0
  0
LINE
  5
29A
330
70
100
AcDbEntity
  8
SOUZOU
  6
AI-Linetype-198
 62
     8
420
  8421504
370
    25
100
AcDbLine
 10
330.4999567758962
 20
325.8807837599997
 30
0.0
 11
333.2442061126938
 21
317.6866823824181
 31
0.0
  0
LINE
  5
29C
330
70
100
AcDbEntity
  8
SOUZOU
  6
AI-Linetype-199
 62
     8
420
  8421504
370
    25
100
AcDbLine
 10
333.2442061126938
 20
317.6866823824181
 30
0.0
 11
333.6768119612434
 21
327.2664540727971
 31
0.0
  0
LINE
  5
29E
330
70
100
AcDbEntity
  8
SOUZOU
  6
AI-Linetype-200
 62
     8
420
  8421504
370
    25
100
AcDbLine
 10
333.6768119612434
 20
327.2664540727971
 30
0.0
 11
336.2150804699699
 21
318.9825086507813
 31
0.0
  0
LINE
  5
2A0
330
70
100
AcDbEntity
  8
SOUZOU
  6
AI-Linetype-201
 62
     8
420
  8421504
370
    25
100
AcDbLine
 10
336.2150804699699
 20
318.9825086507813
 30
0.0
 11
336.6046175370145
 21
328.5434947407886
 31
0.0
  0
LINE
  5
2A2
330
70
100
AcDbEntity
  8
SOUZOU
  6
AI-Linetype-202
 62
     8
420
  8421504
370
    25
100
AcDbLine
 10
336.6046175370145
 20
328.5434947407886
 30
0.0
 11
338.8097580640092
 21
320.1142466443582
 31
0.0
  0
LINE
  5
2A4
330
70
100
AcDbEntity
  8
SOUZOU
  6
AI-Linetype-203
 62
     8
420
  8421504
370
    25
100
AcDbLine
 10
338.8097580640092
 20
320.1142466443582
 30
0.0
 11
339.1944136123413
 21
329.673103529467
 31
0.0
  0
LINE
  5
2A6
330
70
100
AcDbEntity
  8
SOUZOU
  6
AI-Linetype-204
 62
     8
420
  8421504
370
    25
100
AcDbLine
 10
339.1944136123413
 20
329.673103529467
 30
0.0
 11
341.2604025832917
 21
321.1831607620827
 31
0.0
  0
LINE
  5
2A8
330
70
100
AcDbEntity
  8
SOUZOU
  6
AI-Linetype-205
 62
     8
420
  8421504
370
    25
100
AcDbLine
 10
341.2604025832917
 20
321.1831607620827
 30
0.0
 11
341.742365461287
 21
330.7844608402506
 31
0.0
  0
LINE
  5
2AA
330
70
100
AcDbEntity
  8
SOUZOU
  6
AI-Linetype-206
 62
     8
420
  8421504
370
    25
100
AcDbLine
 10
341.742365461287
 20
330.7844608402506
 30
0.0
 11
343.4592537279141
 21
322.1422484685001
 31
0.0
  0
LINE
  5
2AC
330
70
100
AcDbEntity
  8
SOUZOU
  6
AI-Linetype-207
 62
     8
420
  8421504
370
    25
100
AcDbLine
 10
343.4592537279141
 20
322.1422484685001
 30
0.0
 11
343.8651880100099
 21
331.7103866421745
 31
0.0
  0
LINE
  5
2AE
330
70
100
AcDbEntity
  8
SOUZOU
  6
AI-Linetype-208
 62
     8
420
  8421504
370
    25
100
AcDbLine
 10
343.8651880100099
 20
331.7103866421745
 30
0.0
 11
345.2847675894717
 21
322.9384951388593
 31
0.0
  0
LINE
  5
2B0
330
70
100
AcDbEntity
  8
SOUZOU
  6
AI-Linetype-209
 62
     8
420
  8421504
370
    25
100
AcDbLine
 10
345.2847675894717
 20
322.9384951388593
 30
0.0
 11
344.5099369606565
 21
331.9916111324313
 31
0.0
  0
LINE
  5
2B2
330
70
100
AcDbEntity
  8
SOUZOU
  6
AI-Linetype-210
 62
     8
420
  8421504
370
    25
100
AcDbLine
 10
344.5099369606565
 20
331.9916111324313
 30
0.0
 11
346.8627818826676
 21
323.6267882563234
 31
0.0
  0
LINE
  5
2B4
330
70
100
AcDbEntity
  8
SOUZOU
  6
AI-Linetype-211
 62
     8
420
  8421504
370
    25
100
AcDbLine
 10
346.8627818826676
 20
323.6267882563234
 30
0.0
 11
345.2376309148003
 21
332.3090143032504
 31
0.0
  0
LINE
  5
2B6
330
70
100
AcDbEntity
  8
SOUZOU
  6
AI-Linetype-212
 62
     8
420
  8421504
370
    25
100
AcDbLine
 10
330.8015497950973
 20
311.4913238691855
 30
0.0
 11
330.3772420185883
 21
316.4361793530932
 31
0.0
  0
LINE
  5
2B8
330
70
100
AcDbEntity
  8
SOUZOU
  6
AI-Linetype-213
 62
     8
420
  8421504
370
    25
100
AcDbLine
 10
330.3772420185883
 20
316.4361793530932
 30
0.0
 11
333.1606519980216
 21
312.5202071809462
 31
0.0
  0
LINE
  5
2BA
330
70
100
AcDbEntity
  8
SOUZOU
  6
AI-Linetype-214
 62
     8
420
  8421504
370
    25
100
AcDbLine
 10
333.1606519980216
 20
312.5202071809462
 30
0.0
 11
333.2442061126938
 21
317.6866823824181
 31
0.0
  0
LINE
  5
2BC
330
70
100
AcDbEntity
  8
SOUZOU
  6
AI-Linetype-215
 62
     8
420
  8421504
370
    25
100
AcDbLine
 10
333.2442061126938
 20
317.6866823824181
 30
0.0
 11
335.1147395756577
 21
313.3725219750623
 31
0.0
  0
LINE
  5
2BE
330
70
100
AcDbEntity
  8
SOUZOU
  6
AI-Linetype-216
 62
     8
420
  8421504
370
    25
100
AcDbLine
 10
335.1147395756577
 20
313.3725219750623
 30
0.0
 11
336.2150804699699
 21
318.9825086507813
 31
0.0
  0
LINE
  5
2C0
330
70
100
AcDbEntity
  8
SOUZOU
  6
AI-Linetype-217
 62
     8
420
  8421504
370
    25
100
AcDbLine
 10
336.2150804699699
 20
318.9825086507813
 30
0.0
 11
336.8287718689598
 21
314.1201619626685
 31
0.0
  0
LINE
  5
2C2
330
70
100
AcDbEntity
  8
SOUZOU
  6
AI-Linetype-218
 62
     8
420
  8421504
370
    25
100
AcDbLine
 10
336.8287718689598
 20
314.1201619626685
 30
0.0
 11
338.8097580640092
 21
320.1142466443582
 31
0.0
  0
LINE
  5
2C4
330
70
100
AcDbEntity
  8
SOUZOU
  6
AI-Linetype-219
 62
     8
420
  8421504
370
    25
100
AcDbLine
 10
338.8097580640092
 20
320.1142466443582
 30
0.0
 11
338.6100848987528
 21
314.8970862996859
 31
0.0
  0
LINE
  5
2C6
330
70
100
AcDbEntity
  8
SOUZOU
  6
AI-Linetype-220
 62
     8
420
  8421504
370
    25
100
AcDbLine
 10
338.6100848987528
 20
314.8970862996859
 30
0.0
 11
341.2604025832917
 21
321.1831607620827
 31
0.0
  0
LINE
  5
2C8
330
70
100
AcDbEntity
  8
SOUZOU
  6
AI-Linetype-221
 62
     8
420
  8421504
370
    25
100
AcDbLine
 10
341.2604025832917
 20
321.1831607620827
 30
0.0
 11
340.6103323778482
 21
315.7693908158908
 31
0.0
  0
LINE
  5
2CA
330
70
100
AcDbEntity
  8
SOUZOU
  6
AI-Linetype-222
 62
     8
420
  8421504
370
    25
100
AcDbLine
 10
340.6103323778482
 20
315.7693908158908
 30
0.0
 11
343.4592537279141
 21
322.1422484685001
 31
0.0
  0
LINE
  5
2CC
330
70
100
AcDbEntity
  8
SOUZOU
  6
AI-Linetype-223
 62
     8
420
  8421504
370
    25
100
AcDbLine
 10
343.4592537279141
 20
322.1422484685001
 30
0.0
 11
342.2369751590153
 21
316.4787662156882
 31
0.0
  0
LINE
  5
2CE
330
70
100
AcDbEntity
  8
SOUZOU
  6
AI-Linetype-224
 62
     8
420
  8421504
370
    25
100
AcDbLine
 10
342.2369751590153
 20
316.4787662156882
 30
0.0
 11
345.2847675894717
 21
322.9384951388593
 31
0.0
  0
LINE
  5
2D0
330
70
100
AcDbEntity
  8
SOUZOU
  6
AI-Linetype-225
 62
     8
420
  8421504
370
    25
100
AcDbLine
 10
345.2847675894717
 20
322.9384951388593
 30
0.0
 11
343.2024875876279
 21
316.9003243893099
 31
0.0
  0
LINE
  5
2D2
330
70
100
AcDbEntity
  8
SOUZOU
  6
AI-Linetype-226
 62
     8
420
  8421504
370
    25
100
AcDbLine
 10
343.2024875876279
 20
316.9003243893099
 30
0.0
 11
346.8627818826676
 21
323.6267882563234
 31
0.0
  0
LINE
  5
2D4
330
70
100
AcDbEntity
  8
SOUZOU
  6
AI-Linetype-227
 62
     8
420
  8421504
370
    25
100
AcDbLine
 10
346.8627818826676
 20
323.6267882563234
 30
0.0
 11
343.7129039950058
 21
317.1229561498342
 31
0.0
  0
LINE
  5
2D6
330
70
100
AcDbEntity
  8
SOUZOU
  6
AI-Linetype-228
 62
     8
420
  8421504
370
    25
100
AcDbLine
 10
343.7129039950058
 20
317.1229561498342
 30
0.0
 11
346.8627818826676
 21
323.6267882563234
 31
0.0
  0
LINE
  5
2D8
330
70
100
AcDbEntity
  8
SOUZOU
  6
AI-Linetype-229
 62
     8
420
  8421504
370
    25
100
AcDbLine
 10
330.8015497950973
 20
311.4913238691855
 30
0.0
 11
332.1922667490893
 21
309.5329579136926
 31
0.0
  0
LINE
  5
2DA
330
70
100
AcDbEntity
  8
SOUZOU
  6
AI-Linetype-230
 62
     8
420
  8421504
370
    25
100
AcDbLine
 10
332.1922667490893
 20
309.5329579136926
 30
0.0
 11
333.1606519980216
 21
312.5202071809462
 31
0.0
  0
LINE
  5
2DC
330
70
100
AcDbEntity
  8
SOUZOU
  6
AI-Linetype-231
 62
     8
420
  8421504
370
    25
100
AcDbLine
 10
333.1606519980216
 20
312.5202071809462
 30
0.0
 11
333.0801007911392
 21
309.920210464717
 31
0.0
  0
LINE
  5
2DE
330
70
100
AcDbEntity
  8
SOUZOU
  6
AI-Linetype-232
 62
     8
420
  8421504
370
    25
100
AcDbLine
 10
333.0801007911392
 20
309.920210464717
 30
0.0
 11
335.1147395756577
 21
313.3725219750623
 31
0.0
  0
LINE
  5
2E0
330
70
100
AcDbEntity
  8
SOUZOU
  6
AI-Linetype-233
 62
     8
420
  8421504
370
    25
100
AcDbLine
 10
335.1147395756577
 20
313.3725219750623
 30
0.0
 11
333.9272621738957
 21
310.2897225481413
 31
0.0
  0
LINE
  5
2E2
330
70
100
AcDbEntity
  8
SOUZOU
  6
AI-Linetype-234
 62
     8
420
  8421504
370
    25
100
AcDbLine
 10
333.9272621738957
 20
310.2897225481413
 30
0.0
 11
336.8287718689598
 21
314.1201619626685
 31
0.0
  0
LINE
  5
2E4
330
70
100
AcDbEntity
  8
SOUZOU
  6
AI-Linetype-235
 62
     8
420
  8421504
370
    25
100
AcDbLine
 10
336.8287718689598
 20
314.1201619626685
 30
0.0
 11
334.708010327433
 21
310.6302667262717
 31
0.0
  0
LINE
  5
2E6
330
70
100
AcDbEntity
  8
SOUZOU
  6
AI-Linetype-236
 62
     8
420
  8421504
370
    25
100
AcDbLine
 10
334.708010327433
 20
310.6302667262717
 30
0.0
 11
338.6100848987528
 21
314.8970862996859
 31
0.0
  0
LINE
  5
2E8
330
70
100
AcDbEntity
  8
SOUZOU
  6
AI-Linetype-237
 62
     8
420
  8421504
370
    25
100
AcDbLine
 10
338.6100848987528
 20
314.8970862996859
 30
0.0
 11
335.6599277396218
 21
311.045470952251
 31
0.0
  0
LINE
  5
2EA
330
70
100
AcDbEntity
  8
SOUZOU
  6
AI-Linetype-238
 62
     8
420
  8421504
370
    25
100
AcDbLine
 10
335.6599277396218
 20
311.045470952251
 30
0.0
 11
340.6103323778482
 21
315.7693908158908
 31
0.0
  0
LINE
  5
2EC
330
70
100
AcDbEntity
  8
SOUZOU
  6
AI-Linetype-239
 62
     8
420
  8421504
370
    25
100
AcDbLine
 10
340.6103323778482
 20
315.7693908158908
 30
0.0
 11
336.5769302517997
 21
311.4454461112406
 31
0.0
  0
LINE
  5
2EE
330
70
100
AcDbEntity
  8
SOUZOU
  6
AI-Linetype-240
 62
     8
420
  8421504
370
    25
100
AcDbLine
 10
336.5769302517997
 20
311.4454461112406
 30
0.0
 11
342.2369751590153
 21
316.4787662156882
 31
0.0
  0
LINE
  5
2F0
330
70
100
AcDbEntity
  8
SOUZOU
  6
AI-Linetype-241
 62
     8
420
  8421504
370
    25
100
AcDbLine
 10
342.2369751590153
 20
316.4787662156882
 30
0.0
 11
337.4740861903906
 21
311.836764656644
 31
0.0
  0
LINE
  5
2F2
330
70
100
AcDbEntity
  8
SOUZOU
  6
AI-Linetype-242
 62
     8
420
  8421504
370
    25
100
AcDbLine
 10
337.4740861903906
 20
311.836764656644
 30
0.0
 11
343.2024875876279
 21
316.9003243893099
 31
0.0
  0
LINE
  5
2F4
330
70
100
AcDbEntity
  8
SOUZOU
  6
AI-Linetype-243
 62
     8
420
  8421504
370
    25
100
AcDbLine
 10
343.2024875876279
 20
316.9003243893099
 30
0.0
 11
338.158051098161
 21
312.1350942349137
 31
0.0
  0
LINE
  5
2F6
330
70
100
AcDbEntity
  8
SOUZOU
  6
AI-Linetype-244
 62
     8
420
  8421504
370
    25
100
AcDbLine
 10
338.158051098161
 20
312.1350942349137
 30
0.0
 11
343.7129039950058
 21
317.1229561498342
 31
0.0
  0
LINE
  5
2F8
330
70
100
AcDbEntity
  8
SOUZOU
  6
AI-Linetype-245
 62
     8
420
  8421504
370
    25
100
AcDbLine
 10
343.7129039950058
 20
317.1229561498342
 30
0.0
 11
338.7063681182387
 21
312.3742573608329
 31
0.0
  0
LINE
  5
2FA
330
70
100
AcDbEntity
  8
SOUZOU
  6
AI-Linetype-246
 62
     8
420
  8421504
370
    25
100
AcDbLine
 10
338.7063681182387
 20
312.3742573608329
 30
0.0
 11
343.8847836226333
 21
317.1979260441076
 31
0.0
  0
LINE
  5
2FC
330
70
100
AcDbEntity
  8
SOUZOU
  6
AI-Linetype-247
 62
     8
420
  8421504
370
    25
100
AcDbLine
 10
346.2913200124689
 20
323.3775298853143
 30
0.0
 11
344.5099369606565
 21
331.9916111324313
 31
0.0
  0
LINE
  5
2FE
330
70
100
AcDbEntity
  8
SOUZOU
  6
AI-Linetype-248
 62
     8
420
  8421504
370
    25
100
AcDbLine
 10
343.2744249801248
 20
316.960241521577
 30
0.0
 11
346.2913200124689
 21
323.3775298853143
 31
0.0
  0
LINE
  5
300
330
70
100
AcDbEntity
  8
SOUZOU
  6
AI-Linetype-249
 62
     8
420
  8421504
370
    25
100
AcDbLine
 10
344.5099369606565
 20
331.9916111324313
 30
0.0
 11
342.4708986999675
 21
337.3813213467928
 31
0.0
  0
ENDSEC
  0
SECTION
  2
OBJECTS
  0
DICTIONARY
  5
C
330
0
100
AcDbDictionary
281
     1
  3
ACAD_COLOR
350
63
  3
ACAD_DETAILVIEWSTYLE
350
6A
  3
ACAD_GROUP
350
D
  3
ACAD_LAYOUT
350
62
  3
ACAD_MATERIAL
350
10
  3
ACAD_MLEADERSTYLE
350
66
  3
ACAD_MLINESTYLE
350
5F
  3
ACAD_PLOTSETTINGS
350
61
  3
ACAD_PLOTSTYLENAME
350
E
  3
ACAD_SCALELIST
350
42
  3
ACAD_SECTIONVIEWSTYLE
350
68
  3
ACAD_TABLESTYLE
350
64
  3
ACAD_VISUALSTYLE
350
29
  3
ACDB_RECOMPOSE_DATA
350
30A
  3
AcDbVariableDictionary
350
302
  0
DICTIONARY
  5
63
102
{ACAD_REACTORS
330
C
102
}
330
C
100
AcDbDictionary
281
     1
  0
DICTIONARY
  5
6A
102
{ACAD_REACTORS
330
C
102
}
330
C
100
AcDbDictionary
281
     1
  3
Imperial24
350
6B
  0
DICTIONARY
  5
D
102
{ACAD_REACTORS
330
C
102
}
330
C
100
AcDbDictionary
281
     1
  0
DICTIONARY
  5
62
102
{ACAD_REACTORS
330
C
102
}
330
C
100
AcDbDictionary
281
     1
  3
Layout1
350
6F
  3
Layout2
350
77
  3
Model
350
73
  0
DICTIONARY
  5
10
102
{ACAD_REACTORS
330
C
102
}
330
C
100
AcDbDictionary
281
     1
  3
ByBlock
350
19
  3
ByLayer
350
11
  3
Global
350
21
  0
DICTIONARY
  5
66
102
{ACAD_REACTORS
330
C
102
}
330
C
100
AcDbDictionary
281
     1
  3
Standard
350
67
  0
DICTIONARY
  5
5F
102
{ACAD_REACTORS
330
C
102
}
330
C
100
AcDbDictionary
281
     1
  3
Standard
350
60
  0
DICTIONARY
  5
61
102
{ACAD_REACTORS
330
C
102
}
330
C
100
AcDbDictionary
281
     1
  0
ACDBDICTIONARYWDFLT
  5
E
102
{ACAD_REACTORS
330
C
102
}
330
C
100
AcDbDictionary
281
     1
  3
Normal
350
F
100
AcDbDictionaryWithDefault
340
F
  0
DICTIONARY
  5
42
102
{ACAD_REACTORS
330
C
102
}
330
C
100
AcDbDictionary
281
     1
  3
A0
350
43
  3
A1
350
44
  3
A2
350
45
  3
A3
350
46
  3
A4
350
47
  3
A5
350
48
  3
A6
350
49
  3
A7
350
4A
  3
A8
350
4B
  3
A9
350
4C
  3
B0
350
4D
  3
B1
350
4E
  3
B2
350
4F
  3
B3
350
50
  3
B4
350
51
  3
B5
350
52
  3
B6
350
53
  0
DICTIONARY
  5
68
102
{ACAD_REACTORS
330
C
102
}
330
C
100
AcDbDictionary
281
     1
  3
Imperial24
350
69
  0
DICTIONARY
  5
64
102
{ACAD_REACTORS
330
C
102
}
330
C
100
AcDbDictionary
281
     1
  3
Standard
350
65
  0
DICTIONARY
  5
29
102
{ACAD_REACTORS
330
C
102
}
330
C
100
AcDbDictionary
281
     1
  3
2dWireframe
350
2F
  3
Basic
350
2E
  3
Brighten
350
35
  3
ColorChange
350
39
  3
Conceptual
350
32
  3
Dim
350
34
  3
EdgeColorOff
350
41
  3
Facepattern
350
38
  3
Flat
350
2A
  3
FlatWithEdges
350
2B
  3
Gouraud
350
2C
  3
GouraudWithEdges
350
2D
  3
Hidden
350
31
  3
JitterOff
350
3F
  3
Linepattern
350
37
  3
OverhangOff
350
40
  3
Realistic
350
33
  3
Shaded
350
3E
  3
Shaded with edges
350
3D
  3
Shades of Gray
350
3A
  3
Sketchy
350
3B
  3
Thicken
350
36
  3
Wireframe
350
30
  3
X-Ray
350
3C
  0
XRECORD
  5
30A
102
{ACAD_REACTORS
330
C
102
}
330
C
100
AcDbXrecord
280
     1
 90
        1
330
65
  0
DICTIONARY
  5
302
102
{ACAD_REACTORS
330
C
102
}
330
C
100
AcDbDictionary
281
     1
  3
CANNOSCALE
350
307
  3
CMLEADERSTYLE
350
304
  3
CTABLESTYLE
350
303
  3
CVIEWDETAILSTYLE
350
305
  3
CVIEWSECTIONSTYLE
350
306
  0
ACDBDETAILVIEWSTYLE
  5
6B
102
{ACAD_REACTORS
330
6A
102
}
330
6A
100
AcDbModelDocViewStyle
 70
     0
  3
Imperial24
290
     1
300
Imperial24
 90
        0
100
AcDbDetailViewStyle
 70
     0
 71
     0
 90
        3
 71
     1
340
55
 62
   256
 40
0.24
340
0
 62
   256
 40
0.24
300

 40
0.36
280
     3
 71
     2
340
5D
 90
       25
 62
   256
 71
     3
340
55
 62
   256
 40
0.24
 90
        1
 40
0.75
 90
        1
300
%<\AcVar ViewType \f "%tc1">% %<\AcVar ViewDetailId>%\PSCALE %<\AcVar ViewScale \f "%sn">%
 71
     4
340
5D
 90
       25
 62
   256
340
5D
 90
       25
 62
   256
280
     0
  0
LAYOUT
  5
6F
102
{ACAD_REACTORS
330
62
102
}
330
62
100
AcDbPlotSettings
  1

  2

  4

  6

 40
0.0
 41
0.0
 42
0.0
 43
0.0
 44
0.0
 45
0.0
 46
0.0
 47
0.0
 48
0.0
 49
0.0
140
0.0
141
0.0
142
1.0
143
1.0
 70
   688
 72
     0
 73
     0
 74
     5
  7

 75
    16
147
1.0
 76
     0
 77
     2
 78
   300
148
0.0
149
0.0
100
AcDbLayout
  1
Layout1
 70
     1
 71
     1
 10
0.0
 20
0.0
 11
12.0
 21
9.0
 12
0.0
 22
0.0
 32
0.0
 14
0.0
 24
0.0
 34
0.0
 15
0.0
 25
0.0
 35
0.0
146
0.0
 13
0.0
 23
0.0
 33
0.0
 16
1.0
 26
0.0
 36
0.0
 17
0.0
 27
1.0
 37
0.0
 76
     0
330
6C
  0
LAYOUT
  5
77
102
{ACAD_REACTORS
330
62
102
}
330
62
100
AcDbPlotSettings
  1

  2

  4

  6

 40
0.0
 41
0.0
 42
0.0
 43
0.0
 44
0.0
 45
0.0
 46
0.0
 47
0.0
 48
0.0
 49
0.0
140
0.0
141
0.0
142
1.0
143
1.0
 70
   688
 72
     0
 73
     0
 74
     5
  7

 75
    16
147
1.0
 76
     0
 77
     2
 78
   300
148
0.0
149
0.0
100
AcDbLayout
  1
Layout2
 70
     1
 71
     2
 10
0.0
 20
0.0
 11
12.0
 21
9.0
 12
0.0
 22
0.0
 32
0.0
 14
0.0
 24
0.0
 34
0.0
 15
0.0
 25
0.0
 35
0.0
146
0.0
 13
0.0
 23
0.0
 33
0.0
 16
1.0
 26
0.0
 36
0.0
 17
0.0
 27
1.0
 37
0.0
 76
     0
330
74
  0
LAYOUT
  5
73
102
{ACAD_REACTORS
330
62
102
}
330
62
100
AcDbPlotSettings
  1

  2

  4

  6

 40
0.0
 41
0.0
 42
0.0
 43
0.0
 44
0.0
 45
0.0
 46
0.0
 47
0.0
 48
0.0
 49
0.0
140
0.0
141
0.0
142
1.0
143
1.0
 70
  1712
 72
     0
 73
     0
 74
     0
  7

 75
     0
147
1.0
 76
     0
 77
     2
 78
   300
148
0.0
149
0.0
100
AcDbLayout
  1
Model
 70
     1
 71
     0
 10
0.0
 20
0.0
 11
12.0
 21
9.0
 12
0.0
 22
0.0
 32
0.0
 14
0.0
 24
0.0
 34
0.0
 15
0.0
 25
0.0
 35
0.0
146
0.0
 13
0.0
 23
0.0
 33
0.0
 16
1.0
 26
0.0
 36
0.0
 17
0.0
 27
1.0
 37
0.0
 76
     0
330
70
  0
MATERIAL
  5
19
102
{ACAD_XDICTIONARY
360
1A
102
}
102
{ACAD_REACTORS
330
10
102
}
330
10
100
AcDbMaterial
  1
ByBlock
 72
     0
 43
0.0208333333333333
 43
0.0
 43
0.0
 43
0.0
 43
0.0
 43
0.0208333333333333
 43
0.0
 43
0.0
 43
0.0
 43
0.0
 43
1.0
 43
0.0
 43
0.0
 43
0.0
 43
0.0
 43
1.0
 77
     0
 47
0.0208333333333333
 47
0.0
 47
0.0
 47
0.0
 47
0.0
 47
0.0208333333333333
 47
0.0
 47
0.0
 47
0.0
 47
0.0
 47
1.0
 47
0.0
 47
0.0
 47
0.0
 47
0.0
 47
1.0
171
     0
 49
0.0208333333333333
 49
0.0
 49
0.0
 49
0.0
 49
0.0
 49
0.0208333333333333
 49
0.0
 49
0.0
 49
0.0
 49
0.0
 49
1.0
 49
0.0
 49
0.0
 49
0.0
 49
0.0
 49
1.0
175
     0
142
0.0208333333333333
142
0.0
142
0.0
142
0.0
142
0.0
142
0.0208333333333333
142
0.0
142
0.0
142
0.0
142
0.0
142
1.0
142
0.0
142
0.0
142
0.0
142
0.0
142
1.0
179
     0
144
0.0208333333333333
144
0.0
144
0.0
144
0.0
144
0.0
144
0.0208333333333333
144
0.0
144
0.0
144
0.0
144
0.0
144
1.0
144
0.0
144
0.0
144
0.0
144
0.0
144
1.0
147
0.0208333333333333
147
0.0
147
0.0
147
0.0
147
0.0
147
0.0208333333333333
147
0.0
147
0.0
147
0.0
147
0.0
147
1.0
147
0.0
147
0.0
147
0.0
147
0.0
147
1.0
  0
MATERIAL
  5
11
102
{ACAD_XDICTIONARY
360
12
102
}
102
{ACAD_REACTORS
330
10
102
}
330
10
100
AcDbMaterial
  1
ByLayer
 72
     0
 43
0.0208333333333333
 43
0.0
 43
0.0
 43
0.0
 43
0.0
 43
0.0208333333333333
 43
0.0
 43
0.0
 43
0.0
 43
0.0
 43
1.0
 43
0.0
 43
0.0
 43
0.0
 43
0.0
 43
1.0
 77
     0
 47
0.0208333333333333
 47
0.0
 47
0.0
 47
0.0
 47
0.0
 47
0.0208333333333333
 47
0.0
 47
0.0
 47
0.0
 47
0.0
 47
1.0
 47
0.0
 47
0.0
 47
0.0
 47
0.0
 47
1.0
171
     0
 49
0.0208333333333333
 49
0.0
 49
0.0
 49
0.0
 49
0.0
 49
0.0208333333333333
 49
0.0
 49
0.0
 49
0.0
 49
0.0
 49
1.0
 49
0.0
 49
0.0
 49
0.0
 49
0.0
 49
1.0
175
     0
142
0.0208333333333333
142
0.0
142
0.0
142
0.0
142
0.0
142
0.0208333333333333
142
0.0
142
0.0
142
0.0
142
0.0
142
1.0
142
0.0
142
0.0
142
0.0
142
0.0
142
1.0
179
     0
144
0.0208333333333333
144
0.0
144
0.0
144
0.0
144
0.0
144
0.0208333333333333
144
0.0
144
0.0
144
0.0
144
0.0
144
1.0
144
0.0
144
0.0
144
0.0
144
0.0
144
1.0
147
0.0208333333333333
147
0.0
147
0.0
147
0.0
147
0.0
147
0.0208333333333333
147
0.0
147
0.0
147
0.0
147
0.0
147
1.0
147
0.0
147
0.0
147
0.0
147
0.0
147
1.0
  0
MATERIAL
  5
21
102
{ACAD_XDICTIONARY
360
22
102
}
102
{ACAD_REACTORS
330
10
102
}
330
10
100
AcDbMaterial
  1
Global
 72
     0
 43
0.0208333333333333
 43
0.0
 43
0.0
 43
0.0
 43
0.0
 43
0.0208333333333333
 43
0.0
 43
0.0
 43
0.0
 43
0.0
 43
1.0
 43
0.0
 43
0.0
 43
0.0
 43
0.0
 43
1.0
 77
     0
 47
0.0208333333333333
 47
0.0
 47
0.0
 47
0.0
 47
0.0
 47
0.0208333333333333
 47
0.0
 47
0.0
 47
0.0
 47
0.0
 47
1.0
 47
0.0
 47
0.0
 47
0.0
 47
0.0
 47
1.0
171
     0
 49
0.0208333333333333
 49
0.0
 49
0.0
 49
0.0
 49
0.0
 49
0.0208333333333333
 49
0.0
 49
0.0
 49
0.0
 49
0.0
 49
1.0
 49
0.0
 49
0.0
 49
0.0
 49
0.0
 49
1.0
175
     0
142
0.0208333333333333
142
0.0
142
0.0
142
0.0
142
0.0
142
0.0208333333333333
142
0.0
142
0.0
142
0.0
142
0.0
142
1.0
142
0.0
142
0.0
142
0.0
142
0.0
142
1.0
179
     0
144
0.0208333333333333
144
0.0
144
0.0
144
0.0
144
0.0
144
0.0208333333333333
144
0.0
144
0.0
144
0.0
144
0.0
144
1.0
144
0.0
144
0.0
144
0.0
144
0.0
144
1.0
147
0.0208333333333333
147
0.0
147
0.0
147
0.0
147
0.0
147
0.0208333333333333
147
0.0
147
0.0
147
0.0
147
0.0
147
1.0
147
0.0
147
0.0
147
0.0
147
0.0
147
1.0
  0
MLEADERSTYLE
  5
67
102
{ACAD_REACTORS
330
66
102
}
330
66
100
AcDbMLeaderStyle
179
     2
170
     2
171
     1
172
     0
 90
        2
 40
0.0
 41
0.0
173
     1
 91
-1056964608
340
5B
 92
       -2
290
     1
 42
0.09
291
     1
 43
0.36
  3
Standard
 44
0.18
300

342
55
174
     1
178
     6
175
     1
176
     0
 93
-1056964608
 45
0.18
292
     0
297
     0
 46
0.18
 94
-1056964608
 47
1.0
 49
1.0
140
1.0
293
     1
141
0.0
294
     1
177
     0
142
1.0
295
     1
296
     0
143
0.125
271
     0
272
     9
273
     9
298
     1
  0
MLINESTYLE
  5
60
102
{ACAD_REACTORS
330
5F
102
}
330
5F
100
AcDbMlineStyle
  2
STANDARD
 70
     0
  3

 62
   256
 51
90.0
 52
90.0
 71
     2
 49
0.5
 62
   256
  6
BYLAYER
 49
-0.5
 62
   256
  6
BYLAYER
  0
ACDBPLACEHOLDER
  5
F
102
{ACAD_REACTORS
330
E
102
}
330
E
  0
SCALE
  5
43
102
{ACAD_REACTORS
330
42
102
}
330
42
100
AcDbScale
 70
     0
300
1:1
140
1.0
141
1.0
290
     1
  0
SCALE
  5
44
102
{ACAD_REACTORS
330
42
102
}
330
42
100
AcDbScale
 70
     0
300
1/128" = 1'-0"
140
0.0078125
141
12.0
290
     0
  0
SCALE
  5
45
102
{ACAD_REACTORS
330
42
102
}
330
42
100
AcDbScale
 70
     0
300
1/64" = 1'-0"
140
0.015625
141
12.0
290
     0
  0
SCALE
  5
46
102
{ACAD_REACTORS
330
42
102
}
330
42
100
AcDbScale
 70
     0
300
1/32" = 1'-0"
140
0.03125
141
12.0
290
     0
  0
SCALE
  5
47
102
{ACAD_REACTORS
330
42
102
}
330
42
100
AcDbScale
 70
     0
300
1/16" = 1'-0"
140
0.0625
141
12.0
290
     0
  0
SCALE
  5
48
102
{ACAD_REACTORS
330
42
102
}
330
42
100
AcDbScale
 70
     0
300
3/32" = 1'-0"
140
0.09375
141
12.0
290
     0
  0
SCALE
  5
49
102
{ACAD_REACTORS
330
42
102
}
330
42
100
AcDbScale
 70
     0
300
1/8" = 1'-0"
140
0.125
141
12.0
290
     0
  0
SCALE
  5
4A
102
{ACAD_REACTORS
330
42
102
}
330
42
100
AcDbScale
 70
     0
300
3/16" = 1'-0"
140
0.1875
141
12.0
290
     0
  0
SCALE
  5
4B
102
{ACAD_REACTORS
330
42
102
}
330
42
100
AcDbScale
 70
     0
300
1/4" = 1'-0"
140
0.25
141
12.0
290
     0
  0
SCALE
  5
4C
102
{ACAD_REACTORS
330
42
102
}
330
42
100
AcDbScale
 70
     0
300
3/8" = 1'-0"
140
0.375
141
12.0
290
     0
  0
SCALE
  5
4D
102
{ACAD_REACTORS
330
42
102
}
330
42
100
AcDbScale
 70
     0
300
1/2" = 1'-0"
140
0.5
141
12.0
290
     0
  0
SCALE
  5
4E
102
{ACAD_REACTORS
330
42
102
}
330
42
100
AcDbScale
 70
     0
300
3/4" = 1'-0"
140
0.75
141
12.0
290
     0
  0
SCALE
  5
4F
102
{ACAD_REACTORS
330
42
102
}
330
42
100
AcDbScale
 70
     0
300
1" = 1'-0"
140
1.0
141
12.0
290
     0
  0
SCALE
  5
50
102
{ACAD_REACTORS
330
42
102
}
330
42
100
AcDbScale
 70
     0
300
1-1/2" = 1'-0"
140
1.5
141
12.0
290
     0
  0
SCALE
  5
51
102
{ACAD_REACTORS
330
42
102
}
330
42
100
AcDbScale
 70
     0
300
3" = 1'-0"
140
3.0
141
12.0
290
     0
  0
SCALE
  5
52
102
{ACAD_REACTORS
330
42
102
}
330
42
100
AcDbScale
 70
     0
300
6" = 1'-0"
140
6.0
141
12.0
290
     0
  0
SCALE
  5
53
102
{ACAD_REACTORS
330
42
102
}
330
42
100
AcDbScale
 70
     0
300
1'-0" = 1'-0"
140
12.0
141
12.0
290
     0
  0
ACDBSECTIONVIEWSTYLE
  5
69
102
{ACAD_REACTORS
330
68
102
}
330
68
100
AcDbModelDocViewStyle
 70
     0
  3
Imperial24
290
     1
300
Imperial24
 90
        0
100
AcDbSectionViewStyle
 70
     0
 71
     0
 90
       78
 71
     1
340
55
 62
   256
 40
0.24
340
0
340
0
 62
   256
 40
0.24
300
I, O, Q, S, X, Z
 40
0.48
 90
        3
 40
0.18
 90
        1
 71
     2
340
5D
 90
       25
 62
   256
340
5D
 90
       50
 62
   256
 40
0.24
 40
0.0
 40
0.24
 71
     3
340
55
 62
   256
 40
0.24
 90
        1
 40
0.75
 90
        1
300
%<\AcVar ViewType \f "%tc1">% %<\AcVar ViewSectionStartId>%-%<\AcVar ViewSectionEndId>%\PSCALE %<\AcVar ViewScale \f "%sn">%
 71
     4
 62
   256
 62
   257
300
ANSI31
 40
1.0
 90
        0
290
     0
290
     0
 90
        6
 40
0.0
 40
1.570796326794896
 40
0.2617993877991494
 40
1.308996938995747
 40
-0.2617993877991494
 40
1.832595714594046
  0
TABLESTYLE
  5
65
102
{ACAD_XDICTIONARY
360
308
102
}
102
{ACAD_REACTORS
330
64
102
}
330
64
100
AcDbTableStyle
280
     0
  3
Standard
 70
     0
 71
     0
 40
0.06
 41
0.06
280
     0
281
     0
  7
Standard
140
0.18
170
     2
 62
     0
 63
     7
283
     0
 90
      512
 91
        0
  1

274
    -2
284
     1
 64
     0
275
    -2
285
     1
 65
     0
276
    -2
286
     1
 66
     0
277
    -2
287
     1
 67
     0
278
    -2
288
     1
 68
     0
279
    -2
289
     1
 69
     0
  7
Standard
140
0.25
170
     5
 62
     0
 63
     7
283
     0
 90
      512
 91
        0
  1

274
    -2
284
     1
 64
     0
275
    -2
285
     1
 65
     0
276
    -2
286
     1
 66
     0
277
    -2
287
     1
 67
     0
278
    -2
288
     1
 68
     0
279
    -2
289
     1
 69
     0
  7
Standard
140
0.18
170
     5
 62
     0
 63
     7
283
     0
 90
      512
 91
        0
  1

274
    -2
284
     1
 64
     0
275
    -2
285
     1
 65
     0
276
    -2
286
     1
 66
     0
277
    -2
287
     1
 67
     0
278
    -2
288
     1
 68
     0
279
    -2
289
     1
 69
     0
  0
VISUALSTYLE
  5
2F
102
{ACAD_REACTORS
330
29
102
}
330
29
100
AcDbVisualStyle
  2
2dWireframe
 70
     4
177
     3
291
     0
 70
    58
 90
        0
176
     1
 90
        2
176
     1
 90
        0
176
     1
 90
        0
176
     1
 40
0.6
176
     1
 40
30.0
176
     1
 62
     7
420
 16777215
176
     1
 90
        1
176
     1
 90
        4
176
     1
 62
     7
176
     1
 62
   257
176
     1
 90
        1
176
     1
 90
        1
176
     1
 40
1.0
176
     1
 90
        0
176
     1
 62
   257
176
     1
 40
1.0
176
     1
 90
        1
176
     1
 90
        6
176
     1
 90
        2
176
     1
 62
     7
176
     1
 90
        5
176
     1
 90
        0
176
     1
 90
        0
176
     1
290
     0
176
     1
 90
        1
176
     1
 40
0.0
176
     1
 90
        0
176
     1
290
     1
176
     1
290
     1
176
     1
290
     0
176
     1
290
     0
176
     1
290
     0
176
     1
290
     0
176
     1
290
     0
176
     1
290
     0
176
     1
290
     0
176
     1
 90
       50
176
     1
 40
0.0
176
     1
 40
1.0
176
     1
 90
        0
176
     1
 62
    18
420
        0
176
     1
 90
       50
176
     1
 90
        3
176
     1
 62
     5
420
      255
176
     1
290
     0
176
     1
 90
       50
176
     1
 90
       50
176
     1
 90
       50
176
     1
290
     0
176
     1
 90
       50
176
     1
 62
   256
176
     0
 40
1.0
176
     0
 90
        2
176
     1
  1
strokes_ogs.tif
176
     1
290
     0
176
     1
 40
1.0
176
     1
 40
1.0
176
     1
  0
VISUALSTYLE
  5
2E
102
{ACAD_REACTORS
330
29
102
}
330
29
100
AcDbVisualStyle
  2
Basic
 70
     7
177
     3
291
     1
 70
    58
 90
        1
176
     1
 90
        0
176
     1
 90
        1
176
     1
 90
        0
176
     1
 40
0.6
176
     1
 40
30.0
176
     1
 62
     7
420
 16777215
176
     1
 90
        0
176
     1
 90
        4
176
     1
 62
     7
176
     1
 62
   257
176
     1
 90
        1
176
     1
 90
        1
176
     1
 40
1.0
176
     1
 90
        8
176
     1
 62
     7
176
     1
 40
1.0
176
     1
 90
        1
176
     1
 90
        6
176
     1
 90
        2
176
     1
 62
     7
176
     1
 90
        5
176
     1
 90
        0
176
     1
 90
        0
176
     1
290
     0
176
     1
 90
        1
176
     1
 40
0.0
176
     1
 90
        0
176
     1
290
     0
176
     1
290
     1
176
     1
290
     1
176
     1
290
     0
176
     1
290
     0
176
     1
290
     0
176
     1
290
     0
176
     1
290
     0
176
     1
290
     0
176
     1
 90
       50
176
     1
 40
0.0
176
     1
 40
1.0
176
     1
 90
        0
176
     1
 62
    18
420
        0
176
     1
 90
       50
176
     1
 90
        3
176
     1
 62
     5
420
      255
176
     1
290
     0
176
     1
 90
       50
176
     1
 90
       50
176
     1
 90
       50
176
     1
290
     0
176
     1
 90
       50
176
     1
 62
   256
176
     0
 40
1.0
176
     0
 90
        2
176
     1
  1
strokes_ogs.tif
176
     1
290
     0
176
     1
 40
1.0
176
     1
 40
1.0
176
     1
  0
VISUALSTYLE
  5
35
102
{ACAD_REACTORS
330
29
102
}
330
29
100
AcDbVisualStyle
  2
Brighten
 70
    12
177
     3
291
     1
 70
    58
 90
        2
176
     1
 90
        2
176
     1
 90
        0
176
     1
 90
        0
176
     1
 40
0.6
176
     1
 40
30.0
176
     1
 62
     7
420
 16777215
176
     1
 90
        1
176
     1
 90
        4
176
     1
 62
     7
176
     1
 62
   257
176
     1
 90
        1
176
     1
 90
        1
176
     1
 40
1.0
176
     1
 90
        8
176
     1
 62
     7
176
     1
 40
1.0
176
     1
 90
        1
176
     1
 90
        6
176
     1
 90
        2
176
     1
 62
     7
176
     1
 90
        5
176
     1
 90
        0
176
     1
 90
        0
176
     1
290
     0
176
     1
 90
        1
176
     1
 40
50.0
176
     1
 90
        0
176
     1
290
     0
176
     1
290
     1
176
     1
290
     1
176
     1
290
     0
176
     1
290
     0
176
     1
290
     0
176
     1
290
     0
176
     1
290
     0
176
     1
290
     0
176
     1
 90
       50
176
     1
 40
0.0
176
     1
 40
1.0
176
     1
 90
        0
176
     1
 62
    18
420
        0
176
     1
 90
       50
176
     1
 90
        3
176
     1
 62
     5
420
      255
176
     1
290
     0
176
     1
 90
       50
176
     1
 90
       50
176
     1
 90
       50
176
     1
290
     0
176
     1
 90
       50
176
     1
 62
   256
176
     0
 40
1.0
176
     0
 90
        2
176
     1
  1
strokes_ogs.tif
176
     1
290
     0
176
     1
 40
1.0
176
     1
 40
1.0
176
     1
  0
VISUALSTYLE
  5
39
102
{ACAD_REACTORS
330
29
102
}
330
29
100
AcDbVisualStyle
  2
ColorChange
 70
    16
177
     3
291
     1
 70
    58
 90
        2
176
     1
 90
        2
176
     1
 90
        3
176
     1
 90
        0
176
     1
 40
0.6
176
     1
 40
30.0
176
     1
 62
     8
420
  8421504
176
     1
 90
        1
176
     1
 90
        4
176
     1
 62
     7
176
     1
 62
   257
176
     1
 90
        1
176
     1
 90
        1
176
     1
 40
1.0
176
     1
 90
        8
176
     1
 62
     8
420
  8421504
176
     1
 40
1.0
176
     1
 90
        1
176
     1
 90
        6
176
     1
 90
        2
176
     1
 62
     7
176
     1
 90
        5
176
     1
 90
        0
176
     1
 90
        0
176
     1
290
     0
176
     1
 90
        1
176
     1
 40
0.0
176
     1
 90
        0
176
     1
290
     0
176
     1
290
     1
176
     1
290
     1
176
     1
290
     0
176
     1
290
     0
176
     1
290
     0
176
     1
290
     0
176
     1
290
     0
176
     1
290
     0
176
     1
 90
       50
176
     1
 40
0.0
176
     1
 40
1.0
176
     1
 90
        0
176
     1
 62
    18
420
        0
176
     1
 90
       50
176
     1
 90
        3
176
     1
 62
     5
420
      255
176
     1
290
     0
176
     1
 90
       50
176
     1
 90
       50
176
     1
 90
       50
176
     1
290
     0
176
     1
 90
       50
176
     1
 62
   256
176
     0
 40
1.0
176
     0
 90
        2
176
     1
  1
strokes_ogs.tif
176
     1
290
     0
176
     1
 40
1.0
176
     1
 40
1.0
176
     1
  0
VISUALSTYLE
  5
32
102
{ACAD_REACTORS
330
29
102
}
330
29
100
AcDbVisualStyle
  2
Conceptual
 70
     9
177
     3
291
     0
 70
    58
 90
        3
176
     1
 90
        2
176
     1
 90
        0
176
     1
 90
        0
176
     1
 40
0.6
176
     1
 40
30.0
176
     1
 62
     7
420
 16777215
176
     1
 90
        2
176
     1
 90
        2
176
     1
 62
     7
176
     1
 62
   257
176
     1
 90
        1
176
     1
 90
        1
176
     1
 40
179.0
176
     1
 90
        8
176
     1
 62
     7
176
     1
 40
1.0
176
     1
 90
        1
176
     1
 90
        6
176
     1
 90
        2
176
     1
 62
     7
176
     1
 90
        3
176
     1
 90
        0
176
     1
 90
        0
176
     1
290
     0
176
     1
 90
        1
176
     1
 40
0.0
176
     1
 90
        0
176
     1
290
     0
176
     1
290
     1
176
     1
290
     1
176
     1
290
     0
176
     1
290
     0
176
     1
290
     0
176
     1
290
     0
176
     1
290
     0
176
     1
290
     0
176
     1
 90
       50
176
     1
 40
0.0
176
     1
 40
1.0
176
     1
 90
        0
176
     1
 62
    18
420
        0
176
     1
 90
       50
176
     1
 90
        3
176
     1
 62
     5
420
      255
176
     1
290
     0
176
     1
 90
       50
176
     1
 90
       50
176
     1
 90
       50
176
     1
290
     0
176
     1
 90
       50
176
     1
 62
   256
176
     0
 40
1.0
176
     0
 90
        2
176
     1
  1
strokes_ogs.tif
176
     1
290
     0
176
     1
 40
1.0
176
     1
 40
1.0
176
     1
  0
VISUALSTYLE
  5
34
102
{ACAD_REACTORS
330
29
102
}
330
29
100
AcDbVisualStyle
  2
Dim
 70
    11
177
     3
291
     1
 70
    58
 90
        2
176
     1
 90
        2
176
     1
 90
        0
176
     1
 90
        0
176
     1
 40
0.6
176
     1
 40
30.0
176
     1
 62
     7
420
 16777215
176
     1
 90
        1
176
     1
 90
        4
176
     1
 62
     7
176
     1
 62
   257
176
     1
 90
        1
176
     1
 90
        1
176
     1
 40
1.0
176
     1
 90
        8
176
     1
 62
     7
176
     1
 40
1.0
176
     1
 90
        1
176
     1
 90
        6
176
     1
 90
        2
176
     1
 62
     7
176
     1
 90
        5
176
     1
 90
        0
176
     1
 90
        0
176
     1
290
     0
176
     1
 90
        1
176
     1
 40
-50.0
176
     1
 90
        0
176
     1
290
     0
176
     1
290
     1
176
     1
290
     1
176
     1
290
     0
176
     1
290
     0
176
     1
290
     0
176
     1
290
     0
176
     1
290
     0
176
     1
290
     0
176
     1
 90
       50
176
     1
 40
0.0
176
     1
 40
1.0
176
     1
 90
        0
176
     1
 62
    18
420
        0
176
     1
 90
       50
176
     1
 90
        3
176
     1
 62
     5
420
      255
176
     1
290
     0
176
     1
 90
       50
176
     1
 90
       50
176
     1
 90
       50
176
     1
290
     0
176
     1
 90
       50
176
     1
 62
   256
176
     0
 40
1.0
176
     0
 90
        2
176
     1
  1
strokes_ogs.tif
176
     1
290
     0
176
     1
 40
1.0
176
     1
 40
1.0
176
     1
  0
VISUALSTYLE
  5
41
102
{ACAD_REACTORS
330
29
102
}
330
29
100
AcDbVisualStyle
  2
EdgeColorOff
 70
    22
177
     3
291
     1
 70
    58
 90
        2
176
     0
 90
        2
176
     0
 90
        0
176
     0
 90
        0
176
     0
 40
0.6
176
     0
 40
30.0
176
     0
 62
     7
420
 16777215
176
     0
 90
        1
176
     0
 90
        4
176
     0
 62
     7
176
     0
 62
   257
176
     0
 90
        1
176
     0
 90
        1
176
     0
 40
1.0
176
     0
 90
        8
176
     2
 62
     7
176
     0
 40
1.0
176
     0
 90
        1
176
     0
 90
        6
176
     0
 90
        2
176
     0
 62
     7
176
     0
 90
        5
176
     0
 90
        0
176
     0
 90
        0
176
     0
290
     0
176
     0
 90
        1
176
     0
 40
0.0
176
     0
 90
        0
176
     0
290
     0
176
     0
290
     1
176
     0
290
     1
176
     0
290
     0
176
     0
290
     0
176
     0
290
     0
176
     0
290
     0
176
     0
290
     0
176
     0
290
     0
176
     0
 90
       50
176
     0
 40
0.0
176
     0
 40
1.0
176
     0
 90
        0
176
     0
 62
    18
420
        0
176
     0
 90
       50
176
     0
 90
        3
176
     0
 62
     5
420
      255
176
     0
290
     0
176
     0
 90
       50
176
     0
 90
       50
176
     0
 90
       50
176
     0
290
     0
176
     0
 90
       50
176
     0
 62
   256
176
     0
 40
1.0
176
     0
 90
        2
176
     0
  1
strokes_ogs.tif
176
     0
290
     0
176
     0
 40
1.0
176
     0
 40
1.0
176
     0
  0
VISUALSTYLE
  5
38
102
{ACAD_REACTORS
330
29
102
}
330
29
100
AcDbVisualStyle
  2
Facepattern
 70
    15
177
     3
291
     1
 70
    58
 90
        2
176
     1
 90
        2
176
     1
 90
        0
176
     1
 90
        0
176
     1
 40
0.6
176
     1
 40
30.0
176
     1
 62
     7
420
 16777215
176
     1
 90
        1
176
     1
 90
        4
176
     1
 62
     7
176
     1
 62
   257
176
     1
 90
        1
176
     1
 90
        1
176
     1
 40
1.0
176
     1
 90
        8
176
     1
 62
     7
176
     1
 40
1.0
176
     1
 90
        1
176
     1
 90
        6
176
     1
 90
        2
176
     1
 62
     7
176
     1
 90
        5
176
     1
 90
        0
176
     1
 90
        0
176
     1
290
     0
176
     1
 90
        1
176
     1
 40
0.0
176
     1
 90
        0
176
     1
290
     0
176
     1
290
     1
176
     1
290
     1
176
     1
290
     0
176
     1
290
     0
176
     1
290
     0
176
     1
290
     0
176
     1
290
     0
176
     1
290
     0
176
     1
 90
       50
176
     1
 40
0.0
176
     1
 40
1.0
176
     1
 90
        0
176
     1
 62
    18
420
        0
176
     1
 90
       50
176
     1
 90
        3
176
     1
 62
     5
420
      255
176
     1
290
     0
176
     1
 90
       50
176
     1
 90
       50
176
     1
 90
       50
176
     1
290
     0
176
     1
 90
       50
176
     1
 62
   256
176
     0
 40
1.0
176
     0
 90
        2
176
     1
  1
strokes_ogs.tif
176
     1
290
     0
176
     1
 40
1.0
176
     1
 40
1.0
176
     1
  0
VISUALSTYLE
  5
2A
102
{ACAD_REACTORS
330
29
102
}
330
29
100
AcDbVisualStyle
  2
Flat
 70
     0
177
     3
291
     1
 70
    58
 90
        2
176
     1
 90
        1
176
     1
 90
        1
176
     1
 90
        2
176
     1
 40
0.6
176
     1
 40
30.0
176
     1
 62
     7
420
 16777215
176
     1
 90
        0
176
     1
 90
        0
176
     1
 62
     7
176
     1
 62
   257
176
     1
 90
        1
176
     1
 90
        1
176
     1
 40
1.0
176
     1
 90
        8
176
     1
 62
     7
176
     1
 40
1.0
176
     1
 90
        1
176
     1
 90
        6
176
     1
 90
        2
176
     1
 62
     7
176
     1
 90
        5
176
     1
 90
        0
176
     1
 90
        0
176
     1
290
     0
176
     1
 90
       13
176
     1
 40
0.0
176
     1
 90
        0
176
     1
290
     0
176
     1
290
     1
176
     1
290
     1
176
     1
290
     0
176
     1
290
     0
176
     1
290
     0
176
     1
290
     0
176
     1
290
     0
176
     1
290
     0
176
     1
 90
       50
176
     1
 40
0.0
176
     1
 40
1.0
176
     1
 90
        0
176
     1
 62
    18
420
        0
176
     1
 90
       50
176
     1
 90
        3
176
     1
 62
     5
420
      255
176
     1
290
     0
176
     1
 90
       50
176
     1
 90
       50
176
     1
 90
       50
176
     1
290
     0
176
     1
 90
       50
176
     1
 62
   256
176
     0
 40
1.0
176
     0
 90
        2
176
     1
  1
strokes_ogs.tif
176
     1
290
     0
176
     1
 40
1.0
176
     1
 40
1.0
176
     1
  0
VISUALSTYLE
  5
2B
102
{ACAD_REACTORS
330
29
102
}
330
29
100
AcDbVisualStyle
  2
FlatWithEdges
 70
     1
177
     3
291
     1
 70
    58
 90
        2
176
     1
 90
        1
176
     1
 90
        1
176
     1
 90
        2
176
     1
 40
0.6
176
     1
 40
30.0
176
     1
 62
     7
420
 16777215
176
     1
 90
        1
176
     1
 90
        0
176
     1
 62
     7
176
     1
 62
   257
176
     1
 90
        1
176
     1
 90
        1
176
     1
 40
1.0
176
     1
 90
        0
176
     1
 62
   257
176
     1
 40
1.0
176
     1
 90
        1
176
     1
 90
        6
176
     1
 90
        2
176
     1
 62
     7
176
     1
 90
        5
176
     1
 90
        0
176
     1
 90
        0
176
     1
290
     0
176
     1
 90
       13
176
     1
 40
0.0
176
     1
 90
        0
176
     1
290
     0
176
     1
290
     1
176
     1
290
     1
176
     1
290
     0
176
     1
290
     0
176
     1
290
     0
176
     1
290
     0
176
     1
290
     0
176
     1
290
     0
176
     1
 90
       50
176
     1
 40
0.0
176
     1
 40
1.0
176
     1
 90
        0
176
     1
 62
    18
420
        0
176
     1
 90
       50
176
     1
 90
        3
176
     1
 62
     5
420
      255
176
     1
290
     0
176
     1
 90
       50
176
     1
 90
       50
176
     1
 90
       50
176
     1
290
     0
176
     1
 90
       50
176
     1
 62
   256
176
     0
 40
1.0
176
     0
 90
        2
176
     1
  1
strokes_ogs.tif
176
     1
290
     0
176
     1
 40
1.0
176
     1
 40
1.0
176
     1
  0
VISUALSTYLE
  5
2C
102
{ACAD_REACTORS
330
29
102
}
330
29
100
AcDbVisualStyle
  2
Gouraud
 70
     2
177
     3
291
     1
 70
    58
 90
        2
176
     1
 90
        2
176
     1
 90
        1
176
     1
 90
        2
176
     1
 40
0.6
176
     1
 40
30.0
176
     1
 62
     7
420
 16777215
176
     1
 90
        0
176
     1
 90
        0
176
     1
 62
     7
176
     1
 62
   257
176
     1
 90
        1
176
     1
 90
        1
176
     1
 40
1.0
176
     1
 90
        0
176
     1
 62
     7
176
     1
 40
1.0
176
     1
 90
        1
176
     1
 90
        6
176
     1
 90
        2
176
     1
 62
     7
176
     1
 90
        5
176
     1
 90
        0
176
     1
 90
        0
176
     1
290
     0
176
     1
 90
       13
176
     1
 40
0.0
176
     1
 90
        0
176
     1
290
     0
176
     1
290
     1
176
     1
290
     1
176
     1
290
     0
176
     1
290
     0
176
     1
290
     0
176
     1
290
     0
176
     1
290
     0
176
     1
290
     0
176
     1
 90
       50
176
     1
 40
0.0
176
     1
 40
1.0
176
     1
 90
        0
176
     1
 62
    18
420
        0
176
     1
 90
       50
176
     1
 90
        3
176
     1
 62
     5
420
      255
176
     1
290
     0
176
     1
 90
       50
176
     1
 90
       50
176
     1
 90
       50
176
     1
290
     0
176
     1
 90
       50
176
     1
 62
   256
176
     0
 40
1.0
176
     0
 90
        2
176
     1
  1
strokes_ogs.tif
176
     1
290
     0
176
     1
 40
1.0
176
     1
 40
1.0
176
     1
  0
VISUALSTYLE
  5
2D
102
{ACAD_REACTORS
330
29
102
}
330
29
100
AcDbVisualStyle
  2
GouraudWithEdges
 70
     3
177
     3
291
     1
 70
    58
 90
        2
176
     1
 90
        2
176
     1
 90
        1
176
     1
 90
        2
176
     1
 40
0.6
176
     1
 40
30.0
176
     1
 62
     7
420
 16777215
176
     1
 90
        1
176
     1
 90
        0
176
     1
 62
     7
176
     1
 62
   257
176
     1
 90
        1
176
     1
 90
        1
176
     1
 40
1.0
176
     1
 90
        0
176
     1
 62
   257
176
     1
 40
1.0
176
     1
 90
        1
176
     1
 90
        6
176
     1
 90
        2
176
     1
 62
     7
176
     1
 90
        5
176
     1
 90
        0
176
     1
 90
        0
176
     1
290
     0
176
     1
 90
       13
176
     1
 40
0.0
176
     1
 90
        0
176
     1
290
     0
176
     1
290
     1
176
     1
290
     1
176
     1
290
     0
176
     1
290
     0
176
     1
290
     0
176
     1
290
     0
176
     1
290
     0
176
     1
290
     0
176
     1
 90
       50
176
     1
 40
0.0
176
     1
 40
1.0
176
     1
 90
        0
176
     1
 62
    18
420
        0
176
     1
 90
       50
176
     1
 90
        3
176
     1
 62
     5
420
      255
176
     1
290
     0
176
     1
 90
       50
176
     1
 90
       50
176
     1
 90
       50
176
     1
290
     0
176
     1
 90
       50
176
     1
 62
   256
176
     0
 40
1.0
176
     0
 90
        2
176
     1
  1
strokes_ogs.tif
176
     1
290
     0
176
     1
 40
1.0
176
     1
 40
1.0
176
     1
  0
VISUALSTYLE
  5
31
102
{ACAD_REACTORS
330
29
102
}
330
29
100
AcDbVisualStyle
  2
Hidden
 70
     6
177
     3
291
     0
 70
    58
 90
        1
176
     1
 90
        2
176
     1
 90
        2
176
     1
 90
        0
176
     1
 40
0.6
176
     1
 40
30.0
176
     1
 62
     7
420
 16777215
176
     1
 90
        2
176
     1
 90
        2
176
     1
 62
     7
176
     1
 62
   257
176
     1
 90
        2
176
     1
 90
        1
176
     1
 40
40.0
176
     1
 90
        0
176
     1
 62
   257
176
     1
 40
1.0
176
     1
 90
        1
176
     1
 90
        6
176
     1
 90
        2
176
     1
 62
     7
176
     1
 90
        3
176
     1
 90
        0
176
     1
 90
        0
176
     1
290
     0
176
     1
 90
        1
176
     1
 40
0.0
176
     1
 90
        0
176
     1
290
     0
176
     1
290
     1
176
     1
290
     1
176
     1
290
     0
176
     1
290
     0
176
     1
290
     0
176
     1
290
     0
176
     1
290
     0
176
     1
290
     0
176
     1
 90
       50
176
     1
 40
0.0
176
     1
 40
1.0
176
     1
 90
        0
176
     1
 62
    18
420
        0
176
     1
 90
       50
176
     1
 90
        3
176
     1
 62
     5
420
      255
176
     1
290
     0
176
     1
 90
       50
176
     1
 90
       50
176
     1
 90
       50
176
     1
290
     0
176
     1
 90
       50
176
     1
 62
   256
176
     0
 40
1.0
176
     0
 90
        2
176
     1
  1
strokes_ogs.tif
176
     1
290
     0
176
     1
 40
1.0
176
     1
 40
1.0
176
     1
  0
VISUALSTYLE
  5
3F
102
{ACAD_REACTORS
330
29
102
}
330
29
100
AcDbVisualStyle
  2
JitterOff
 70
    20
177
     3
291
     1
 70
    58
 90
        2
176
     0
 90
        2
176
     0
 90
        0
176
     0
 90
        0
176
     0
 40
0.6
176
     0
 40
30.0
176
     0
 62
     7
420
 16777215
176
     0
 90
        1
176
     0
 90
        4
176
     0
 62
     7
176
     0
 62
   257
176
     0
 90
        1
176
     0
 90
        1
176
     0
 40
1.0
176
     0
 90
       10
176
     2
 62
     7
176
     0
 40
1.0
176
     0
 90
        1
176
     0
 90
        6
176
     0
 90
        2
176
     0
 62
     7
176
     0
 90
        5
176
     0
 90
        0
176
     0
 90
        0
176
     0
290
     0
176
     0
 90
        1
176
     0
 40
0.0
176
     0
 90
        0
176
     0
290
     0
176
     0
290
     1
176
     0
290
     1
176
     0
290
     0
176
     0
290
     0
176
     0
290
     0
176
     0
290
     0
176
     0
290
     0
176
     0
290
     0
176
     0
 90
       50
176
     0
 40
0.0
176
     0
 40
1.0
176
     0
 90
        0
176
     0
 62
    18
420
        0
176
     0
 90
       50
176
     0
 90
        3
176
     0
 62
     5
420
      255
176
     0
290
     0
176
     0
 90
       50
176
     0
 90
       50
176
     0
 90
       50
176
     0
290
     0
176
     0
 90
       50
176
     0
 62
   256
176
     0
 40
1.0
176
     0
 90
        2
176
     0
  1
strokes_ogs.tif
176
     0
290
     0
176
     0
 40
1.0
176
     0
 40
1.0
176
     0
  0
VISUALSTYLE
  5
37
102
{ACAD_REACTORS
330
29
102
}
330
29
100
AcDbVisualStyle
  2
Linepattern
 70
    14
177
     3
291
     1
 70
    58
 90
        2
176
     1
 90
        2
176
     1
 90
        0
176
     1
 90
        0
176
     1
 40
0.6
176
     1
 40
30.0
176
     1
 62
     7
420
 16777215
176
     1
 90
        1
176
     1
 90
        4
176
     1
 62
     7
176
     1
 62
   257
176
     1
 90
        7
176
     1
 90
        7
176
     1
 40
1.0
176
     1
 90
        8
176
     1
 62
     7
176
     1
 40
1.0
176
     1
 90
        1
176
     1
 90
        6
176
     1
 90
        2
176
     1
 62
     7
176
     1
 90
        5
176
     1
 90
        0
176
     1
 90
        0
176
     1
290
     0
176
     1
 90
        1
176
     1
 40
0.0
176
     1
 90
        0
176
     1
290
     0
176
     1
290
     1
176
     1
290
     1
176
     1
290
     0
176
     1
290
     0
176
     1
290
     0
176
     1
290
     0
176
     1
290
     0
176
     1
290
     0
176
     1
 90
       50
176
     1
 40
0.0
176
     1
 40
1.0
176
     1
 90
        0
176
     1
 62
    18
420
        0
176
     1
 90
       50
176
     1
 90
        3
176
     1
 62
     5
420
      255
176
     1
290
     0
176
     1
 90
       50
176
     1
 90
       50
176
     1
 90
       50
176
     1
290
     0
176
     1
 90
       50
176
     1
 62
   256
176
     0
 40
1.0
176
     0
 90
        2
176
     1
  1
strokes_ogs.tif
176
     1
290
     0
176
     1
 40
1.0
176
     1
 40
1.0
176
     1
  0
VISUALSTYLE
  5
40
102
{ACAD_REACTORS
330
29
102
}
330
29
100
AcDbVisualStyle
  2
OverhangOff
 70
    21
177
     3
291
     1
 70
    58
 90
        2
176
     0
 90
        2
176
     0
 90
        0
176
     0
 90
        0
176
     0
 40
0.6
176
     0
 40
30.0
176
     0
 62
     7
420
 16777215
176
     0
 90
        1
176
     0
 90
        4
176
     0
 62
     7
176
     0
 62
   257
176
     0
 90
        1
176
     0
 90
        1
176
     0
 40
1.0
176
     0
 90
        9
176
     2
 62
     7
176
     0
 40
1.0
176
     0
 90
        1
176
     0
 90
        6
176
     0
 90
        2
176
     0
 62
     7
176
     0
 90
        5
176
     0
 90
        0
176
     0
 90
        0
176
     0
290
     0
176
     0
 90
        1
176
     0
 40
0.0
176
     0
 90
        0
176
     0
290
     0
176
     0
290
     1
176
     0
290
     1
176
     0
290
     0
176
     0
290
     0
176
     0
290
     0
176
     0
290
     0
176
     0
290
     0
176
     0
290
     0
176
     0
 90
       50
176
     0
 40
0.0
176
     0
 40
1.0
176
     0
 90
        0
176
     0
 62
    18
420
        0
176
     0
 90
       50
176
     0
 90
        3
176
     0
 62
     5
420
      255
176
     0
290
     0
176
     0
 90
       50
176
     0
 90
       50
176
     0
 90
       50
176
     0
290
     0
176
     0
 90
       50
176
     0
 62
   256
176
     0
 40
1.0
176
     0
 90
        2
176
     0
  1
strokes_ogs.tif
176
     0
290
     0
176
     0
 40
1.0
176
     0
 40
1.0
176
     0
  0
VISUALSTYLE
  5
33
102
{ACAD_REACTORS
330
29
102
}
330
29
100
AcDbVisualStyle
  2
Realistic
 70
     8
177
     3
291
     0
 70
    58
 90
        2
176
     1
 90
        3
176
     1
 90
        0
176
     1
 90
        2
176
     1
 40
0.6
176
     1
 40
30.0
176
     1
 62
     7
420
 16777215
176
     1
 90
        0
176
     1
 90
        0
176
     1
 62
     7
176
     1
 62
   257
176
     1
 90
        1
176
     1
 90
        1
176
     1
 40
1.0
176
     1
 90
        8
176
     1
 62
   257
176
     1
 40
1.0
176
     1
 90
        1
176
     1
 90
        6
176
     1
 90
        2
176
     1
 62
     7
176
     1
 90
        3
176
     1
 90
        0
176
     1
 90
        0
176
     1
290
     0
176
     1
 90
       13
176
     1
 40
0.0
176
     1
 90
        0
176
     1
290
     0
176
     1
290
     1
176
     1
290
     1
176
     1
290
     0
176
     1
290
     0
176
     1
290
     0
176
     1
290
     0
176
     1
290
     0
176
     1
290
     0
176
     1
 90
       50
176
     1
 40
0.0
176
     1
 40
1.0
176
     1
 90
        0
176
     1
 62
    18
420
        0
176
     1
 90
       50
176
     1
 90
        3
176
     1
 62
     5
420
      255
176
     1
290
     0
176
     1
 90
       50
176
     1
 90
       50
176
     1
 90
       50
176
     1
290
     0
176
     1
 90
       50
176
     1
 62
   256
176
     0
 40
1.0
176
     0
 90
        2
176
     1
  1
strokes_ogs.tif
176
     1
290
     0
176
     1
 40
1.0
176
     1
 40
1.0
176
     1
  0
VISUALSTYLE
  5
3E
102
{ACAD_REACTORS
330
29
102
}
330
29
100
AcDbVisualStyle
  2
Shaded
 70
    27
177
     3
291
     0
 70
    58
 90
        2
176
     1
 90
        2
176
     1
 90
        1
176
     1
 90
        2
176
     1
 40
0.6
176
     1
 40
30.0
176
     1
 62
     7
420
 16777215
176
     1
 90
        0
176
     1
 90
        4
176
     1
 62
     7
176
     1
 62
   257
176
     1
 90
        1
176
     1
 90
        1
176
     1
 40
1.0
176
     1
 90
        8
176
     1
 62
   257
176
     1
 40
1.0
176
     1
 90
        1
176
     1
 90
        6
176
     1
 90
        2
176
     1
 62
     8
420
  7895160
176
     1
 90
        3
176
     1
 90
        0
176
     1
 90
        0
176
     1
290
     0
176
     1
 90
        5
176
     1
 40
0.0
176
     1
 90
        0
176
     1
290
     0
176
     1
290
     1
176
     1
290
     1
176
     1
290
     0
176
     1
290
     0
176
     1
290
     0
176
     1
290
     0
176
     1
290
     0
176
     1
290
     0
176
     1
 90
       50
176
     1
 40
0.0
176
     1
 40
1.0
176
     1
 90
        0
176
     1
 62
    18
420
        0
176
     1
 90
       50
176
     1
 90
        3
176
     1
 62
     5
420
      255
176
     1
290
     0
176
     1
 90
       50
176
     1
 90
       50
176
     1
 90
       50
176
     1
290
     0
176
     1
 90
       50
176
     1
 62
   256
176
     0
 40
1.0
176
     0
 90
        2
176
     1
  1
strokes_ogs.tif
176
     1
290
     0
176
     1
 40
1.0
176
     1
 40
1.0
176
     1
  0
VISUALSTYLE
  5
3D
102
{ACAD_REACTORS
330
29
102
}
330
29
100
AcDbVisualStyle
  2
Shaded with edges
 70
    26
177
     3
291
     0
 70
    58
 90
        2
176
     1
 90
        2
176
     1
 90
        1
176
     1
 90
        2
176
     1
 40
0.6
176
     1
 40
30.0
176
     1
 62
     7
420
 16777215
176
     1
 90
        1
176
     1
 90
        2
176
     1
 62
     7
176
     1
 62
   257
176
     1
 90
        2
176
     1
 90
        1
176
     1
 40
1.0
176
     1
 90
        8
176
     1
 62
   257
176
     1
 40
1.0
176
     1
 90
        1
176
     1
 90
        6
176
     1
 90
        2
176
     1
 62
     7
176
     1
 90
        3
176
     1
 90
        0
176
     1
 90
        0
176
     1
290
     0
176
     1
 90
        5
176
     1
 40
0.0
176
     1
 90
        0
176
     1
290
     0
176
     1
290
     1
176
     1
290
     1
176
     1
290
     0
176
     1
290
     0
176
     1
290
     0
176
     1
290
     0
176
     1
290
     0
176
     1
290
     0
176
     1
 90
       50
176
     1
 40
0.0
176
     1
 40
1.0
176
     1
 90
        0
176
     1
 62
    18
420
        0
176
     1
 90
       50
176
     1
 90
        3
176
     1
 62
     5
420
      255
176
     1
290
     0
176
     1
 90
       50
176
     1
 90
       50
176
     1
 90
       50
176
     1
290
     0
176
     1
 90
       50
176
     1
 62
   256
176
     0
 40
1.0
176
     0
 90
        2
176
     1
  1
strokes_ogs.tif
176
     1
290
     0
176
     1
 40
1.0
176
     1
 40
1.0
176
     1
  0
VISUALSTYLE
  5
3A
102
{ACAD_REACTORS
330
29
102
}
330
29
100
AcDbVisualStyle
  2
Shades of Gray
 70
    23
177
     3
291
     0
 70
    58
 90
        2
176
     1
 90
        2
176
     1
 90
        3
176
     1
 90
        0
176
     1
 40
0.6
176
     1
 40
30.0
176
     1
 62
     7
420
 16777215
176
     1
 90
        2
176
     1
 90
        2
176
     1
 62
     7
176
     1
 62
     7
176
     1
 90
        1
176
     1
 90
        1
176
     1
 40
40.0
176
     1
 90
        8
176
     1
 62
     7
176
     1
 40
1.0
176
     1
 90
        1
176
     1
 90
        6
176
     1
 90
        2
176
     1
 62
     7
176
     1
 90
        3
176
     1
 90
        0
176
     1
 90
        0
176
     1
290
     0
176
     1
 90
        1
176
     1
 40
0.0
176
     1
 90
        0
176
     1
290
     0
176
     1
290
     1
176
     1
290
     1
176
     1
290
     0
176
     1
290
     0
176
     1
290
     0
176
     1
290
     0
176
     1
290
     0
176
     1
290
     0
176
     1
 90
       50
176
     1
 40
0.0
176
     1
 40
1.0
176
     1
 90
        0
176
     1
 62
    18
420
        0
176
     1
 90
       50
176
     1
 90
        3
176
     1
 62
     5
420
      255
176
     1
290
     0
176
     1
 90
       50
176
     1
 90
       50
176
     1
 90
       50
176
     1
290
     0
176
     1
 90
       50
176
     1
 62
   256
176
     0
 40
1.0
176
     0
 90
        2
176
     1
  1
strokes_ogs.tif
176
     1
290
     0
176
     1
 40
1.0
176
     1
 40
1.0
176
     1
  0
VISUALSTYLE
  5
3B
102
{ACAD_REACTORS
330
29
102
}
330
29
100
AcDbVisualStyle
  2
Sketchy
 70
    24
177
     3
291
     0
 70
    58
 90
        1
176
     1
 90
        2
176
     1
 90
        2
176
     1
 90
        0
176
     1
 40
0.6
176
     1
 40
30.0
176
     1
 62
     7
420
 16777215
176
     1
 90
        2
176
     1
 90
        2
176
     1
 62
     7
176
     1
 62
     7
176
     1
 90
        1
176
     1
 90
        1
176
     1
 40
40.0
176
     1
 90
       11
176
     1
 62
     7
176
     1
 40
1.0
176
     1
 90
        1
176
     1
 90
        6
176
     1
 90
        2
176
     1
 62
     7
176
     1
 90
        6
176
     1
 90
        0
176
     1
 90
        0
176
     1
290
     0
176
     1
 90
        1
176
     1
 40
0.0
176
     1
 90
        0
176
     1
290
     0
176
     1
290
     1
176
     1
290
     1
176
     1
290
     0
176
     1
290
     0
176
     1
290
     0
176
     1
290
     0
176
     1
290
     0
176
     1
290
     0
176
     1
 90
       50
176
     1
 40
0.0
176
     1
 40
1.0
176
     1
 90
        0
176
     1
 62
    18
420
        0
176
     1
 90
       50
176
     1
 90
        3
176
     1
 62
     5
420
      255
176
     1
290
     0
176
     1
 90
       50
176
     1
 90
       50
176
     1
 90
       50
176
     1
290
     0
176
     1
 90
       50
176
     1
 62
   256
176
     0
 40
1.0
176
     0
 90
        2
176
     1
  1
strokes_ogs.tif
176
     1
290
     0
176
     1
 40
1.0
176
     1
 40
1.0
176
     1
  0
VISUALSTYLE
  5
36
102
{ACAD_REACTORS
330
29
102
}
330
29
100
AcDbVisualStyle
  2
Thicken
 70
    13
177
     3
291
     1
 70
    58
 90
        2
176
     1
 90
        2
176
     1
 90
        0
176
     1
 90
        0
176
     1
 40
0.6
176
     1
 40
30.0
176
     1
 62
     7
420
 16777215
176
     1
 90
        1
176
     1
 90
        4
176
     1
 62
     7
176
     1
 62
   257
176
     1
 90
        1
176
     1
 90
        1
176
     1
 40
1.0
176
     1
 90
       12
176
     1
 62
     7
176
     1
 40
1.0
176
     1
 90
        1
176
     1
 90
        6
176
     1
 90
        2
176
     1
 62
     7
176
     1
 90
        5
176
     1
 90
        0
176
     1
 90
        0
176
     1
290
     0
176
     1
 90
        1
176
     1
 40
0.0
176
     1
 90
        0
176
     1
290
     0
176
     1
290
     1
176
     1
290
     1
176
     1
290
     0
176
     1
290
     0
176
     1
290
     0
176
     1
290
     0
176
     1
290
     0
176
     1
290
     0
176
     1
 90
       50
176
     1
 40
0.0
176
     1
 40
1.0
176
     1
 90
        0
176
     1
 62
    18
420
        0
176
     1
 90
       50
176
     1
 90
        3
176
     1
 62
     5
420
      255
176
     1
290
     0
176
     1
 90
       50
176
     1
 90
       50
176
     1
 90
       50
176
     1
290
     0
176
     1
 90
       50
176
     1
 62
   256
176
     0
 40
1.0
176
     0
 90
        2
176
     1
  1
strokes_ogs.tif
176
     1
290
     0
176
     1
 40
1.0
176
     1
 40
1.0
176
     1
  0
VISUALSTYLE
  5
30
102
{ACAD_REACTORS
330
29
102
}
330
29
100
AcDbVisualStyle
  2
Wireframe
 70
     5
177
     3
291
     0
 70
    58
 90
        0
176
     1
 90
        2
176
     1
 90
        0
176
     1
 90
        0
176
     1
 40
0.6
176
     1
 40
30.0
176
     1
 62
     7
420
 16777215
176
     1
 90
        1
176
     1
 90
        4
176
     1
 62
     7
176
     1
 62
   257
176
     1
 90
        1
176
     1
 90
        1
176
     1
 40
1.0
176
     1
 90
        0
176
     1
 62
   257
176
     1
 40
1.0
176
     1
 90
        1
176
     1
 90
        6
176
     1
 90
        2
176
     1
 62
     7
176
     1
 90
        3
176
     1
 90
        0
176
     1
 90
        0
176
     1
290
     0
176
     1
 90
        1
176
     1
 40
0.0
176
     1
 90
        0
176
     1
290
     0
176
     1
290
     1
176
     1
290
     1
176
     1
290
     0
176
     1
290
     0
176
     1
290
     0
176
     1
290
     0
176
     1
290
     0
176
     1
290
     0
176
     1
 90
       50
176
     1
 40
0.0
176
     1
 40
1.0
176
     1
 90
        0
176
     1
 62
    18
420
        0
176
     1
 90
       50
176
     1
 90
        3
176
     1
 62
     5
420
      255
176
     1
290
     0
176
     1
 90
       50
176
     1
 90
       50
176
     1
 90
       50
176
     1
290
     0
176
     1
 90
       50
176
     1
 62
   256
176
     0
 40
1.0
176
     0
 90
        2
176
     1
  1
strokes_ogs.tif
176
     1
290
     0
176
     1
 40
1.0
176
     1
 40
1.0
176
     1
  0
VISUALSTYLE
  5
3C
102
{ACAD_REACTORS
330
29
102
}
330
29
100
AcDbVisualStyle
  2
X-Ray
 70
    25
177
     3
291
     0
 70
    58
 90
        2
176
     1
 90
        2
176
     1
 90
        1
176
     1
 90
        1
176
     1
 40
0.5
176
     1
 40
30.0
176
     1
 62
     7
420
 16777215
176
     1
 90
        1
176
     1
 90
        0
176
     1
 62
     7
176
     1
 62
   257
176
     1
 90
        1
176
     1
 90
        1
176
     1
 40
1.0
176
     1
 90
        8
176
     1
 62
     7
176
     1
 40
1.0
176
     1
 90
        1
176
     1
 90
        6
176
     1
 90
        2
176
     1
 62
     7
176
     1
 90
        3
176
     1
 90
        0
176
     1
 90
        0
176
     1
290
     0
176
     1
 90
       13
176
     1
 40
0.0
176
     1
 90
        0
176
     1
290
     0
176
     1
290
     1
176
     1
290
     1
176
     1
290
     0
176
     1
290
     0
176
     1
290
     0
176
     1
290
     0
176
     1
290
     0
176
     1
290
     0
176
     1
 90
       50
176
     1
 40
0.0
176
     1
 40
1.0
176
     1
 90
        0
176
     1
 62
    18
420
        0
176
     1
 90
       50
176
     1
 90
        3
176
     1
 62
     5
420
      255
176
     1
290
     0
176
     1
 90
       50
176
     1
 90
       50
176
     1
 90
       50
176
     1
290
     0
176
     1
 90
       50
176
     1
 62
   256
176
     0
 40
1.0
176
     0
 90
        2
176
     1
  1
strokes_ogs.tif
176
     1
290
     0
176
     1
 40
1.0
176
     1
 40
1.0
176
     1
  0
DICTIONARYVAR
  5
307
102
{ACAD_REACTORS
330
302
102
}
330
302
100
DictionaryVariables
280
     0
  1
1:1
  0
DICTIONARYVAR
  5
304
102
{ACAD_REACTORS
330
302
102
}
330
302
100
DictionaryVariables
280
     0
  1
STANDARD
  0
DICTIONARYVAR
  5
303
102
{ACAD_REACTORS
330
302
102
}
330
302
100
DictionaryVariables
280
     0
  1
STANDARD
  0
DICTIONARYVAR
  5
305
102
{ACAD_REACTORS
330
302
102
}
330
302
100
DictionaryVariables
280
     0
  1
Imperial24
  0
DICTIONARYVAR
  5
306
102
{ACAD_REACTORS
330
302
102
}
330
302
100
DictionaryVariables
280
     0
  1
Imperial24
  0
DICTIONARY
  5
1A
330
19
100
AcDbDictionary
280
     1
281
     1
  3
BUMPTILE
360
1C
  3
DIFFUSETILE
360
1B
  3
OPACITYTILE
360
1F
  3
REFLECTIONTILE
360
1E
  3
REFRACTIONTILE
360
20
  3
SPECULARTILE
360
1D
  0
DICTIONARY
  5
12
330
11
100
AcDbDictionary
280
     1
281
     1
  3
BUMPTILE
360
14
  3
DIFFUSETILE
360
13
  3
OPACITYTILE
360
17
  3
REFLECTIONTILE
360
16
  3
REFRACTIONTILE
360
18
  3
SPECULARTILE
360
15
  0
DICTIONARY
  5
22
330
21
100
AcDbDictionary
280
     1
281
     1
  3
BUMPTILE
360
24
  3
DIFFUSETILE
360
23
  3
OPACITYTILE
360
27
  3
REFLECTIONTILE
360
26
  3
REFRACTIONTILE
360
28
  3
SPECULARTILE
360
25
  0
DICTIONARY
  5
308
330
65
100
AcDbDictionary
280
     1
281
     1
  3
ACAD_ROUNDTRIP_2008_TABLESTYLE_CELLSTYLEMAP
360
309
  0
XRECORD
  5
1C
102
{ACAD_REACTORS
330
1A
102
}
330
1A
100
AcDbXrecord
280
     1
270
     1
271
     1
  0
XRECORD
  5
1B
102
{ACAD_REACTORS
330
1A
102
}
330
1A
100
AcDbXrecord
280
     1
270
     1
271
     1
  0
XRECORD
  5
1F
102
{ACAD_REACTORS
330
1A
102
}
330
1A
100
AcDbXrecord
280
     1
270
     1
271
     1
  0
XRECORD
  5
1E
102
{ACAD_REACTORS
330
1A
102
}
330
1A
100
AcDbXrecord
280
     1
270
     1
271
     1
  0
XRECORD
  5
20
102
{ACAD_REACTORS
330
1A
102
}
330
1A
100
AcDbXrecord
280
     1
270
     1
271
     1
  0
XRECORD
  5
1D
102
{ACAD_REACTORS
330
1A
102
}
330
1A
100
AcDbXrecord
280
     1
270
     1
271
     1
  0
XRECORD
  5
14
102
{ACAD_REACTORS
330
12
102
}
330
12
100
AcDbXrecord
280
     1
270
     1
271
     1
  0
XRECORD
  5
13
102
{ACAD_REACTORS
330
12
102
}
330
12
100
AcDbXrecord
280
     1
270
     1
271
     1
  0
XRECORD
  5
17
102
{ACAD_REACTORS
330
12
102
}
330
12
100
AcDbXrecord
280
     1
270
     1
271
     1
  0
XRECORD
  5
16
102
{ACAD_REACTORS
330
12
102
}
330
12
100
AcDbXrecord
280
     1
270
     1
271
     1
  0
XRECORD
  5
18
102
{ACAD_REACTORS
330
12
102
}
330
12
100
AcDbXrecord
280
     1
270
     1
271
     1
  0
XRECORD
  5
15
102
{ACAD_REACTORS
330
12
102
}
330
12
100
AcDbXrecord
280
     1
270
     1
271
     1
  0
XRECORD
  5
24
102
{ACAD_REACTORS
330
22
102
}
330
22
100
AcDbXrecord
280
     1
270
     1
271
     1
  0
XRECORD
  5
23
102
{ACAD_REACTORS
330
22
102
}
330
22
100
AcDbXrecord
280
     1
270
     1
271
     1
  0
XRECORD
  5
27
102
{ACAD_REACTORS
330
22
102
}
330
22
100
AcDbXrecord
280
     1
270
     1
271
     1
  0
XRECORD
  5
26
102
{ACAD_REACTORS
330
22
102
}
330
22
100
AcDbXrecord
280
     1
270
     1
271
     1
  0
XRECORD
  5
28
102
{ACAD_REACTORS
330
22
102
}
330
22
100
AcDbXrecord
280
     1
270
     1
271
     1
  0
XRECORD
  5
25
102
{ACAD_REACTORS
330
22
102
}
330
22
100
AcDbXrecord
280
     1
270
     1
271
     1
  0
CELLSTYLEMAP
  5
309
102
{ACAD_REACTORS
330
308
102
}
330
308
100
AcDbCellStyleMap
 90
        3
300
CELLSTYLE
  1
TABLEFORMAT_BEGIN
 90
        5
170
     1
 91
        0
 92
    32768
 62
   257
 93
        1
300
CONTENTFORMAT
  1
CONTENTFORMAT_BEGIN
 90
        0
 91
        0
 92
      512
 93
        0
300

 40
0.0
140
1.0
 94
        5
 62
     0
340
55
144
0.25
309
CONTENTFORMAT_END
171
     0
 94
        0
309
TABLEFORMAT_END
  1
CELLSTYLE_BEGIN
 90
        1
 91
        1
300
_TITLE
309
CELLSTYLE_END
300
CELLSTYLE
  1
TABLEFORMAT_BEGIN
 90
        5
170
     1
 91
        0
 92
        0
 62
   257
 93
        1
300
CONTENTFORMAT
  1
CONTENTFORMAT_BEGIN
 90
        0
 91
        0
 92
      512
 93
        0
300

 40
0.0
140
1.0
 94
        5
 62
     0
340
55
144
0.18
309
CONTENTFORMAT_END
171
     0
 94
        0
309
TABLEFORMAT_END
  1
CELLSTYLE_BEGIN
 90
        2
 91
        1
300
_HEADER
309
CELLSTYLE_END
300
CELLSTYLE
  1
TABLEFORMAT_BEGIN
 90
        5
170
     1
 91
        0
 92
        0
 62
   257
 93
        1
300
CONTENTFORMAT
  1
CONTENTFORMAT_BEGIN
 90
        0
 91
        0
 92
      512
 93
        0
300

 40
0.0
140
1.0
 94
        2
 62
     0
340
55
144
0.18
309
CONTENTFORMAT_END
171
     0
 94
        0
309
TABLEFORMAT_END
  1
CELLSTYLE_BEGIN
 90
        3
 91
        2
300
_DATA
309
CELLSTYLE_END
  0
ENDSEC
  0
EOF
