  0
SECTION
  2
HEADER
  9
$ACADVER
  1
AC1032
  9
$ACADMAINTVER
 90
      228
  9
$DWGCODEPAGE
  3
ANSI_932
  9
$REQUIREDVERSIONS
160
                 0
  9
$INSBASE
 10
0.0
 20
0.0
 30
0.0
  9
$EXTMIN
 10
1.000000000000000E+20
 20
1.000000000000000E+20
 30
1.000000000000000E+20
  9
$EXTMAX
 10
-1.000000000000000E+20
 20
-1.000000000000000E+20
 30
-1.000000000000000E+20
  9
$LIMMIN
 10
0.0
 20
0.0
  9
$LIMMAX
 10
12.0
 20
9.0
  9
$ORTHOMODE
 70
     0
  9
$REGENMODE
 70
     1
  9
$FILLMODE
 70
     1
  9
$QTEXTMODE
 70
     0
  9
$MIRRTEXT
 70
     0
  9
$LTSCALE
 40
1.0
  9
$ATTMODE
 70
     1
  9
$TEXTSIZE
 40
0.2
  9
$TRACEWID
 40
0.05
  9
$TEXTSTYLE
  7
Standard
  9
$CLAYER
  8
0
  9
$CELTYPE
  6
ByLayer
  9
$CECOLOR
 62
   256
  9
$CELTSCALE
 40
1.0
  9
$DISPSILH
 70
     0
  9
$DIMSCALE
 40
1.0
  9
$DIMASZ
 40
0.18
  9
$DIMEXO
 40
0.0625
  9
$DIMDLI
 40
0.38
  9
$DIMRND
 40
0.0
  9
$DIMDLE
 40
0.0
  9
$DIMEXE
 40
0.18
  9
$DIMTP
 40
0.0
  9
$DIMTM
 40
0.0
  9
$DIMTXT
 40
0.18
  9
$DIMCEN
 40
0.09
  9
$DIMTSZ
 40
0.0
  9
$DIMTOL
 70
     0
  9
$DIMLIM
 70
     0
  9
$DIMTIH
 70
     1
  9
$DIMTOH
 70
     1
  9
$DIMSE1
 70
     0
  9
$DIMSE2
 70
     0
  9
$DIMTAD
 70
     0
  9
$DIMZIN
 70
     0
  9
$DIMBLK
  1

  9
$DIMASO
 70
     1
  9
$DIMSHO
 70
     1
  9
$DIMPOST
  1

  9
$DIMAPOST
  1

  9
$DIMALT
 70
     0
  9
$DIMALTD
 70
     2
  9
$DIMALTF
 40
25.4
  9
$DIMLFAC
 40
1.0
  9
$DIMTOFL
 70
     0
  9
$DIMTVP
 40
0.0
  9
$DIMTIX
 70
     0
  9
$DIMSOXD
 70
     0
  9
$DIMSAH
 70
     0
  9
$DIMBLK1
  1

  9
$DIMBLK2
  1

  9
$DIMSTYLE
  2
Standard
  9
$DIMCLRD
 70
     0
  9
$DIMCLRE
 70
     0
  9
$DIMCLRT
 70
     0
  9
$DIMTFAC
 40
1.0
  9
$DIMGAP
 40
0.09
  9
$DIMJUST
 70
     0
  9
$DIMSD1
 70
     0
  9
$DIMSD2
 70
     0
  9
$DIMTOLJ
 70
     1
  9
$DIMTZIN
 70
     0
  9
$DIMALTZ
 70
     0
  9
$DIMALTTZ
 70
     0
  9
$DIMUPT
 70
     0
  9
$DIMDEC
 70
     4
  9
$DIMTDEC
 70
     4
  9
$DIMALTU
 70
     2
  9
$DIMALTTD
 70
     2
  9
$DIMTXSTY
  7
Standard
  9
$DIMAUNIT
 70
     0
  9
$DIMADEC
 70
     0
  9
$DIMALTRND
 40
0.0
  9
$DIMAZIN
 70
     0
  9
$DIMDSEP
 70
    46
  9
$DIMATFIT
 70
     3
  9
$DIMFRAC
 70
     0
  9
$DIMLDRBLK
  1

  9
$DIMLUNIT
 70
     2
  9
$DIMLWD
 70
    -2
  9
$DIMLWE
 70
    -2
  9
$DIMTMOVE
 70
     0
  9
$DIMFXL
 40
1.0
  9
$DIMFXLON
 70
     0
  9
$DIMJOGANG
 40
0.7853981633974483
  9
$DIMTFILL
 70
     0
  9
$DIMTFILLCLR
 70
     0
  9
$DIMARCSYM
 70
     0
  9
$DIMLTYPE
  6

  9
$DIMLTEX1
  6

  9
$DIMLTEX2
  6

  9
$DIMTXTDIRECTION
 70
     0
  9
$LUNITS
 70
     2
  9
$LUPREC
 70
     4
  9
$SKETCHINC
 40
0.1
  9
$FILLETRAD
 40
0.0
  9
$AUNITS
 70
     0
  9
$AUPREC
 70
     0
  9
$MENU
  1
.
  9
$ELEVATION
 40
0.0
  9
$PELEVATION
 40
0.0
  9
$THICKNESS
 40
0.0
  9
$LIMCHECK
 70
     0
  9
$CHAMFERA
 40
0.0
  9
$CHAMFERB
 40
0.0
  9
$CHAMFERC
 40
0.0
  9
$CHAMFERD
 40
0.0
  9
$SKPOLY
 70
     0
  9
$TDCREATE
 40
2460363.794652778
  9
$TDUCREATE
 40
2460363.419652778
  9
$TDUPDATE
 40
2460363.794652778
  9
$TDUUPDATE
 40
2460363.419652778
  9
$TDINDWG
 40
0.0000000000
  9
$TDUSRTIMER
 40
0.0000000000
  9
$USRTIMER
 70
     1
  9
$ANGBASE
 50
0.0
  9
$ANGDIR
 70
     0
  9
$PDMODE
 70
     0
  9
$PDSIZE
 40
0.0
  9
$PLINEWID
 40
0.0
  9
$SPLFRAME
 70
     0
  9
$SPLINETYPE
 70
     6
  9
$SPLINESEGS
 70
     8
  9
$HANDSEED
  5
324
  9
$SURFTAB1
 70
     6
  9
$SURFTAB2
 70
     6
  9
$SURFTYPE
 70
     6
  9
$SURFU
 70
     6
  9
$SURFV
 70
     6
  9
$UCSBASE
  2

  9
$UCSNAME
  2

  9
$UCSORG
 10
0.0
 20
0.0
 30
0.0
  9
$UCSXDIR
 10
1.0
 20
0.0
 30
0.0
  9
$UCSYDIR
 10
0.0
 20
1.0
 30
0.0
  9
$UCSORTHOREF
  2

  9
$UCSORTHOVIEW
 70
     0
  9
$UCSORGTOP
 10
0.0
 20
0.0
 30
0.0
  9
$UCSORGBOTTOM
 10
0.0
 20
0.0
 30
0.0
  9
$UCSORGLEFT
 10
0.0
 20
0.0
 30
0.0
  9
$UCSORGRIGHT
 10
0.0
 20
0.0
 30
0.0
  9
$UCSORGFRONT
 10
0.0
 20
0.0
 30
0.0
  9
$UCSORGBACK
 10
0.0
 20
0.0
 30
0.0
  9
$PUCSBASE
  2

  9
$PUCSNAME
  2

  9
$PUCSORG
 10
0.0
 20
0.0
 30
0.0
  9
$PUCSXDIR
 10
1.0
 20
0.0
 30
0.0
  9
$PUCSYDIR
 10
0.0
 20
1.0
 30
0.0
  9
$PUCSORTHOREF
  2

  9
$PUCSORTHOVIEW
 70
     0
  9
$PUCSORGTOP
 10
0.0
 20
0.0
 30
0.0
  9
$PUCSORGBOTTOM
 10
0.0
 20
0.0
 30
0.0
  9
$PUCSORGLEFT
 10
0.0
 20
0.0
 30
0.0
  9
$PUCSORGRIGHT
 10
0.0
 20
0.0
 30
0.0
  9
$PUCSORGFRONT
 10
0.0
 20
0.0
 30
0.0
  9
$PUCSORGBACK
 10
0.0
 20
0.0
 30
0.0
  9
$USERI1
 70
     0
  9
$USERI2
 70
     0
  9
$USERI3
 70
     0
  9
$USERI4
 70
     0
  9
$USERI5
 70
     0
  9
$USERR1
 40
0.0
  9
$USERR2
 40
0.0
  9
$USERR3
 40
0.0
  9
$USERR4
 40
0.0
  9
$USERR5
 40
0.0
  9
$WORLDVIEW
 70
     1
  9
$SHADEDGE
 70
     3
  9
$SHADEDIF
 70
    70
  9
$TILEMODE
 70
     1
  9
$MAXACTVP
 70
    64
  9
$PINSBASE
 10
0.0
 20
0.0
 30
0.0
  9
$PLIMCHECK
 70
     0
  9
$PEXTMIN
 10
1.000000000000000E+20
 20
1.000000000000000E+20
 30
1.000000000000000E+20
  9
$PEXTMAX
 10
-1.000000000000000E+20
 20
-1.000000000000000E+20
 30
-1.000000000000000E+20
  9
$PLIMMIN
 10
0.0
 20
0.0
  9
$PLIMMAX
 10
12.0
 20
9.0
  9
$UNITMODE
 70
     0
  9
$VISRETAIN
 70
     1
  9
$PLINEGEN
 70
     0
  9
$PSLTSCALE
 70
     1
  9
$TREEDEPTH
 70
  3020
  9
$CMLSTYLE
  2
Standard
  9
$CMLJUST
 70
     0
  9
$CMLSCALE
 40
1.0
  9
$PROXYGRAPHICS
 70
     1
  9
$MEASUREMENT
 70
     0
  9
$CELWEIGHT
370
    -1
  9
$ENDCAPS
280
     0
  9
$JOINSTYLE
280
     0
  9
$LWDISPLAY
290
     1
  9
$INSUNITS
 70
     4
  9
$HYPERLINKBASE
  1

  9
$STYLESHEET
  1

  9
$XEDIT
290
     1
  9
$CEPSNTYPE
380
     0
  9
$PSTYLEMODE
290
     1
  9
$FINGERPRINTGUID
  2
{A69D4D92-F1D4-154E-9E04-2D33FBF1FDC5}
  9
$VERSIONGUID
  2
{2595158F-3CFE-3C4A-9ACC-026C616BEDF6}
  9
$EXTNAMES
290
     1
  9
$PSVPSCALE
 40
0.0
  9
$OLESTARTUP
290
     0
  9
$SORTENTS
280
   127
  9
$INDEXCTL
280
     0
  9
$HIDETEXT
280
     1
  9
$XCLIPFRAME
280
     2
  9
$HALOGAP
280
     0
  9
$OBSCOLOR
 70
   257
  9
$OBSLTYPE
280
     0
  9
$INTERSECTIONDISPLAY
280
     0
  9
$INTERSECTIONCOLOR
 70
   257
  9
$DIMASSOC
280
     2
  9
$PROJECTNAME
  1

  9
$CAMERADISPLAY
290
     0
  9
$LENSLENGTH
 40
50.0
  9
$CAMERAHEIGHT
 40
0.0
  9
$STEPSPERSEC
 40
2.0
  9
$STEPSIZE
 40
6.0
  9
$3DDWFPREC
 40
2.0
  9
$PSOLWIDTH
 40
0.25
  9
$PSOLHEIGHT
 40
4.0
  9
$LOFTANG1
 40
1.570796326794896
  9
$LOFTANG2
 40
1.570796326794896
  9
$LOFTMAG1
 40
0.0
  9
$LOFTMAG2
 40
0.0
  9
$LOFTPARAM
 70
     7
  9
$LOFTNORMALS
280
     1
  9
$LATITUDE
 40
37.795
  9
$LONGITUDE
 40
-122.394
  9
$NORTHDIRECTION
 40
0.0
  9
$TIMEZONE
 70
 -8000
  9
$LIGHTGLYPHDISPLAY
280
     1
  9
$TILEMODELIGHTSYNCH
280
     1
  9
$CMATERIAL
347
11
  9
$SOLIDHIST
280
     0
  9
$SHOWHIST
280
     1
  9
$DWFFRAME
280
     2
  9
$DGNFRAME
280
     0
  9
$REALWORLDSCALE
290
     1
  9
$INTERFERECOLOR
 62
     1
  9
$INTERFEREOBJVS
345
33
  9
$INTERFEREVPVS
346
30
  9
$CSHADOW
280
     0
  9
$SHADOWPLANELOCATION
 40
0.0
  0
ENDSEC
  0
SECTION
  2
CLASSES
  0
CLASS
  1
ACDBDICTIONARYWDFLT
  2
AcDbDictionaryWithDefault
  3
ObjectDBX Classes
 90
        0
 91
        1
280
     0
281
     0
  0
CLASS
  1
MATERIAL
  2
AcDbMaterial
  3
ObjectDBX Classes
 90
     1153
 91
        3
280
     0
281
     0
  0
CLASS
  1
VISUALSTYLE
  2
AcDbVisualStyle
  3
ObjectDBX Classes
 90
     4095
 91
       24
280
     0
281
     0
  0
CLASS
  1
SCALE
  2
AcDbScale
  3
ObjectDBX Classes
 90
     1153
 91
       17
280
     0
281
     0
  0
CLASS
  1
TABLESTYLE
  2
AcDbTableStyle
  3
ObjectDBX Classes
 90
     4095
 91
        1
280
     0
281
     0
  0
CLASS
  1
MLEADERSTYLE
  2
AcDbMLeaderStyle
  3
ACDB_MLEADERSTYLE_CLASS
 90
     4095
 91
        1
280
     0
281
     0
  0
CLASS
  1
ACDBSECTIONVIEWSTYLE
  2
AcDbSectionViewStyle
  3
ObjectDBX Classes
 90
     1025
 91
        1
280
     0
281
     0
  0
CLASS
  1
ACDBDETAILVIEWSTYLE
  2
AcDbDetailViewStyle
  3
ObjectDBX Classes
 90
     1025
 91
        1
280
     0
281
     0
  0
CLASS
  1
DICTIONARYVAR
  2
AcDbDictionaryVar
  3
ObjectDBX Classes
 90
        0
 91
        5
280
     0
281
     0
  0
CLASS
  1
CELLSTYLEMAP
  2
AcDbCellStyleMap
  3
ObjectDBX Classes
 90
     1152
 91
        1
280
     0
281
     0
  0
ENDSEC
  0
SECTION
  2
TABLES
  0
TABLE
  2
VPORT
  5
8
330
0
100
AcDbSymbolTable
 70
     1
  0
VPORT
  5
57
330
8
100
AcDbSymbolTableRecord
100
AcDbViewportTableRecord
  2
*Active
 70
     0
 10
0.0
 20
0.0
 11
1.0
 21
1.0
 12
0.0
 22
0.0
 13
0.0
 23
0.0
 14
1.0
 24
1.0
 15
0.0
 25
0.0
 16
0.0
 26
0.0
 36
1.0
 17
338.666666582
 27
190.4999999523751
 37
0.0
 40
388.8749999028449
 41
1.776612021857632
 42
50.0
 43
0.0
 44
0.0
 50
0.0
 51
0.0
 71
     0
 72
   100
 73
     1
 74
     1
 75
     0
 76
     0
 77
     0
 78
     0
281
     0
 65
     1
110
0.0
120
0.0
130
0.0
111
1.0
121
0.0
131
0.0
112
0.0
122
1.0
132
0.0
 79
     0
146
0.0
 60
     3
 61
     5
292
     1
282
     1
141
0.0
142
0.0
 63
   250
421
  3355443
  0
ENDTAB
  0
TABLE
  2
LTYPE
  5
5
330
0
100
AcDbSymbolTable
 70
   282
  0
LTYPE
  5
5B
330
5
100
AcDbSymbolTableRecord
100
AcDbLinetypeTableRecord
  2
ByBlock
 70
     0
  3

 72
    65
 73
     0
 40
0.0
  0
LTYPE
  5
5C
330
5
100
AcDbSymbolTableRecord
100
AcDbLinetypeTableRecord
  2
ByLayer
 70
     0
  3

 72
    65
 73
     0
 40
0.0
  0
LTYPE
  5
5D
330
5
100
AcDbSymbolTableRecord
100
AcDbLinetypeTableRecord
  2
Continuous
 70
     0
  3
Solid line
 72
    65
 73
     0
 40
0.0
  0
LTYPE
  5
E5
330
5
100
AcDbSymbolTableRecord
100
AcDbLinetypeTableRecord
  2
AI-Linetype-0
 70
     0
  3
Adobe Illustrator Linetype No. 0
 72
    65
 73
     6
 40
362.8571366144724
 49
181.4285683072362
 74
     0
 49
-45.35714207680904
 74
     0
 49
22.67857103840452
 74
     0
 49
-45.35714207680904
 74
     0
 49
22.67857103840452
 74
     0
 49
-45.35714207680904
 74
     0
  0
LTYPE
  5
E7
330
5
100
AcDbSymbolTableRecord
100
AcDbLinetypeTableRecord
  2
AI-Linetype-1
 70
     0
  3
Adobe Illustrator Linetype No. 1
 72
    65
 73
     6
 40
362.8571366144724
 49
181.4285683072362
 74
     0
 49
-45.35714207680904
 74
     0
 49
22.67857103840452
 74
     0
 49
-45.35714207680904
 74
     0
 49
22.67857103840452
 74
     0
 49
-45.35714207680904
 74
     0
  0
LTYPE
  5
E9
330
5
100
AcDbSymbolTableRecord
100
AcDbLinetypeTableRecord
  2
AI-Linetype-2
 70
     0
  3
Adobe Illustrator Linetype No. 2
 72
    65
 73
     6
 40
362.8571366144724
 49
181.4285683072362
 74
     0
 49
-45.35714207680904
 74
     0
 49
22.67857103840452
 74
     0
 49
-45.35714207680904
 74
     0
 49
22.67857103840452
 74
     0
 49
-45.35714207680904
 74
     0
  0
LTYPE
  5
EB
330
5
100
AcDbSymbolTableRecord
100
AcDbLinetypeTableRecord
  2
AI-Linetype-3
 70
     0
  3
Adobe Illustrator Linetype No. 3
 72
    65
 73
     6
 40
362.8571366144724
 49
181.4285683072362
 74
     0
 49
-45.35714207680904
 74
     0
 49
22.67857103840452
 74
     0
 49
-45.35714207680904
 74
     0
 49
22.67857103840452
 74
     0
 49
-45.35714207680904
 74
     0
  0
LTYPE
  5
ED
330
5
100
AcDbSymbolTableRecord
100
AcDbLinetypeTableRecord
  2
AI-Linetype-4
 70
     0
  3
Adobe Illustrator Linetype No. 4
 72
    65
 73
     6
 40
362.8571366144724
 49
181.4285683072362
 74
     0
 49
-45.35714207680904
 74
     0
 49
22.67857103840452
 74
     0
 49
-45.35714207680904
 74
     0
 49
22.67857103840452
 74
     0
 49
-45.35714207680904
 74
     0
  0
LTYPE
  5
EF
330
5
100
AcDbSymbolTableRecord
100
AcDbLinetypeTableRecord
  2
AI-Linetype-5
 70
     0
  3
Adobe Illustrator Linetype No. 5
 72
    65
 73
     6
 40
362.8571366144724
 49
181.4285683072362
 74
     0
 49
-45.35714207680904
 74
     0
 49
22.67857103840452
 74
     0
 49
-45.35714207680904
 74
     0
 49
22.67857103840452
 74
     0
 49
-45.35714207680904
 74
     0
  0
LTYPE
  5
F1
330
5
100
AcDbSymbolTableRecord
100
AcDbLinetypeTableRecord
  2
AI-Linetype-6
 70
     0
  3
Adobe Illustrator Linetype No. 6
 72
    65
 73
     6
 40
362.8571366144724
 49
181.4285683072362
 74
     0
 49
-45.35714207680904
 74
     0
 49
22.67857103840452
 74
     0
 49
-45.35714207680904
 74
     0
 49
22.67857103840452
 74
     0
 49
-45.35714207680904
 74
     0
  0
LTYPE
  5
F3
330
5
100
AcDbSymbolTableRecord
100
AcDbLinetypeTableRecord
  2
AI-Linetype-7
 70
     0
  3
Adobe Illustrator Linetype No. 7
 72
    65
 73
     6
 40
362.8571366144724
 49
181.4285683072362
 74
     0
 49
-45.35714207680904
 74
     0
 49
22.67857103840452
 74
     0
 49
-45.35714207680904
 74
     0
 49
22.67857103840452
 74
     0
 49
-45.35714207680904
 74
     0
  0
LTYPE
  5
F5
330
5
100
AcDbSymbolTableRecord
100
AcDbLinetypeTableRecord
  2
AI-Linetype-8
 70
     0
  3
Adobe Illustrator Linetype No. 8
 72
    65
 73
     6
 40
362.8571366144724
 49
181.4285683072362
 74
     0
 49
-45.35714207680904
 74
     0
 49
22.67857103840452
 74
     0
 49
-45.35714207680904
 74
     0
 49
22.67857103840452
 74
     0
 49
-45.35714207680904
 74
     0
  0
LTYPE
  5
F7
330
5
100
AcDbSymbolTableRecord
100
AcDbLinetypeTableRecord
  2
AI-Linetype-9
 70
     0
  3
Adobe Illustrator Linetype No. 9
 72
    65
 73
     6
 40
362.8571366144724
 49
181.4285683072362
 74
     0
 49
-45.35714207680904
 74
     0
 49
22.67857103840452
 74
     0
 49
-45.35714207680904
 74
     0
 49
22.67857103840452
 74
     0
 49
-45.35714207680904
 74
     0
  0
LTYPE
  5
F9
330
5
100
AcDbSymbolTableRecord
100
AcDbLinetypeTableRecord
  2
AI-Linetype-10
 70
     0
  3
Adobe Illustrator Linetype No. 10
 72
    65
 73
     6
 40
362.8571366144724
 49
181.4285683072362
 74
     0
 49
-45.35714207680904
 74
     0
 49
22.67857103840452
 74
     0
 49
-45.35714207680904
 74
     0
 49
22.67857103840452
 74
     0
 49
-45.35714207680904
 74
     0
  0
LTYPE
  5
FB
330
5
100
AcDbSymbolTableRecord
100
AcDbLinetypeTableRecord
  2
AI-Linetype-11
 70
     0
  3
Adobe Illustrator Linetype No. 11
 72
    65
 73
     6
 40
362.8571366144724
 49
181.4285683072362
 74
     0
 49
-45.35714207680904
 74
     0
 49
22.67857103840452
 74
     0
 49
-45.35714207680904
 74
     0
 49
22.67857103840452
 74
     0
 49
-45.35714207680904
 74
     0
  0
LTYPE
  5
FD
330
5
100
AcDbSymbolTableRecord
100
AcDbLinetypeTableRecord
  2
AI-Linetype-12
 70
     0
  3
Adobe Illustrator Linetype No. 12
 72
    65
 73
     6
 40
362.8571366144724
 49
181.4285683072362
 74
     0
 49
-45.35714207680904
 74
     0
 49
22.67857103840452
 74
     0
 49
-45.35714207680904
 74
     0
 49
22.67857103840452
 74
     0
 49
-45.35714207680904
 74
     0
  0
LTYPE
  5
FF
330
5
100
AcDbSymbolTableRecord
100
AcDbLinetypeTableRecord
  2
AI-Linetype-13
 70
     0
  3
Adobe Illustrator Linetype No. 13
 72
    65
 73
     6
 40
362.8571366144724
 49
181.4285683072362
 74
     0
 49
-45.35714207680904
 74
     0
 49
22.67857103840452
 74
     0
 49
-45.35714207680904
 74
     0
 49
22.67857103840452
 74
     0
 49
-45.35714207680904
 74
     0
  0
LTYPE
  5
101
330
5
100
AcDbSymbolTableRecord
100
AcDbLinetypeTableRecord
  2
AI-Linetype-14
 70
     0
  3
Adobe Illustrator Linetype No. 14
 72
    65
 73
     6
 40
362.8571366144724
 49
181.4285683072362
 74
     0
 49
-45.35714207680904
 74
     0
 49
22.67857103840452
 74
     0
 49
-45.35714207680904
 74
     0
 49
22.67857103840452
 74
     0
 49
-45.35714207680904
 74
     0
  0
LTYPE
  5
103
330
5
100
AcDbSymbolTableRecord
100
AcDbLinetypeTableRecord
  2
AI-Linetype-15
 70
     0
  3
Adobe Illustrator Linetype No. 15
 72
    65
 73
     6
 40
362.8571366144724
 49
181.4285683072362
 74
     0
 49
-45.35714207680904
 74
     0
 49
22.67857103840452
 74
     0
 49
-45.35714207680904
 74
     0
 49
22.67857103840452
 74
     0
 49
-45.35714207680904
 74
     0
  0
LTYPE
  5
105
330
5
100
AcDbSymbolTableRecord
100
AcDbLinetypeTableRecord
  2
AI-Linetype-16
 70
     0
  3
Adobe Illustrator Linetype No. 16
 72
    65
 73
     6
 40
362.8571366144724
 49
181.4285683072362
 74
     0
 49
-45.35714207680904
 74
     0
 49
22.67857103840452
 74
     0
 49
-45.35714207680904
 74
     0
 49
22.67857103840452
 74
     0
 49
-45.35714207680904
 74
     0
  0
LTYPE
  5
107
330
5
100
AcDbSymbolTableRecord
100
AcDbLinetypeTableRecord
  2
AI-Linetype-17
 70
     0
  3
Adobe Illustrator Linetype No. 17
 72
    65
 73
     6
 40
362.8571366144724
 49
181.4285683072362
 74
     0
 49
-45.35714207680904
 74
     0
 49
22.67857103840452
 74
     0
 49
-45.35714207680904
 74
     0
 49
22.67857103840452
 74
     0
 49
-45.35714207680904
 74
     0
  0
LTYPE
  5
109
330
5
100
AcDbSymbolTableRecord
100
AcDbLinetypeTableRecord
  2
AI-Linetype-18
 70
     0
  3
Adobe Illustrator Linetype No. 18
 72
    65
 73
     6
 40
362.8571366144724
 49
181.4285683072362
 74
     0
 49
-45.35714207680904
 74
     0
 49
22.67857103840452
 74
     0
 49
-45.35714207680904
 74
     0
 49
22.67857103840452
 74
     0
 49
-45.35714207680904
 74
     0
  0
LTYPE
  5
10B
330
5
100
AcDbSymbolTableRecord
100
AcDbLinetypeTableRecord
  2
AI-Linetype-19
 70
     0
  3
Adobe Illustrator Linetype No. 19
 72
    65
 73
     6
 40
362.8571366144724
 49
181.4285683072362
 74
     0
 49
-45.35714207680904
 74
     0
 49
22.67857103840452
 74
     0
 49
-45.35714207680904
 74
     0
 49
22.67857103840452
 74
     0
 49
-45.35714207680904
 74
     0
  0
LTYPE
  5
10D
330
5
100
AcDbSymbolTableRecord
100
AcDbLinetypeTableRecord
  2
AI-Linetype-20
 70
     0
  3
Adobe Illustrator Linetype No. 20
 72
    65
 73
     6
 40
362.8571366144724
 49
181.4285683072362
 74
     0
 49
-45.35714207680904
 74
     0
 49
22.67857103840452
 74
     0
 49
-45.35714207680904
 74
     0
 49
22.67857103840452
 74
     0
 49
-45.35714207680904
 74
     0
  0
LTYPE
  5
10F
330
5
100
AcDbSymbolTableRecord
100
AcDbLinetypeTableRecord
  2
AI-Linetype-21
 70
     0
  3
Adobe Illustrator Linetype No. 21
 72
    65
 73
     6
 40
362.8571366144724
 49
181.4285683072362
 74
     0
 49
-45.35714207680904
 74
     0
 49
22.67857103840452
 74
     0
 49
-45.35714207680904
 74
     0
 49
22.67857103840452
 74
     0
 49
-45.35714207680904
 74
     0
  0
LTYPE
  5
111
330
5
100
AcDbSymbolTableRecord
100
AcDbLinetypeTableRecord
  2
AI-Linetype-22
 70
     0
  3
Adobe Illustrator Linetype No. 22
 72
    65
 73
     6
 40
362.8571366144724
 49
181.4285683072362
 74
     0
 49
-45.35714207680904
 74
     0
 49
22.67857103840452
 74
     0
 49
-45.35714207680904
 74
     0
 49
22.67857103840452
 74
     0
 49
-45.35714207680904
 74
     0
  0
LTYPE
  5
113
330
5
100
AcDbSymbolTableRecord
100
AcDbLinetypeTableRecord
  2
AI-Linetype-23
 70
     0
  3
Adobe Illustrator Linetype No. 23
 72
    65
 73
     6
 40
362.8571366144724
 49
181.4285683072362
 74
     0
 49
-45.35714207680904
 74
     0
 49
22.67857103840452
 74
     0
 49
-45.35714207680904
 74
     0
 49
22.67857103840452
 74
     0
 49
-45.35714207680904
 74
     0
  0
LTYPE
  5
115
330
5
100
AcDbSymbolTableRecord
100
AcDbLinetypeTableRecord
  2
AI-Linetype-24
 70
     0
  3
Adobe Illustrator Linetype No. 24
 72
    65
 73
     6
 40
362.8571366144724
 49
181.4285683072362
 74
     0
 49
-45.35714207680904
 74
     0
 49
22.67857103840452
 74
     0
 49
-45.35714207680904
 74
     0
 49
22.67857103840452
 74
     0
 49
-45.35714207680904
 74
     0
  0
LTYPE
  5
117
330
5
100
AcDbSymbolTableRecord
100
AcDbLinetypeTableRecord
  2
AI-Linetype-25
 70
     0
  3
Adobe Illustrator Linetype No. 25
 72
    65
 73
     6
 40
362.8571366144724
 49
181.4285683072362
 74
     0
 49
-45.35714207680904
 74
     0
 49
22.67857103840452
 74
     0
 49
-45.35714207680904
 74
     0
 49
22.67857103840452
 74
     0
 49
-45.35714207680904
 74
     0
  0
LTYPE
  5
119
330
5
100
AcDbSymbolTableRecord
100
AcDbLinetypeTableRecord
  2
AI-Linetype-26
 70
     0
  3
Adobe Illustrator Linetype No. 26
 72
    65
 73
     6
 40
362.8571366144724
 49
181.4285683072362
 74
     0
 49
-45.35714207680904
 74
     0
 49
22.67857103840452
 74
     0
 49
-45.35714207680904
 74
     0
 49
22.67857103840452
 74
     0
 49
-45.35714207680904
 74
     0
  0
LTYPE
  5
11B
330
5
100
AcDbSymbolTableRecord
100
AcDbLinetypeTableRecord
  2
AI-Linetype-27
 70
     0
  3
Adobe Illustrator Linetype No. 27
 72
    65
 73
     6
 40
362.8571366144724
 49
181.4285683072362
 74
     0
 49
-45.35714207680904
 74
     0
 49
22.67857103840452
 74
     0
 49
-45.35714207680904
 74
     0
 49
22.67857103840452
 74
     0
 49
-45.35714207680904
 74
     0
  0
LTYPE
  5
11D
330
5
100
AcDbSymbolTableRecord
100
AcDbLinetypeTableRecord
  2
AI-Linetype-28
 70
     0
  3
Adobe Illustrator Linetype No. 28
 72
    65
 73
     6
 40
362.8571366144724
 49
181.4285683072362
 74
     0
 49
-45.35714207680904
 74
     0
 49
22.67857103840452
 74
     0
 49
-45.35714207680904
 74
     0
 49
22.67857103840452
 74
     0
 49
-45.35714207680904
 74
     0
  0
LTYPE
  5
120
330
5
100
AcDbSymbolTableRecord
100
AcDbLinetypeTableRecord
  2
AI-Linetype-29
 70
     0
  3
Adobe Illustrator Linetype No. 29
 72
    65
 73
     4
 40
240.3928474222652
 49
226.7857050010835
 74
     0
 49
-4.535714140393883
 74
     0
 49
4.535714140393883
 74
     0
 49
-4.535714140393883
 74
     0
  0
LTYPE
  5
122
330
5
100
AcDbSymbolTableRecord
100
AcDbLinetypeTableRecord
  2
AI-Linetype-30
 70
     0
  3
Adobe Illustrator Linetype No. 30
 72
    65
 73
     4
 40
240.3928474222652
 49
226.7857050010835
 74
     0
 49
-4.535714140393883
 74
     0
 49
4.535714140393883
 74
     0
 49
-4.535714140393883
 74
     0
  0
LTYPE
  5
124
330
5
100
AcDbSymbolTableRecord
100
AcDbLinetypeTableRecord
  2
AI-Linetype-31
 70
     0
  3
Adobe Illustrator Linetype No. 31
 72
    65
 73
     4
 40
240.3928474222652
 49
226.7857050010835
 74
     0
 49
-4.535714140393883
 74
     0
 49
4.535714140393883
 74
     0
 49
-4.535714140393883
 74
     0
  0
LTYPE
  5
126
330
5
100
AcDbSymbolTableRecord
100
AcDbLinetypeTableRecord
  2
AI-Linetype-32
 70
     0
  3
Adobe Illustrator Linetype No. 32
 72
    65
 73
     4
 40
240.3928474222652
 49
226.7857050010835
 74
     0
 49
-4.535714140393883
 74
     0
 49
4.535714140393883
 74
     0
 49
-4.535714140393883
 74
     0
  0
LTYPE
  5
12C
330
5
100
AcDbSymbolTableRecord
100
AcDbLinetypeTableRecord
  2
AI-Linetype-33
 70
     0
  3
Adobe Illustrator Linetype No. 33
 72
    65
 73
     6
 40
45.35714174037394
 49
22.67857103840452
 74
     0
 49
-4.535714140393883
 74
     0
 49
4.535714140393883
 74
     0
 49
-4.535714140393883
 74
     0
 49
4.535714140393883
 74
     0
 49
-4.535714140393883
 74
     0
  0
LTYPE
  5
12E
330
5
100
AcDbSymbolTableRecord
100
AcDbLinetypeTableRecord
  2
AI-Linetype-34
 70
     0
  3
Adobe Illustrator Linetype No. 34
 72
    65
 73
     6
 40
45.35714174037394
 49
22.67857103840452
 74
     0
 49
-4.535714140393883
 74
     0
 49
4.535714140393883
 74
     0
 49
-4.535714140393883
 74
     0
 49
4.535714140393883
 74
     0
 49
-4.535714140393883
 74
     0
  0
LTYPE
  5
130
330
5
100
AcDbSymbolTableRecord
100
AcDbLinetypeTableRecord
  2
AI-Linetype-35
 70
     0
  3
Adobe Illustrator Linetype No. 35
 72
    65
 73
     6
 40
45.35714174037394
 49
22.67857103840452
 74
     0
 49
-4.535714140393883
 74
     0
 49
4.535714140393883
 74
     0
 49
-4.535714140393883
 74
     0
 49
4.535714140393883
 74
     0
 49
-4.535714140393883
 74
     0
  0
LTYPE
  5
132
330
5
100
AcDbSymbolTableRecord
100
AcDbLinetypeTableRecord
  2
AI-Linetype-36
 70
     0
  3
Adobe Illustrator Linetype No. 36
 72
    65
 73
     6
 40
45.35714174037394
 49
22.67857103840452
 74
     0
 49
-4.535714140393883
 74
     0
 49
4.535714140393883
 74
     0
 49
-4.535714140393883
 74
     0
 49
4.535714140393883
 74
     0
 49
-4.535714140393883
 74
     0
  0
LTYPE
  5
134
330
5
100
AcDbSymbolTableRecord
100
AcDbLinetypeTableRecord
  2
AI-Linetype-37
 70
     0
  3
Adobe Illustrator Linetype No. 37
 72
    65
 73
     6
 40
45.35714174037394
 49
22.67857103840452
 74
     0
 49
-4.535714140393883
 74
     0
 49
4.535714140393883
 74
     0
 49
-4.535714140393883
 74
     0
 49
4.535714140393883
 74
     0
 49
-4.535714140393883
 74
     0
  0
LTYPE
  5
136
330
5
100
AcDbSymbolTableRecord
100
AcDbLinetypeTableRecord
  2
AI-Linetype-38
 70
     0
  3
Adobe Illustrator Linetype No. 38
 72
    65
 73
     6
 40
45.35714174037394
 49
22.67857103840452
 74
     0
 49
-4.535714140393883
 74
     0
 49
4.535714140393883
 74
     0
 49
-4.535714140393883
 74
     0
 49
4.535714140393883
 74
     0
 49
-4.535714140393883
 74
     0
  0
LTYPE
  5
138
330
5
100
AcDbSymbolTableRecord
100
AcDbLinetypeTableRecord
  2
AI-Linetype-39
 70
     0
  3
Adobe Illustrator Linetype No. 39
 72
    65
 73
     6
 40
45.35714174037394
 49
22.67857103840452
 74
     0
 49
-4.535714140393883
 74
     0
 49
4.535714140393883
 74
     0
 49
-4.535714140393883
 74
     0
 49
4.535714140393883
 74
     0
 49
-4.535714140393883
 74
     0
  0
LTYPE
  5
13A
330
5
100
AcDbSymbolTableRecord
100
AcDbLinetypeTableRecord
  2
AI-Linetype-40
 70
     0
  3
Adobe Illustrator Linetype No. 40
 72
    65
 73
     6
 40
45.35714174037394
 49
22.67857103840452
 74
     0
 49
-4.535714140393883
 74
     0
 49
4.535714140393883
 74
     0
 49
-4.535714140393883
 74
     0
 49
4.535714140393883
 74
     0
 49
-4.535714140393883
 74
     0
  0
LTYPE
  5
13C
330
5
100
AcDbSymbolTableRecord
100
AcDbLinetypeTableRecord
  2
AI-Linetype-41
 70
     0
  3
Adobe Illustrator Linetype No. 41
 72
    65
 73
     6
 40
45.35714174037394
 49
22.67857103840452
 74
     0
 49
-4.535714140393883
 74
     0
 49
4.535714140393883
 74
     0
 49
-4.535714140393883
 74
     0
 49
4.535714140393883
 74
     0
 49
-4.535714140393883
 74
     0
  0
LTYPE
  5
13E
330
5
100
AcDbSymbolTableRecord
100
AcDbLinetypeTableRecord
  2
AI-Linetype-42
 70
     0
  3
Adobe Illustrator Linetype No. 42
 72
    65
 73
     6
 40
45.35714174037394
 49
22.67857103840452
 74
     0
 49
-4.535714140393883
 74
     0
 49
4.535714140393883
 74
     0
 49
-4.535714140393883
 74
     0
 49
4.535714140393883
 74
     0
 49
-4.535714140393883
 74
     0
  0
LTYPE
  5
140
330
5
100
AcDbSymbolTableRecord
100
AcDbLinetypeTableRecord
  2
AI-Linetype-43
 70
     0
  3
Adobe Illustrator Linetype No. 43
 72
    65
 73
     6
 40
45.35714174037394
 49
22.67857103840452
 74
     0
 49
-4.535714140393883
 74
     0
 49
4.535714140393883
 74
     0
 49
-4.535714140393883
 74
     0
 49
4.535714140393883
 74
     0
 49
-4.535714140393883
 74
     0
  0
LTYPE
  5
142
330
5
100
AcDbSymbolTableRecord
100
AcDbLinetypeTableRecord
  2
AI-Linetype-44
 70
     0
  3
Adobe Illustrator Linetype No. 44
 72
    65
 73
     6
 40
45.35714174037394
 49
22.67857103840452
 74
     0
 49
-4.535714140393883
 74
     0
 49
4.535714140393883
 74
     0
 49
-4.535714140393883
 74
     0
 49
4.535714140393883
 74
     0
 49
-4.535714140393883
 74
     0
  0
LTYPE
  5
144
330
5
100
AcDbSymbolTableRecord
100
AcDbLinetypeTableRecord
  2
AI-Linetype-45
 70
     0
  3
Adobe Illustrator Linetype No. 45
 72
    65
 73
     6
 40
45.35714174037394
 49
22.67857103840452
 74
     0
 49
-4.535714140393883
 74
     0
 49
4.535714140393883
 74
     0
 49
-4.535714140393883
 74
     0
 49
4.535714140393883
 74
     0
 49
-4.535714140393883
 74
     0
  0
LTYPE
  5
146
330
5
100
AcDbSymbolTableRecord
100
AcDbLinetypeTableRecord
  2
AI-Linetype-46
 70
     0
  3
Adobe Illustrator Linetype No. 46
 72
    65
 73
     6
 40
45.35714174037394
 49
22.67857103840452
 74
     0
 49
-4.535714140393883
 74
     0
 49
4.535714140393883
 74
     0
 49
-4.535714140393883
 74
     0
 49
4.535714140393883
 74
     0
 49
-4.535714140393883
 74
     0
  0
LTYPE
  5
148
330
5
100
AcDbSymbolTableRecord
100
AcDbLinetypeTableRecord
  2
AI-Linetype-47
 70
     0
  3
Adobe Illustrator Linetype No. 47
 72
    65
 73
     6
 40
45.35714174037394
 49
22.67857103840452
 74
     0
 49
-4.535714140393883
 74
     0
 49
4.535714140393883
 74
     0
 49
-4.535714140393883
 74
     0
 49
4.535714140393883
 74
     0
 49
-4.535714140393883
 74
     0
  0
LTYPE
  5
14A
330
5
100
AcDbSymbolTableRecord
100
AcDbLinetypeTableRecord
  2
AI-Linetype-48
 70
     0
  3
Adobe Illustrator Linetype No. 48
 72
    65
 73
     6
 40
45.35714174037394
 49
22.67857103840452
 74
     0
 49
-4.535714140393883
 74
     0
 49
4.535714140393883
 74
     0
 49
-4.535714140393883
 74
     0
 49
4.535714140393883
 74
     0
 49
-4.535714140393883
 74
     0
  0
LTYPE
  5
14C
330
5
100
AcDbSymbolTableRecord
100
AcDbLinetypeTableRecord
  2
AI-Linetype-49
 70
     0
  3
Adobe Illustrator Linetype No. 49
 72
    65
 73
     6
 40
45.35714174037394
 49
22.67857103840452
 74
     0
 49
-4.535714140393883
 74
     0
 49
4.535714140393883
 74
     0
 49
-4.535714140393883
 74
     0
 49
4.535714140393883
 74
     0
 49
-4.535714140393883
 74
     0
  0
LTYPE
  5
14E
330
5
100
AcDbSymbolTableRecord
100
AcDbLinetypeTableRecord
  2
AI-Linetype-50
 70
     0
  3
Adobe Illustrator Linetype No. 50
 72
    65
 73
     6
 40
45.35714174037394
 49
22.67857103840452
 74
     0
 49
-4.535714140393883
 74
     0
 49
4.535714140393883
 74
     0
 49
-4.535714140393883
 74
     0
 49
4.535714140393883
 74
     0
 49
-4.535714140393883
 74
     0
  0
LTYPE
  5
150
330
5
100
AcDbSymbolTableRecord
100
AcDbLinetypeTableRecord
  2
AI-Linetype-51
 70
     0
  3
Adobe Illustrator Linetype No. 51
 72
    65
 73
     6
 40
45.35714174037394
 49
22.67857103840452
 74
     0
 49
-4.535714140393883
 74
     0
 49
4.535714140393883
 74
     0
 49
-4.535714140393883
 74
     0
 49
4.535714140393883
 74
     0
 49
-4.535714140393883
 74
     0
  0
LTYPE
  5
152
330
5
100
AcDbSymbolTableRecord
100
AcDbLinetypeTableRecord
  2
AI-Linetype-52
 70
     0
  3
Adobe Illustrator Linetype No. 52
 72
    65
 73
     6
 40
45.35714174037394
 49
22.67857103840452
 74
     0
 49
-4.535714140393883
 74
     0
 49
4.535714140393883
 74
     0
 49
-4.535714140393883
 74
     0
 49
4.535714140393883
 74
     0
 49
-4.535714140393883
 74
     0
  0
LTYPE
  5
154
330
5
100
AcDbSymbolTableRecord
100
AcDbLinetypeTableRecord
  2
AI-Linetype-53
 70
     0
  3
Adobe Illustrator Linetype No. 53
 72
    65
 73
     6
 40
45.35714174037394
 49
22.67857103840452
 74
     0
 49
-4.535714140393883
 74
     0
 49
4.535714140393883
 74
     0
 49
-4.535714140393883
 74
     0
 49
4.535714140393883
 74
     0
 49
-4.535714140393883
 74
     0
  0
LTYPE
  5
156
330
5
100
AcDbSymbolTableRecord
100
AcDbLinetypeTableRecord
  2
AI-Linetype-54
 70
     0
  3
Adobe Illustrator Linetype No. 54
 72
    65
 73
     6
 40
45.35714174037394
 49
22.67857103840452
 74
     0
 49
-4.535714140393883
 74
     0
 49
4.535714140393883
 74
     0
 49
-4.535714140393883
 74
     0
 49
4.535714140393883
 74
     0
 49
-4.535714140393883
 74
     0
  0
LTYPE
  5
158
330
5
100
AcDbSymbolTableRecord
100
AcDbLinetypeTableRecord
  2
AI-Linetype-55
 70
     0
  3
Adobe Illustrator Linetype No. 55
 72
    65
 73
     6
 40
45.35714174037394
 49
22.67857103840452
 74
     0
 49
-4.535714140393883
 74
     0
 49
4.535714140393883
 74
     0
 49
-4.535714140393883
 74
     0
 49
4.535714140393883
 74
     0
 49
-4.535714140393883
 74
     0
  0
LTYPE
  5
15A
330
5
100
AcDbSymbolTableRecord
100
AcDbLinetypeTableRecord
  2
AI-Linetype-56
 70
     0
  3
Adobe Illustrator Linetype No. 56
 72
    65
 73
     6
 40
45.35714174037394
 49
22.67857103840452
 74
     0
 49
-4.535714140393883
 74
     0
 49
4.535714140393883
 74
     0
 49
-4.535714140393883
 74
     0
 49
4.535714140393883
 74
     0
 49
-4.535714140393883
 74
     0
  0
LTYPE
  5
15C
330
5
100
AcDbSymbolTableRecord
100
AcDbLinetypeTableRecord
  2
AI-Linetype-57
 70
     0
  3
Adobe Illustrator Linetype No. 57
 72
    65
 73
     6
 40
45.35714174037394
 49
22.67857103840452
 74
     0
 49
-4.535714140393883
 74
     0
 49
4.535714140393883
 74
     0
 49
-4.535714140393883
 74
     0
 49
4.535714140393883
 74
     0
 49
-4.535714140393883
 74
     0
  0
LTYPE
  5
15E
330
5
100
AcDbSymbolTableRecord
100
AcDbLinetypeTableRecord
  2
AI-Linetype-58
 70
     0
  3
Adobe Illustrator Linetype No. 58
 72
    65
 73
     6
 40
45.35714174037394
 49
22.67857103840452
 74
     0
 49
-4.535714140393883
 74
     0
 49
4.535714140393883
 74
     0
 49
-4.535714140393883
 74
     0
 49
4.535714140393883
 74
     0
 49
-4.535714140393883
 74
     0
  0
LTYPE
  5
160
330
5
100
AcDbSymbolTableRecord
100
AcDbLinetypeTableRecord
  2
AI-Linetype-59
 70
     0
  3
Adobe Illustrator Linetype No. 59
 72
    65
 73
     6
 40
45.35714174037394
 49
22.67857103840452
 74
     0
 49
-4.535714140393883
 74
     0
 49
4.535714140393883
 74
     0
 49
-4.535714140393883
 74
     0
 49
4.535714140393883
 74
     0
 49
-4.535714140393883
 74
     0
  0
LTYPE
  5
162
330
5
100
AcDbSymbolTableRecord
100
AcDbLinetypeTableRecord
  2
AI-Linetype-60
 70
     0
  3
Adobe Illustrator Linetype No. 60
 72
    65
 73
     6
 40
45.35714174037394
 49
22.67857103840452
 74
     0
 49
-4.535714140393883
 74
     0
 49
4.535714140393883
 74
     0
 49
-4.535714140393883
 74
     0
 49
4.535714140393883
 74
     0
 49
-4.535714140393883
 74
     0
  0
LTYPE
  5
164
330
5
100
AcDbSymbolTableRecord
100
AcDbLinetypeTableRecord
  2
AI-Linetype-61
 70
     0
  3
Adobe Illustrator Linetype No. 61
 72
    65
 73
     6
 40
45.35714174037394
 49
22.67857103840452
 74
     0
 49
-4.535714140393883
 74
     0
 49
4.535714140393883
 74
     0
 49
-4.535714140393883
 74
     0
 49
4.535714140393883
 74
     0
 49
-4.535714140393883
 74
     0
  0
LTYPE
  5
166
330
5
100
AcDbSymbolTableRecord
100
AcDbLinetypeTableRecord
  2
AI-Linetype-62
 70
     0
  3
Adobe Illustrator Linetype No. 62
 72
    65
 73
     6
 40
45.35714174037394
 49
22.67857103840452
 74
     0
 49
-4.535714140393883
 74
     0
 49
4.535714140393883
 74
     0
 49
-4.535714140393883
 74
     0
 49
4.535714140393883
 74
     0
 49
-4.535714140393883
 74
     0
  0
LTYPE
  5
168
330
5
100
AcDbSymbolTableRecord
100
AcDbLinetypeTableRecord
  2
AI-Linetype-63
 70
     0
  3
Adobe Illustrator Linetype No. 63
 72
    65
 73
     6
 40
45.35714174037394
 49
22.67857103840452
 74
     0
 49
-4.535714140393883
 74
     0
 49
4.535714140393883
 74
     0
 49
-4.535714140393883
 74
     0
 49
4.535714140393883
 74
     0
 49
-4.535714140393883
 74
     0
  0
LTYPE
  5
16A
330
5
100
AcDbSymbolTableRecord
100
AcDbLinetypeTableRecord
  2
AI-Linetype-64
 70
     0
  3
Adobe Illustrator Linetype No. 64
 72
    65
 73
     6
 40
45.35714174037394
 49
22.67857103840452
 74
     0
 49
-4.535714140393883
 74
     0
 49
4.535714140393883
 74
     0
 49
-4.535714140393883
 74
     0
 49
4.535714140393883
 74
     0
 49
-4.535714140393883
 74
     0
  0
LTYPE
  5
16C
330
5
100
AcDbSymbolTableRecord
100
AcDbLinetypeTableRecord
  2
AI-Linetype-65
 70
     0
  3
Adobe Illustrator Linetype No. 65
 72
    65
 73
     6
 40
45.35714174037394
 49
22.67857103840452
 74
     0
 49
-4.535714140393883
 74
     0
 49
4.535714140393883
 74
     0
 49
-4.535714140393883
 74
     0
 49
4.535714140393883
 74
     0
 49
-4.535714140393883
 74
     0
  0
LTYPE
  5
16E
330
5
100
AcDbSymbolTableRecord
100
AcDbLinetypeTableRecord
  2
AI-Linetype-66
 70
     0
  3
Adobe Illustrator Linetype No. 66
 72
    65
 73
     6
 40
45.35714174037394
 49
22.67857103840452
 74
     0
 49
-4.535714140393883
 74
     0
 49
4.535714140393883
 74
     0
 49
-4.535714140393883
 74
     0
 49
4.535714140393883
 74
     0
 49
-4.535714140393883
 74
     0
  0
LTYPE
  5
170
330
5
100
AcDbSymbolTableRecord
100
AcDbLinetypeTableRecord
  2
AI-Linetype-67
 70
     0
  3
Adobe Illustrator Linetype No. 67
 72
    65
 73
     6
 40
45.35714174037394
 49
22.67857103840452
 74
     0
 49
-4.535714140393883
 74
     0
 49
4.535714140393883
 74
     0
 49
-4.535714140393883
 74
     0
 49
4.535714140393883
 74
     0
 49
-4.535714140393883
 74
     0
  0
LTYPE
  5
172
330
5
100
AcDbSymbolTableRecord
100
AcDbLinetypeTableRecord
  2
AI-Linetype-68
 70
     0
  3
Adobe Illustrator Linetype No. 68
 72
    65
 73
     6
 40
45.35714174037394
 49
22.67857103840452
 74
     0
 49
-4.535714140393883
 74
     0
 49
4.535714140393883
 74
     0
 49
-4.535714140393883
 74
     0
 49
4.535714140393883
 74
     0
 49
-4.535714140393883
 74
     0
  0
LTYPE
  5
174
330
5
100
AcDbSymbolTableRecord
100
AcDbLinetypeTableRecord
  2
AI-Linetype-69
 70
     0
  3
Adobe Illustrator Linetype No. 69
 72
    65
 73
     6
 40
45.35714174037394
 49
22.67857103840452
 74
     0
 49
-4.535714140393883
 74
     0
 49
4.535714140393883
 74
     0
 49
-4.535714140393883
 74
     0
 49
4.535714140393883
 74
     0
 49
-4.535714140393883
 74
     0
  0
LTYPE
  5
176
330
5
100
AcDbSymbolTableRecord
100
AcDbLinetypeTableRecord
  2
AI-Linetype-70
 70
     0
  3
Adobe Illustrator Linetype No. 70
 72
    65
 73
     6
 40
45.35714174037394
 49
22.67857103840452
 74
     0
 49
-4.535714140393883
 74
     0
 49
4.535714140393883
 74
     0
 49
-4.535714140393883
 74
     0
 49
4.535714140393883
 74
     0
 49
-4.535714140393883
 74
     0
  0
LTYPE
  5
178
330
5
100
AcDbSymbolTableRecord
100
AcDbLinetypeTableRecord
  2
AI-Linetype-71
 70
     0
  3
Adobe Illustrator Linetype No. 71
 72
    65
 73
     6
 40
45.35714174037394
 49
22.67857103840452
 74
     0
 49
-4.535714140393883
 74
     0
 49
4.535714140393883
 74
     0
 49
-4.535714140393883
 74
     0
 49
4.535714140393883
 74
     0
 49
-4.535714140393883
 74
     0
  0
LTYPE
  5
17A
330
5
100
AcDbSymbolTableRecord
100
AcDbLinetypeTableRecord
  2
AI-Linetype-72
 70
     0
  3
Adobe Illustrator Linetype No. 72
 72
    65
 73
     6
 40
45.35714174037394
 49
22.67857103840452
 74
     0
 49
-4.535714140393883
 74
     0
 49
4.535714140393883
 74
     0
 49
-4.535714140393883
 74
     0
 49
4.535714140393883
 74
     0
 49
-4.535714140393883
 74
     0
  0
LTYPE
  5
17C
330
5
100
AcDbSymbolTableRecord
100
AcDbLinetypeTableRecord
  2
AI-Linetype-73
 70
     0
  3
Adobe Illustrator Linetype No. 73
 72
    65
 73
     6
 40
45.35714174037394
 49
22.67857103840452
 74
     0
 49
-4.535714140393883
 74
     0
 49
4.535714140393883
 74
     0
 49
-4.535714140393883
 74
     0
 49
4.535714140393883
 74
     0
 49
-4.535714140393883
 74
     0
  0
LTYPE
  5
17E
330
5
100
AcDbSymbolTableRecord
100
AcDbLinetypeTableRecord
  2
AI-Linetype-74
 70
     0
  3
Adobe Illustrator Linetype No. 74
 72
    65
 73
     6
 40
45.35714174037394
 49
22.67857103840452
 74
     0
 49
-4.535714140393883
 74
     0
 49
4.535714140393883
 74
     0
 49
-4.535714140393883
 74
     0
 49
4.535714140393883
 74
     0
 49
-4.535714140393883
 74
     0
  0
LTYPE
  5
180
330
5
100
AcDbSymbolTableRecord
100
AcDbLinetypeTableRecord
  2
AI-Linetype-75
 70
     0
  3
Adobe Illustrator Linetype No. 75
 72
    65
 73
     6
 40
45.35714174037394
 49
22.67857103840452
 74
     0
 49
-4.535714140393883
 74
     0
 49
4.535714140393883
 74
     0
 49
-4.535714140393883
 74
     0
 49
4.535714140393883
 74
     0
 49
-4.535714140393883
 74
     0
  0
LTYPE
  5
182
330
5
100
AcDbSymbolTableRecord
100
AcDbLinetypeTableRecord
  2
AI-Linetype-76
 70
     0
  3
Adobe Illustrator Linetype No. 76
 72
    65
 73
     6
 40
45.35714174037394
 49
22.67857103840452
 74
     0
 49
-4.535714140393883
 74
     0
 49
4.535714140393883
 74
     0
 49
-4.535714140393883
 74
     0
 49
4.535714140393883
 74
     0
 49
-4.535714140393883
 74
     0
  0
LTYPE
  5
184
330
5
100
AcDbSymbolTableRecord
100
AcDbLinetypeTableRecord
  2
AI-Linetype-77
 70
     0
  3
Adobe Illustrator Linetype No. 77
 72
    65
 73
     6
 40
45.35714174037394
 49
22.67857103840452
 74
     0
 49
-4.535714140393883
 74
     0
 49
4.535714140393883
 74
     0
 49
-4.535714140393883
 74
     0
 49
4.535714140393883
 74
     0
 49
-4.535714140393883
 74
     0
  0
LTYPE
  5
186
330
5
100
AcDbSymbolTableRecord
100
AcDbLinetypeTableRecord
  2
AI-Linetype-78
 70
     0
  3
Adobe Illustrator Linetype No. 78
 72
    65
 73
     6
 40
45.35714174037394
 49
22.67857103840452
 74
     0
 49
-4.535714140393883
 74
     0
 49
4.535714140393883
 74
     0
 49
-4.535714140393883
 74
     0
 49
4.535714140393883
 74
     0
 49
-4.535714140393883
 74
     0
  0
LTYPE
  5
188
330
5
100
AcDbSymbolTableRecord
100
AcDbLinetypeTableRecord
  2
AI-Linetype-79
 70
     0
  3
Adobe Illustrator Linetype No. 79
 72
    65
 73
     6
 40
45.35714174037394
 49
22.67857103840452
 74
     0
 49
-4.535714140393883
 74
     0
 49
4.535714140393883
 74
     0
 49
-4.535714140393883
 74
     0
 49
4.535714140393883
 74
     0
 49
-4.535714140393883
 74
     0
  0
LTYPE
  5
18A
330
5
100
AcDbSymbolTableRecord
100
AcDbLinetypeTableRecord
  2
AI-Linetype-80
 70
     0
  3
Adobe Illustrator Linetype No. 80
 72
    65
 73
     6
 40
45.35714174037394
 49
22.67857103840452
 74
     0
 49
-4.535714140393883
 74
     0
 49
4.535714140393883
 74
     0
 49
-4.535714140393883
 74
     0
 49
4.535714140393883
 74
     0
 49
-4.535714140393883
 74
     0
  0
LTYPE
  5
18C
330
5
100
AcDbSymbolTableRecord
100
AcDbLinetypeTableRecord
  2
AI-Linetype-81
 70
     0
  3
Adobe Illustrator Linetype No. 81
 72
    65
 73
     6
 40
45.35714174037394
 49
22.67857103840452
 74
     0
 49
-4.535714140393883
 74
     0
 49
4.535714140393883
 74
     0
 49
-4.535714140393883
 74
     0
 49
4.535714140393883
 74
     0
 49
-4.535714140393883
 74
     0
  0
LTYPE
  5
18E
330
5
100
AcDbSymbolTableRecord
100
AcDbLinetypeTableRecord
  2
AI-Linetype-82
 70
     0
  3
Adobe Illustrator Linetype No. 82
 72
    65
 73
     6
 40
45.35714174037394
 49
22.67857103840452
 74
     0
 49
-4.535714140393883
 74
     0
 49
4.535714140393883
 74
     0
 49
-4.535714140393883
 74
     0
 49
4.535714140393883
 74
     0
 49
-4.535714140393883
 74
     0
  0
LTYPE
  5
190
330
5
100
AcDbSymbolTableRecord
100
AcDbLinetypeTableRecord
  2
AI-Linetype-83
 70
     0
  3
Adobe Illustrator Linetype No. 83
 72
    65
 73
     6
 40
45.35714174037394
 49
22.67857103840452
 74
     0
 49
-4.535714140393883
 74
     0
 49
4.535714140393883
 74
     0
 49
-4.535714140393883
 74
     0
 49
4.535714140393883
 74
     0
 49
-4.535714140393883
 74
     0
  0
LTYPE
  5
192
330
5
100
AcDbSymbolTableRecord
100
AcDbLinetypeTableRecord
  2
AI-Linetype-84
 70
     0
  3
Adobe Illustrator Linetype No. 84
 72
    65
 73
     6
 40
45.35714174037394
 49
22.67857103840452
 74
     0
 49
-4.535714140393883
 74
     0
 49
4.535714140393883
 74
     0
 49
-4.535714140393883
 74
     0
 49
4.535714140393883
 74
     0
 49
-4.535714140393883
 74
     0
  0
LTYPE
  5
194
330
5
100
AcDbSymbolTableRecord
100
AcDbLinetypeTableRecord
  2
AI-Linetype-85
 70
     0
  3
Adobe Illustrator Linetype No. 85
 72
    65
 73
     6
 40
45.35714174037394
 49
22.67857103840452
 74
     0
 49
-4.535714140393883
 74
     0
 49
4.535714140393883
 74
     0
 49
-4.535714140393883
 74
     0
 49
4.535714140393883
 74
     0
 49
-4.535714140393883
 74
     0
  0
LTYPE
  5
196
330
5
100
AcDbSymbolTableRecord
100
AcDbLinetypeTableRecord
  2
AI-Linetype-86
 70
     0
  3
Adobe Illustrator Linetype No. 86
 72
    65
 73
     6
 40
45.35714174037394
 49
22.67857103840452
 74
     0
 49
-4.535714140393883
 74
     0
 49
4.535714140393883
 74
     0
 49
-4.535714140393883
 74
     0
 49
4.535714140393883
 74
     0
 49
-4.535714140393883
 74
     0
  0
LTYPE
  5
198
330
5
100
AcDbSymbolTableRecord
100
AcDbLinetypeTableRecord
  2
AI-Linetype-87
 70
     0
  3
Adobe Illustrator Linetype No. 87
 72
    65
 73
     6
 40
45.35714174037394
 49
22.67857103840452
 74
     0
 49
-4.535714140393883
 74
     0
 49
4.535714140393883
 74
     0
 49
-4.535714140393883
 74
     0
 49
4.535714140393883
 74
     0
 49
-4.535714140393883
 74
     0
  0
LTYPE
  5
19A
330
5
100
AcDbSymbolTableRecord
100
AcDbLinetypeTableRecord
  2
AI-Linetype-88
 70
     0
  3
Adobe Illustrator Linetype No. 88
 72
    65
 73
     6
 40
45.35714174037394
 49
22.67857103840452
 74
     0
 49
-4.535714140393883
 74
     0
 49
4.535714140393883
 74
     0
 49
-4.535714140393883
 74
     0
 49
4.535714140393883
 74
     0
 49
-4.535714140393883
 74
     0
  0
LTYPE
  5
19C
330
5
100
AcDbSymbolTableRecord
100
AcDbLinetypeTableRecord
  2
AI-Linetype-89
 70
     0
  3
Adobe Illustrator Linetype No. 89
 72
    65
 73
     6
 40
45.35714174037394
 49
22.67857103840452
 74
     0
 49
-4.535714140393883
 74
     0
 49
4.535714140393883
 74
     0
 49
-4.535714140393883
 74
     0
 49
4.535714140393883
 74
     0
 49
-4.535714140393883
 74
     0
  0
LTYPE
  5
19E
330
5
100
AcDbSymbolTableRecord
100
AcDbLinetypeTableRecord
  2
AI-Linetype-90
 70
     0
  3
Adobe Illustrator Linetype No. 90
 72
    65
 73
     6
 40
45.35714174037394
 49
22.67857103840452
 74
     0
 49
-4.535714140393883
 74
     0
 49
4.535714140393883
 74
     0
 49
-4.535714140393883
 74
     0
 49
4.535714140393883
 74
     0
 49
-4.535714140393883
 74
     0
  0
LTYPE
  5
1A0
330
5
100
AcDbSymbolTableRecord
100
AcDbLinetypeTableRecord
  2
AI-Linetype-91
 70
     0
  3
Adobe Illustrator Linetype No. 91
 72
    65
 73
     6
 40
45.35714174037394
 49
22.67857103840452
 74
     0
 49
-4.535714140393883
 74
     0
 49
4.535714140393883
 74
     0
 49
-4.535714140393883
 74
     0
 49
4.535714140393883
 74
     0
 49
-4.535714140393883
 74
     0
  0
LTYPE
  5
1A2
330
5
100
AcDbSymbolTableRecord
100
AcDbLinetypeTableRecord
  2
AI-Linetype-92
 70
     0
  3
Adobe Illustrator Linetype No. 92
 72
    65
 73
     6
 40
45.35714174037394
 49
22.67857103840452
 74
     0
 49
-4.535714140393883
 74
     0
 49
4.535714140393883
 74
     0
 49
-4.535714140393883
 74
     0
 49
4.535714140393883
 74
     0
 49
-4.535714140393883
 74
     0
  0
LTYPE
  5
1A4
330
5
100
AcDbSymbolTableRecord
100
AcDbLinetypeTableRecord
  2
AI-Linetype-93
 70
     0
  3
Adobe Illustrator Linetype No. 93
 72
    65
 73
     6
 40
45.35714174037394
 49
22.67857103840452
 74
     0
 49
-4.535714140393883
 74
     0
 49
4.535714140393883
 74
     0
 49
-4.535714140393883
 74
     0
 49
4.535714140393883
 74
     0
 49
-4.535714140393883
 74
     0
  0
LTYPE
  5
1A6
330
5
100
AcDbSymbolTableRecord
100
AcDbLinetypeTableRecord
  2
AI-Linetype-94
 70
     0
  3
Adobe Illustrator Linetype No. 94
 72
    65
 73
     6
 40
45.35714174037394
 49
22.67857103840452
 74
     0
 49
-4.535714140393883
 74
     0
 49
4.535714140393883
 74
     0
 49
-4.535714140393883
 74
     0
 49
4.535714140393883
 74
     0
 49
-4.535714140393883
 74
     0
  0
LTYPE
  5
1A8
330
5
100
AcDbSymbolTableRecord
100
AcDbLinetypeTableRecord
  2
AI-Linetype-95
 70
     0
  3
Adobe Illustrator Linetype No. 95
 72
    65
 73
     6
 40
45.35714174037394
 49
22.67857103840452
 74
     0
 49
-4.535714140393883
 74
     0
 49
4.535714140393883
 74
     0
 49
-4.535714140393883
 74
     0
 49
4.535714140393883
 74
     0
 49
-4.535714140393883
 74
     0
  0
LTYPE
  5
1AA
330
5
100
AcDbSymbolTableRecord
100
AcDbLinetypeTableRecord
  2
AI-Linetype-96
 70
     0
  3
Adobe Illustrator Linetype No. 96
 72
    65
 73
     6
 40
45.35714174037394
 49
22.67857103840452
 74
     0
 49
-4.535714140393883
 74
     0
 49
4.535714140393883
 74
     0
 49
-4.535714140393883
 74
     0
 49
4.535714140393883
 74
     0
 49
-4.535714140393883
 74
     0
  0
LTYPE
  5
1AC
330
5
100
AcDbSymbolTableRecord
100
AcDbLinetypeTableRecord
  2
AI-Linetype-97
 70
     0
  3
Adobe Illustrator Linetype No. 97
 72
    65
 73
     6
 40
45.35714174037394
 49
22.67857103840452
 74
     0
 49
-4.535714140393883
 74
     0
 49
4.535714140393883
 74
     0
 49
-4.535714140393883
 74
     0
 49
4.535714140393883
 74
     0
 49
-4.535714140393883
 74
     0
  0
LTYPE
  5
1AE
330
5
100
AcDbSymbolTableRecord
100
AcDbLinetypeTableRecord
  2
AI-Linetype-98
 70
     0
  3
Adobe Illustrator Linetype No. 98
 72
    65
 73
     6
 40
45.35714174037394
 49
22.67857103840452
 74
     0
 49
-4.535714140393883
 74
     0
 49
4.535714140393883
 74
     0
 49
-4.535714140393883
 74
     0
 49
4.535714140393883
 74
     0
 49
-4.535714140393883
 74
     0
  0
LTYPE
  5
1B0
330
5
100
AcDbSymbolTableRecord
100
AcDbLinetypeTableRecord
  2
AI-Linetype-99
 70
     0
  3
Adobe Illustrator Linetype No. 99
 72
    65
 73
     6
 40
45.35714174037394
 49
22.67857103840452
 74
     0
 49
-4.535714140393883
 74
     0
 49
4.535714140393883
 74
     0
 49
-4.535714140393883
 74
     0
 49
4.535714140393883
 74
     0
 49
-4.535714140393883
 74
     0
  0
LTYPE
  5
1B2
330
5
100
AcDbSymbolTableRecord
100
AcDbLinetypeTableRecord
  2
AI-Linetype-100
 70
     0
  3
Adobe Illustrator Linetype No. 100
 72
    65
 73
     6
 40
45.35714174037394
 49
22.67857103840452
 74
     0
 49
-4.535714140393883
 74
     0
 49
4.535714140393883
 74
     0
 49
-4.535714140393883
 74
     0
 49
4.535714140393883
 74
     0
 49
-4.535714140393883
 74
     0
  0
LTYPE
  5
1B4
330
5
100
AcDbSymbolTableRecord
100
AcDbLinetypeTableRecord
  2
AI-Linetype-101
 70
     0
  3
Adobe Illustrator Linetype No. 101
 72
    65
 73
     6
 40
45.35714174037394
 49
22.67857103840452
 74
     0
 49
-4.535714140393883
 74
     0
 49
4.535714140393883
 74
     0
 49
-4.535714140393883
 74
     0
 49
4.535714140393883
 74
     0
 49
-4.535714140393883
 74
     0
  0
LTYPE
  5
1B6
330
5
100
AcDbSymbolTableRecord
100
AcDbLinetypeTableRecord
  2
AI-Linetype-102
 70
     0
  3
Adobe Illustrator Linetype No. 102
 72
    65
 73
     6
 40
45.35714174037394
 49
22.67857103840452
 74
     0
 49
-4.535714140393883
 74
     0
 49
4.535714140393883
 74
     0
 49
-4.535714140393883
 74
     0
 49
4.535714140393883
 74
     0
 49
-4.535714140393883
 74
     0
  0
LTYPE
  5
1B8
330
5
100
AcDbSymbolTableRecord
100
AcDbLinetypeTableRecord
  2
AI-Linetype-103
 70
     0
  3
Adobe Illustrator Linetype No. 103
 72
    65
 73
     6
 40
45.35714174037394
 49
22.67857103840452
 74
     0
 49
-4.535714140393883
 74
     0
 49
4.535714140393883
 74
     0
 49
-4.535714140393883
 74
     0
 49
4.535714140393883
 74
     0
 49
-4.535714140393883
 74
     0
  0
LTYPE
  5
1BA
330
5
100
AcDbSymbolTableRecord
100
AcDbLinetypeTableRecord
  2
AI-Linetype-104
 70
     0
  3
Adobe Illustrator Linetype No. 104
 72
    65
 73
     6
 40
45.35714174037394
 49
22.67857103840452
 74
     0
 49
-4.535714140393883
 74
     0
 49
4.535714140393883
 74
     0
 49
-4.535714140393883
 74
     0
 49
4.535714140393883
 74
     0
 49
-4.535714140393883
 74
     0
  0
LTYPE
  5
1BC
330
5
100
AcDbSymbolTableRecord
100
AcDbLinetypeTableRecord
  2
AI-Linetype-105
 70
     0
  3
Adobe Illustrator Linetype No. 105
 72
    65
 73
     6
 40
45.35714174037394
 49
22.67857103840452
 74
     0
 49
-4.535714140393883
 74
     0
 49
4.535714140393883
 74
     0
 49
-4.535714140393883
 74
     0
 49
4.535714140393883
 74
     0
 49
-4.535714140393883
 74
     0
  0
LTYPE
  5
1BE
330
5
100
AcDbSymbolTableRecord
100
AcDbLinetypeTableRecord
  2
AI-Linetype-106
 70
     0
  3
Adobe Illustrator Linetype No. 106
 72
    65
 73
     6
 40
45.35714174037394
 49
22.67857103840452
 74
     0
 49
-4.535714140393883
 74
     0
 49
4.535714140393883
 74
     0
 49
-4.535714140393883
 74
     0
 49
4.535714140393883
 74
     0
 49
-4.535714140393883
 74
     0
  0
LTYPE
  5
1C0
330
5
100
AcDbSymbolTableRecord
100
AcDbLinetypeTableRecord
  2
AI-Linetype-107
 70
     0
  3
Adobe Illustrator Linetype No. 107
 72
    65
 73
     6
 40
45.35714174037394
 49
22.67857103840452
 74
     0
 49
-4.535714140393883
 74
     0
 49
4.535714140393883
 74
     0
 49
-4.535714140393883
 74
     0
 49
4.535714140393883
 74
     0
 49
-4.535714140393883
 74
     0
  0
LTYPE
  5
1C2
330
5
100
AcDbSymbolTableRecord
100
AcDbLinetypeTableRecord
  2
AI-Linetype-108
 70
     0
  3
Adobe Illustrator Linetype No. 108
 72
    65
 73
     6
 40
45.35714174037394
 49
22.67857103840452
 74
     0
 49
-4.535714140393883
 74
     0
 49
4.535714140393883
 74
     0
 49
-4.535714140393883
 74
     0
 49
4.535714140393883
 74
     0
 49
-4.535714140393883
 74
     0
  0
LTYPE
  5
1C4
330
5
100
AcDbSymbolTableRecord
100
AcDbLinetypeTableRecord
  2
AI-Linetype-109
 70
     0
  3
Adobe Illustrator Linetype No. 109
 72
    65
 73
     6
 40
45.35714174037394
 49
22.67857103840452
 74
     0
 49
-4.535714140393883
 74
     0
 49
4.535714140393883
 74
     0
 49
-4.535714140393883
 74
     0
 49
4.535714140393883
 74
     0
 49
-4.535714140393883
 74
     0
  0
LTYPE
  5
1C6
330
5
100
AcDbSymbolTableRecord
100
AcDbLinetypeTableRecord
  2
AI-Linetype-110
 70
     0
  3
Adobe Illustrator Linetype No. 110
 72
    65
 73
     6
 40
45.35714174037394
 49
22.67857103840452
 74
     0
 49
-4.535714140393883
 74
     0
 49
4.535714140393883
 74
     0
 49
-4.535714140393883
 74
     0
 49
4.535714140393883
 74
     0
 49
-4.535714140393883
 74
     0
  0
LTYPE
  5
1C8
330
5
100
AcDbSymbolTableRecord
100
AcDbLinetypeTableRecord
  2
AI-Linetype-111
 70
     0
  3
Adobe Illustrator Linetype No. 111
 72
    65
 73
     6
 40
45.35714174037394
 49
22.67857103840452
 74
     0
 49
-4.535714140393883
 74
     0
 49
4.535714140393883
 74
     0
 49
-4.535714140393883
 74
     0
 49
4.535714140393883
 74
     0
 49
-4.535714140393883
 74
     0
  0
LTYPE
  5
1CA
330
5
100
AcDbSymbolTableRecord
100
AcDbLinetypeTableRecord
  2
AI-Linetype-112
 70
     0
  3
Adobe Illustrator Linetype No. 112
 72
    65
 73
     6
 40
45.35714174037394
 49
22.67857103840452
 74
     0
 49
-4.535714140393883
 74
     0
 49
4.535714140393883
 74
     0
 49
-4.535714140393883
 74
     0
 49
4.535714140393883
 74
     0
 49
-4.535714140393883
 74
     0
  0
LTYPE
  5
1CC
330
5
100
AcDbSymbolTableRecord
100
AcDbLinetypeTableRecord
  2
AI-Linetype-113
 70
     0
  3
Adobe Illustrator Linetype No. 113
 72
    65
 73
     6
 40
45.35714174037394
 49
22.67857103840452
 74
     0
 49
-4.535714140393883
 74
     0
 49
4.535714140393883
 74
     0
 49
-4.535714140393883
 74
     0
 49
4.535714140393883
 74
     0
 49
-4.535714140393883
 74
     0
  0
LTYPE
  5
1CE
330
5
100
AcDbSymbolTableRecord
100
AcDbLinetypeTableRecord
  2
AI-Linetype-114
 70
     0
  3
Adobe Illustrator Linetype No. 114
 72
    65
 73
     6
 40
45.35714174037394
 49
22.67857103840452
 74
     0
 49
-4.535714140393883
 74
     0
 49
4.535714140393883
 74
     0
 49
-4.535714140393883
 74
     0
 49
4.535714140393883
 74
     0
 49
-4.535714140393883
 74
     0
  0
LTYPE
  5
1D0
330
5
100
AcDbSymbolTableRecord
100
AcDbLinetypeTableRecord
  2
AI-Linetype-115
 70
     0
  3
Adobe Illustrator Linetype No. 115
 72
    65
 73
     6
 40
45.35714174037394
 49
22.67857103840452
 74
     0
 49
-4.535714140393883
 74
     0
 49
4.535714140393883
 74
     0
 49
-4.535714140393883
 74
     0
 49
4.535714140393883
 74
     0
 49
-4.535714140393883
 74
     0
  0
LTYPE
  5
1D2
330
5
100
AcDbSymbolTableRecord
100
AcDbLinetypeTableRecord
  2
AI-Linetype-116
 70
     0
  3
Adobe Illustrator Linetype No. 116
 72
    65
 73
     6
 40
45.35714174037394
 49
22.67857103840452
 74
     0
 49
-4.535714140393883
 74
     0
 49
4.535714140393883
 74
     0
 49
-4.535714140393883
 74
     0
 49
4.535714140393883
 74
     0
 49
-4.535714140393883
 74
     0
  0
LTYPE
  5
1D4
330
5
100
AcDbSymbolTableRecord
100
AcDbLinetypeTableRecord
  2
AI-Linetype-117
 70
     0
  3
Adobe Illustrator Linetype No. 117
 72
    65
 73
     6
 40
45.35714174037394
 49
22.67857103840452
 74
     0
 49
-4.535714140393883
 74
     0
 49
4.535714140393883
 74
     0
 49
-4.535714140393883
 74
     0
 49
4.535714140393883
 74
     0
 49
-4.535714140393883
 74
     0
  0
LTYPE
  5
1D6
330
5
100
AcDbSymbolTableRecord
100
AcDbLinetypeTableRecord
  2
AI-Linetype-118
 70
     0
  3
Adobe Illustrator Linetype No. 118
 72
    65
 73
     6
 40
45.35714174037394
 49
22.67857103840452
 74
     0
 49
-4.535714140393883
 74
     0
 49
4.535714140393883
 74
     0
 49
-4.535714140393883
 74
     0
 49
4.535714140393883
 74
     0
 49
-4.535714140393883
 74
     0
  0
LTYPE
  5
1D8
330
5
100
AcDbSymbolTableRecord
100
AcDbLinetypeTableRecord
  2
AI-Linetype-119
 70
     0
  3
Adobe Illustrator Linetype No. 119
 72
    65
 73
     6
 40
45.35714174037394
 49
22.67857103840452
 74
     0
 49
-4.535714140393883
 74
     0
 49
4.535714140393883
 74
     0
 49
-4.535714140393883
 74
     0
 49
4.535714140393883
 74
     0
 49
-4.535714140393883
 74
     0
  0
LTYPE
  5
1DA
330
5
100
AcDbSymbolTableRecord
100
AcDbLinetypeTableRecord
  2
AI-Linetype-120
 70
     0
  3
Adobe Illustrator Linetype No. 120
 72
    65
 73
     6
 40
45.35714174037394
 49
22.67857103840452
 74
     0
 49
-4.535714140393883
 74
     0
 49
4.535714140393883
 74
     0
 49
-4.535714140393883
 74
     0
 49
4.535714140393883
 74
     0
 49
-4.535714140393883
 74
     0
  0
LTYPE
  5
1DC
330
5
100
AcDbSymbolTableRecord
100
AcDbLinetypeTableRecord
  2
AI-Linetype-121
 70
     0
  3
Adobe Illustrator Linetype No. 121
 72
    65
 73
     6
 40
45.35714174037394
 49
22.67857103840452
 74
     0
 49
-4.535714140393883
 74
     0
 49
4.535714140393883
 74
     0
 49
-4.535714140393883
 74
     0
 49
4.535714140393883
 74
     0
 49
-4.535714140393883
 74
     0
  0
LTYPE
  5
1DE
330
5
100
AcDbSymbolTableRecord
100
AcDbLinetypeTableRecord
  2
AI-Linetype-122
 70
     0
  3
Adobe Illustrator Linetype No. 122
 72
    65
 73
     6
 40
45.35714174037394
 49
22.67857103840452
 74
     0
 49
-4.535714140393883
 74
     0
 49
4.535714140393883
 74
     0
 49
-4.535714140393883
 74
     0
 49
4.535714140393883
 74
     0
 49
-4.535714140393883
 74
     0
  0
LTYPE
  5
1E0
330
5
100
AcDbSymbolTableRecord
100
AcDbLinetypeTableRecord
  2
AI-Linetype-123
 70
     0
  3
Adobe Illustrator Linetype No. 123
 72
    65
 73
     6
 40
45.35714174037394
 49
22.67857103840452
 74
     0
 49
-4.535714140393883
 74
     0
 49
4.535714140393883
 74
     0
 49
-4.535714140393883
 74
     0
 49
4.535714140393883
 74
     0
 49
-4.535714140393883
 74
     0
  0
LTYPE
  5
1E2
330
5
100
AcDbSymbolTableRecord
100
AcDbLinetypeTableRecord
  2
AI-Linetype-124
 70
     0
  3
Adobe Illustrator Linetype No. 124
 72
    65
 73
     6
 40
45.35714174037394
 49
22.67857103840452
 74
     0
 49
-4.535714140393883
 74
     0
 49
4.535714140393883
 74
     0
 49
-4.535714140393883
 74
     0
 49
4.535714140393883
 74
     0
 49
-4.535714140393883
 74
     0
  0
LTYPE
  5
1E4
330
5
100
AcDbSymbolTableRecord
100
AcDbLinetypeTableRecord
  2
AI-Linetype-125
 70
     0
  3
Adobe Illustrator Linetype No. 125
 72
    65
 73
     6
 40
45.35714174037394
 49
22.67857103840452
 74
     0
 49
-4.535714140393883
 74
     0
 49
4.535714140393883
 74
     0
 49
-4.535714140393883
 74
     0
 49
4.535714140393883
 74
     0
 49
-4.535714140393883
 74
     0
  0
LTYPE
  5
1E6
330
5
100
AcDbSymbolTableRecord
100
AcDbLinetypeTableRecord
  2
AI-Linetype-126
 70
     0
  3
Adobe Illustrator Linetype No. 126
 72
    65
 73
     6
 40
45.35714174037394
 49
22.67857103840452
 74
     0
 49
-4.535714140393883
 74
     0
 49
4.535714140393883
 74
     0
 49
-4.535714140393883
 74
     0
 49
4.535714140393883
 74
     0
 49
-4.535714140393883
 74
     0
  0
LTYPE
  5
1E8
330
5
100
AcDbSymbolTableRecord
100
AcDbLinetypeTableRecord
  2
AI-Linetype-127
 70
     0
  3
Adobe Illustrator Linetype No. 127
 72
    65
 73
     6
 40
45.35714174037394
 49
22.67857103840452
 74
     0
 49
-4.535714140393883
 74
     0
 49
4.535714140393883
 74
     0
 49
-4.535714140393883
 74
     0
 49
4.535714140393883
 74
     0
 49
-4.535714140393883
 74
     0
  0
LTYPE
  5
1EA
330
5
100
AcDbSymbolTableRecord
100
AcDbLinetypeTableRecord
  2
AI-Linetype-128
 70
     0
  3
Adobe Illustrator Linetype No. 128
 72
    65
 73
     6
 40
45.35714174037394
 49
22.67857103840452
 74
     0
 49
-4.535714140393883
 74
     0
 49
4.535714140393883
 74
     0
 49
-4.535714140393883
 74
     0
 49
4.535714140393883
 74
     0
 49
-4.535714140393883
 74
     0
  0
LTYPE
  5
1EC
330
5
100
AcDbSymbolTableRecord
100
AcDbLinetypeTableRecord
  2
AI-Linetype-129
 70
     0
  3
Adobe Illustrator Linetype No. 129
 72
    65
 73
     6
 40
45.35714174037394
 49
22.67857103840452
 74
     0
 49
-4.535714140393883
 74
     0
 49
4.535714140393883
 74
     0
 49
-4.535714140393883
 74
     0
 49
4.535714140393883
 74
     0
 49
-4.535714140393883
 74
     0
  0
LTYPE
  5
1EE
330
5
100
AcDbSymbolTableRecord
100
AcDbLinetypeTableRecord
  2
AI-Linetype-130
 70
     0
  3
Adobe Illustrator Linetype No. 130
 72
    65
 73
     6
 40
45.35714174037394
 49
22.67857103840452
 74
     0
 49
-4.535714140393883
 74
     0
 49
4.535714140393883
 74
     0
 49
-4.535714140393883
 74
     0
 49
4.535714140393883
 74
     0
 49
-4.535714140393883
 74
     0
  0
LTYPE
  5
1F0
330
5
100
AcDbSymbolTableRecord
100
AcDbLinetypeTableRecord
  2
AI-Linetype-131
 70
     0
  3
Adobe Illustrator Linetype No. 131
 72
    65
 73
     6
 40
45.35714174037394
 49
22.67857103840452
 74
     0
 49
-4.535714140393883
 74
     0
 49
4.535714140393883
 74
     0
 49
-4.535714140393883
 74
     0
 49
4.535714140393883
 74
     0
 49
-4.535714140393883
 74
     0
  0
LTYPE
  5
1F2
330
5
100
AcDbSymbolTableRecord
100
AcDbLinetypeTableRecord
  2
AI-Linetype-132
 70
     0
  3
Adobe Illustrator Linetype No. 132
 72
    65
 73
     6
 40
45.35714174037394
 49
22.67857103840452
 74
     0
 49
-4.535714140393883
 74
     0
 49
4.535714140393883
 74
     0
 49
-4.535714140393883
 74
     0
 49
4.535714140393883
 74
     0
 49
-4.535714140393883
 74
     0
  0
LTYPE
  5
1F4
330
5
100
AcDbSymbolTableRecord
100
AcDbLinetypeTableRecord
  2
AI-Linetype-133
 70
     0
  3
Adobe Illustrator Linetype No. 133
 72
    65
 73
     6
 40
45.35714174037394
 49
22.67857103840452
 74
     0
 49
-4.535714140393883
 74
     0
 49
4.535714140393883
 74
     0
 49
-4.535714140393883
 74
     0
 49
4.535714140393883
 74
     0
 49
-4.535714140393883
 74
     0
  0
LTYPE
  5
1F6
330
5
100
AcDbSymbolTableRecord
100
AcDbLinetypeTableRecord
  2
AI-Linetype-134
 70
     0
  3
Adobe Illustrator Linetype No. 134
 72
    65
 73
     6
 40
45.35714174037394
 49
22.67857103840452
 74
     0
 49
-4.535714140393883
 74
     0
 49
4.535714140393883
 74
     0
 49
-4.535714140393883
 74
     0
 49
4.535714140393883
 74
     0
 49
-4.535714140393883
 74
     0
  0
LTYPE
  5
1F8
330
5
100
AcDbSymbolTableRecord
100
AcDbLinetypeTableRecord
  2
AI-Linetype-135
 70
     0
  3
Adobe Illustrator Linetype No. 135
 72
    65
 73
     6
 40
45.35714174037394
 49
22.67857103840452
 74
     0
 49
-4.535714140393883
 74
     0
 49
4.535714140393883
 74
     0
 49
-4.535714140393883
 74
     0
 49
4.535714140393883
 74
     0
 49
-4.535714140393883
 74
     0
  0
LTYPE
  5
1FA
330
5
100
AcDbSymbolTableRecord
100
AcDbLinetypeTableRecord
  2
AI-Linetype-136
 70
     0
  3
Adobe Illustrator Linetype No. 136
 72
    65
 73
     6
 40
45.35714174037394
 49
22.67857103840452
 74
     0
 49
-4.535714140393883
 74
     0
 49
4.535714140393883
 74
     0
 49
-4.535714140393883
 74
     0
 49
4.535714140393883
 74
     0
 49
-4.535714140393883
 74
     0
  0
LTYPE
  5
1FC
330
5
100
AcDbSymbolTableRecord
100
AcDbLinetypeTableRecord
  2
AI-Linetype-137
 70
     0
  3
Adobe Illustrator Linetype No. 137
 72
    65
 73
     6
 40
45.35714174037394
 49
22.67857103840452
 74
     0
 49
-4.535714140393883
 74
     0
 49
4.535714140393883
 74
     0
 49
-4.535714140393883
 74
     0
 49
4.535714140393883
 74
     0
 49
-4.535714140393883
 74
     0
  0
LTYPE
  5
1FE
330
5
100
AcDbSymbolTableRecord
100
AcDbLinetypeTableRecord
  2
AI-Linetype-138
 70
     0
  3
Adobe Illustrator Linetype No. 138
 72
    65
 73
     6
 40
45.35714174037394
 49
22.67857103840452
 74
     0
 49
-4.535714140393883
 74
     0
 49
4.535714140393883
 74
     0
 49
-4.535714140393883
 74
     0
 49
4.535714140393883
 74
     0
 49
-4.535714140393883
 74
     0
  0
LTYPE
  5
200
330
5
100
AcDbSymbolTableRecord
100
AcDbLinetypeTableRecord
  2
AI-Linetype-139
 70
     0
  3
Adobe Illustrator Linetype No. 139
 72
    65
 73
     6
 40
45.35714174037394
 49
22.67857103840452
 74
     0
 49
-4.535714140393883
 74
     0
 49
4.535714140393883
 74
     0
 49
-4.535714140393883
 74
     0
 49
4.535714140393883
 74
     0
 49
-4.535714140393883
 74
     0
  0
LTYPE
  5
202
330
5
100
AcDbSymbolTableRecord
100
AcDbLinetypeTableRecord
  2
AI-Linetype-140
 70
     0
  3
Adobe Illustrator Linetype No. 140
 72
    65
 73
     6
 40
45.35714174037394
 49
22.67857103840452
 74
     0
 49
-4.535714140393883
 74
     0
 49
4.535714140393883
 74
     0
 49
-4.535714140393883
 74
     0
 49
4.535714140393883
 74
     0
 49
-4.535714140393883
 74
     0
  0
LTYPE
  5
204
330
5
100
AcDbSymbolTableRecord
100
AcDbLinetypeTableRecord
  2
AI-Linetype-141
 70
     0
  3
Adobe Illustrator Linetype No. 141
 72
    65
 73
     6
 40
45.35714174037394
 49
22.67857103840452
 74
     0
 49
-4.535714140393883
 74
     0
 49
4.535714140393883
 74
     0
 49
-4.535714140393883
 74
     0
 49
4.535714140393883
 74
     0
 49
-4.535714140393883
 74
     0
  0
LTYPE
  5
206
330
5
100
AcDbSymbolTableRecord
100
AcDbLinetypeTableRecord
  2
AI-Linetype-142
 70
     0
  3
Adobe Illustrator Linetype No. 142
 72
    65
 73
     6
 40
45.35714174037394
 49
22.67857103840452
 74
     0
 49
-4.535714140393883
 74
     0
 49
4.535714140393883
 74
     0
 49
-4.535714140393883
 74
     0
 49
4.535714140393883
 74
     0
 49
-4.535714140393883
 74
     0
  0
LTYPE
  5
208
330
5
100
AcDbSymbolTableRecord
100
AcDbLinetypeTableRecord
  2
AI-Linetype-143
 70
     0
  3
Adobe Illustrator Linetype No. 143
 72
    65
 73
     6
 40
45.35714174037394
 49
22.67857103840452
 74
     0
 49
-4.535714140393883
 74
     0
 49
4.535714140393883
 74
     0
 49
-4.535714140393883
 74
     0
 49
4.535714140393883
 74
     0
 49
-4.535714140393883
 74
     0
  0
LTYPE
  5
20A
330
5
100
AcDbSymbolTableRecord
100
AcDbLinetypeTableRecord
  2
AI-Linetype-144
 70
     0
  3
Adobe Illustrator Linetype No. 144
 72
    65
 73
     6
 40
45.35714174037394
 49
22.67857103840452
 74
     0
 49
-4.535714140393883
 74
     0
 49
4.535714140393883
 74
     0
 49
-4.535714140393883
 74
     0
 49
4.535714140393883
 74
     0
 49
-4.535714140393883
 74
     0
  0
LTYPE
  5
20C
330
5
100
AcDbSymbolTableRecord
100
AcDbLinetypeTableRecord
  2
AI-Linetype-145
 70
     0
  3
Adobe Illustrator Linetype No. 145
 72
    65
 73
     6
 40
45.35714174037394
 49
22.67857103840452
 74
     0
 49
-4.535714140393883
 74
     0
 49
4.535714140393883
 74
     0
 49
-4.535714140393883
 74
     0
 49
4.535714140393883
 74
     0
 49
-4.535714140393883
 74
     0
  0
LTYPE
  5
20E
330
5
100
AcDbSymbolTableRecord
100
AcDbLinetypeTableRecord
  2
AI-Linetype-146
 70
     0
  3
Adobe Illustrator Linetype No. 146
 72
    65
 73
     6
 40
45.35714174037394
 49
22.67857103840452
 74
     0
 49
-4.535714140393883
 74
     0
 49
4.535714140393883
 74
     0
 49
-4.535714140393883
 74
     0
 49
4.535714140393883
 74
     0
 49
-4.535714140393883
 74
     0
  0
LTYPE
  5
210
330
5
100
AcDbSymbolTableRecord
100
AcDbLinetypeTableRecord
  2
AI-Linetype-147
 70
     0
  3
Adobe Illustrator Linetype No. 147
 72
    65
 73
     6
 40
45.35714174037394
 49
22.67857103840452
 74
     0
 49
-4.535714140393883
 74
     0
 49
4.535714140393883
 74
     0
 49
-4.535714140393883
 74
     0
 49
4.535714140393883
 74
     0
 49
-4.535714140393883
 74
     0
  0
LTYPE
  5
212
330
5
100
AcDbSymbolTableRecord
100
AcDbLinetypeTableRecord
  2
AI-Linetype-148
 70
     0
  3
Adobe Illustrator Linetype No. 148
 72
    65
 73
     6
 40
45.35714174037394
 49
22.67857103840452
 74
     0
 49
-4.535714140393883
 74
     0
 49
4.535714140393883
 74
     0
 49
-4.535714140393883
 74
     0
 49
4.535714140393883
 74
     0
 49
-4.535714140393883
 74
     0
  0
LTYPE
  5
214
330
5
100
AcDbSymbolTableRecord
100
AcDbLinetypeTableRecord
  2
AI-Linetype-149
 70
     0
  3
Adobe Illustrator Linetype No. 149
 72
    65
 73
     6
 40
45.35714174037394
 49
22.67857103840452
 74
     0
 49
-4.535714140393883
 74
     0
 49
4.535714140393883
 74
     0
 49
-4.535714140393883
 74
     0
 49
4.535714140393883
 74
     0
 49
-4.535714140393883
 74
     0
  0
LTYPE
  5
216
330
5
100
AcDbSymbolTableRecord
100
AcDbLinetypeTableRecord
  2
AI-Linetype-150
 70
     0
  3
Adobe Illustrator Linetype No. 150
 72
    65
 73
     6
 40
45.35714174037394
 49
22.67857103840452
 74
     0
 49
-4.535714140393883
 74
     0
 49
4.535714140393883
 74
     0
 49
-4.535714140393883
 74
     0
 49
4.535714140393883
 74
     0
 49
-4.535714140393883
 74
     0
  0
LTYPE
  5
218
330
5
100
AcDbSymbolTableRecord
100
AcDbLinetypeTableRecord
  2
AI-Linetype-151
 70
     0
  3
Adobe Illustrator Linetype No. 151
 72
    65
 73
     6
 40
45.35714174037394
 49
22.67857103840452
 74
     0
 49
-4.535714140393883
 74
     0
 49
4.535714140393883
 74
     0
 49
-4.535714140393883
 74
     0
 49
4.535714140393883
 74
     0
 49
-4.535714140393883
 74
     0
  0
LTYPE
  5
21A
330
5
100
AcDbSymbolTableRecord
100
AcDbLinetypeTableRecord
  2
AI-Linetype-152
 70
     0
  3
Adobe Illustrator Linetype No. 152
 72
    65
 73
     6
 40
45.35714174037394
 49
22.67857103840452
 74
     0
 49
-4.535714140393883
 74
     0
 49
4.535714140393883
 74
     0
 49
-4.535714140393883
 74
     0
 49
4.535714140393883
 74
     0
 49
-4.535714140393883
 74
     0
  0
LTYPE
  5
21C
330
5
100
AcDbSymbolTableRecord
100
AcDbLinetypeTableRecord
  2
AI-Linetype-153
 70
     0
  3
Adobe Illustrator Linetype No. 153
 72
    65
 73
     6
 40
45.35714174037394
 49
22.67857103840452
 74
     0
 49
-4.535714140393883
 74
     0
 49
4.535714140393883
 74
     0
 49
-4.535714140393883
 74
     0
 49
4.535714140393883
 74
     0
 49
-4.535714140393883
 74
     0
  0
LTYPE
  5
21E
330
5
100
AcDbSymbolTableRecord
100
AcDbLinetypeTableRecord
  2
AI-Linetype-154
 70
     0
  3
Adobe Illustrator Linetype No. 154
 72
    65
 73
     6
 40
45.35714174037394
 49
22.67857103840452
 74
     0
 49
-4.535714140393883
 74
     0
 49
4.535714140393883
 74
     0
 49
-4.535714140393883
 74
     0
 49
4.535714140393883
 74
     0
 49
-4.535714140393883
 74
     0
  0
LTYPE
  5
220
330
5
100
AcDbSymbolTableRecord
100
AcDbLinetypeTableRecord
  2
AI-Linetype-155
 70
     0
  3
Adobe Illustrator Linetype No. 155
 72
    65
 73
     6
 40
45.35714174037394
 49
22.67857103840452
 74
     0
 49
-4.535714140393883
 74
     0
 49
4.535714140393883
 74
     0
 49
-4.535714140393883
 74
     0
 49
4.535714140393883
 74
     0
 49
-4.535714140393883
 74
     0
  0
LTYPE
  5
222
330
5
100
AcDbSymbolTableRecord
100
AcDbLinetypeTableRecord
  2
AI-Linetype-156
 70
     0
  3
Adobe Illustrator Linetype No. 156
 72
    65
 73
     6
 40
45.35714174037394
 49
22.67857103840452
 74
     0
 49
-4.535714140393883
 74
     0
 49
4.535714140393883
 74
     0
 49
-4.535714140393883
 74
     0
 49
4.535714140393883
 74
     0
 49
-4.535714140393883
 74
     0
  0
LTYPE
  5
224
330
5
100
AcDbSymbolTableRecord
100
AcDbLinetypeTableRecord
  2
AI-Linetype-157
 70
     0
  3
Adobe Illustrator Linetype No. 157
 72
    65
 73
     6
 40
45.35714174037394
 49
22.67857103840452
 74
     0
 49
-4.535714140393883
 74
     0
 49
4.535714140393883
 74
     0
 49
-4.535714140393883
 74
     0
 49
4.535714140393883
 74
     0
 49
-4.535714140393883
 74
     0
  0
LTYPE
  5
226
330
5
100
AcDbSymbolTableRecord
100
AcDbLinetypeTableRecord
  2
AI-Linetype-158
 70
     0
  3
Adobe Illustrator Linetype No. 158
 72
    65
 73
     6
 40
45.35714174037394
 49
22.67857103840452
 74
     0
 49
-4.535714140393883
 74
     0
 49
4.535714140393883
 74
     0
 49
-4.535714140393883
 74
     0
 49
4.535714140393883
 74
     0
 49
-4.535714140393883
 74
     0
  0
LTYPE
  5
228
330
5
100
AcDbSymbolTableRecord
100
AcDbLinetypeTableRecord
  2
AI-Linetype-159
 70
     0
  3
Adobe Illustrator Linetype No. 159
 72
    65
 73
     6
 40
45.35714174037394
 49
22.67857103840452
 74
     0
 49
-4.535714140393883
 74
     0
 49
4.535714140393883
 74
     0
 49
-4.535714140393883
 74
     0
 49
4.535714140393883
 74
     0
 49
-4.535714140393883
 74
     0
  0
LTYPE
  5
22A
330
5
100
AcDbSymbolTableRecord
100
AcDbLinetypeTableRecord
  2
AI-Linetype-160
 70
     0
  3
Adobe Illustrator Linetype No. 160
 72
    65
 73
     6
 40
45.35714174037394
 49
22.67857103840452
 74
     0
 49
-4.535714140393883
 74
     0
 49
4.535714140393883
 74
     0
 49
-4.535714140393883
 74
     0
 49
4.535714140393883
 74
     0
 49
-4.535714140393883
 74
     0
  0
LTYPE
  5
22C
330
5
100
AcDbSymbolTableRecord
100
AcDbLinetypeTableRecord
  2
AI-Linetype-161
 70
     0
  3
Adobe Illustrator Linetype No. 161
 72
    65
 73
     6
 40
45.35714174037394
 49
22.67857103840452
 74
     0
 49
-4.535714140393883
 74
     0
 49
4.535714140393883
 74
     0
 49
-4.535714140393883
 74
     0
 49
4.535714140393883
 74
     0
 49
-4.535714140393883
 74
     0
  0
LTYPE
  5
22E
330
5
100
AcDbSymbolTableRecord
100
AcDbLinetypeTableRecord
  2
AI-Linetype-162
 70
     0
  3
Adobe Illustrator Linetype No. 162
 72
    65
 73
     6
 40
45.35714174037394
 49
22.67857103840452
 74
     0
 49
-4.535714140393883
 74
     0
 49
4.535714140393883
 74
     0
 49
-4.535714140393883
 74
     0
 49
4.535714140393883
 74
     0
 49
-4.535714140393883
 74
     0
  0
LTYPE
  5
230
330
5
100
AcDbSymbolTableRecord
100
AcDbLinetypeTableRecord
  2
AI-Linetype-163
 70
     0
  3
Adobe Illustrator Linetype No. 163
 72
    65
 73
     6
 40
45.35714174037394
 49
22.67857103840452
 74
     0
 49
-4.535714140393883
 74
     0
 49
4.535714140393883
 74
     0
 49
-4.535714140393883
 74
     0
 49
4.535714140393883
 74
     0
 49
-4.535714140393883
 74
     0
  0
LTYPE
  5
232
330
5
100
AcDbSymbolTableRecord
100
AcDbLinetypeTableRecord
  2
AI-Linetype-164
 70
     0
  3
Adobe Illustrator Linetype No. 164
 72
    65
 73
     6
 40
45.35714174037394
 49
22.67857103840452
 74
     0
 49
-4.535714140393883
 74
     0
 49
4.535714140393883
 74
     0
 49
-4.535714140393883
 74
     0
 49
4.535714140393883
 74
     0
 49
-4.535714140393883
 74
     0
  0
LTYPE
  5
234
330
5
100
AcDbSymbolTableRecord
100
AcDbLinetypeTableRecord
  2
AI-Linetype-165
 70
     0
  3
Adobe Illustrator Linetype No. 165
 72
    65
 73
     6
 40
45.35714174037394
 49
22.67857103840452
 74
     0
 49
-4.535714140393883
 74
     0
 49
4.535714140393883
 74
     0
 49
-4.535714140393883
 74
     0
 49
4.535714140393883
 74
     0
 49
-4.535714140393883
 74
     0
  0
LTYPE
  5
236
330
5
100
AcDbSymbolTableRecord
100
AcDbLinetypeTableRecord
  2
AI-Linetype-166
 70
     0
  3
Adobe Illustrator Linetype No. 166
 72
    65
 73
     6
 40
45.35714174037394
 49
22.67857103840452
 74
     0
 49
-4.535714140393883
 74
     0
 49
4.535714140393883
 74
     0
 49
-4.535714140393883
 74
     0
 49
4.535714140393883
 74
     0
 49
-4.535714140393883
 74
     0
  0
LTYPE
  5
238
330
5
100
AcDbSymbolTableRecord
100
AcDbLinetypeTableRecord
  2
AI-Linetype-167
 70
     0
  3
Adobe Illustrator Linetype No. 167
 72
    65
 73
     6
 40
45.35714174037394
 49
22.67857103840452
 74
     0
 49
-4.535714140393883
 74
     0
 49
4.535714140393883
 74
     0
 49
-4.535714140393883
 74
     0
 49
4.535714140393883
 74
     0
 49
-4.535714140393883
 74
     0
  0
LTYPE
  5
23A
330
5
100
AcDbSymbolTableRecord
100
AcDbLinetypeTableRecord
  2
AI-Linetype-168
 70
     0
  3
Adobe Illustrator Linetype No. 168
 72
    65
 73
     6
 40
45.35714174037394
 49
22.67857103840452
 74
     0
 49
-4.535714140393883
 74
     0
 49
4.535714140393883
 74
     0
 49
-4.535714140393883
 74
     0
 49
4.535714140393883
 74
     0
 49
-4.535714140393883
 74
     0
  0
LTYPE
  5
23C
330
5
100
AcDbSymbolTableRecord
100
AcDbLinetypeTableRecord
  2
AI-Linetype-169
 70
     0
  3
Adobe Illustrator Linetype No. 169
 72
    65
 73
     6
 40
45.35714174037394
 49
22.67857103840452
 74
     0
 49
-4.535714140393883
 74
     0
 49
4.535714140393883
 74
     0
 49
-4.535714140393883
 74
     0
 49
4.535714140393883
 74
     0
 49
-4.535714140393883
 74
     0
  0
LTYPE
  5
23E
330
5
100
AcDbSymbolTableRecord
100
AcDbLinetypeTableRecord
  2
AI-Linetype-170
 70
     0
  3
Adobe Illustrator Linetype No. 170
 72
    65
 73
     6
 40
45.35714174037394
 49
22.67857103840452
 74
     0
 49
-4.535714140393883
 74
     0
 49
4.535714140393883
 74
     0
 49
-4.535714140393883
 74
     0
 49
4.535714140393883
 74
     0
 49
-4.535714140393883
 74
     0
  0
LTYPE
  5
240
330
5
100
AcDbSymbolTableRecord
100
AcDbLinetypeTableRecord
  2
AI-Linetype-171
 70
     0
  3
Adobe Illustrator Linetype No. 171
 72
    65
 73
     6
 40
45.35714174037394
 49
22.67857103840452
 74
     0
 49
-4.535714140393883
 74
     0
 49
4.535714140393883
 74
     0
 49
-4.535714140393883
 74
     0
 49
4.535714140393883
 74
     0
 49
-4.535714140393883
 74
     0
  0
LTYPE
  5
242
330
5
100
AcDbSymbolTableRecord
100
AcDbLinetypeTableRecord
  2
AI-Linetype-172
 70
     0
  3
Adobe Illustrator Linetype No. 172
 72
    65
 73
     6
 40
45.35714174037394
 49
22.67857103840452
 74
     0
 49
-4.535714140393883
 74
     0
 49
4.535714140393883
 74
     0
 49
-4.535714140393883
 74
     0
 49
4.535714140393883
 74
     0
 49
-4.535714140393883
 74
     0
  0
LTYPE
  5
244
330
5
100
AcDbSymbolTableRecord
100
AcDbLinetypeTableRecord
  2
AI-Linetype-173
 70
     0
  3
Adobe Illustrator Linetype No. 173
 72
    65
 73
     6
 40
45.35714174037394
 49
22.67857103840452
 74
     0
 49
-4.535714140393883
 74
     0
 49
4.535714140393883
 74
     0
 49
-4.535714140393883
 74
     0
 49
4.535714140393883
 74
     0
 49
-4.535714140393883
 74
     0
  0
LTYPE
  5
246
330
5
100
AcDbSymbolTableRecord
100
AcDbLinetypeTableRecord
  2
AI-Linetype-174
 70
     0
  3
Adobe Illustrator Linetype No. 174
 72
    65
 73
     6
 40
45.35714174037394
 49
22.67857103840452
 74
     0
 49
-4.535714140393883
 74
     0
 49
4.535714140393883
 74
     0
 49
-4.535714140393883
 74
     0
 49
4.535714140393883
 74
     0
 49
-4.535714140393883
 74
     0
  0
LTYPE
  5
248
330
5
100
AcDbSymbolTableRecord
100
AcDbLinetypeTableRecord
  2
AI-Linetype-175
 70
     0
  3
Adobe Illustrator Linetype No. 175
 72
    65
 73
     6
 40
45.35714174037394
 49
22.67857103840452
 74
     0
 49
-4.535714140393883
 74
     0
 49
4.535714140393883
 74
     0
 49
-4.535714140393883
 74
     0
 49
4.535714140393883
 74
     0
 49
-4.535714140393883
 74
     0
  0
LTYPE
  5
24A
330
5
100
AcDbSymbolTableRecord
100
AcDbLinetypeTableRecord
  2
AI-Linetype-176
 70
     0
  3
Adobe Illustrator Linetype No. 176
 72
    65
 73
     6
 40
45.35714174037394
 49
22.67857103840452
 74
     0
 49
-4.535714140393883
 74
     0
 49
4.535714140393883
 74
     0
 49
-4.535714140393883
 74
     0
 49
4.535714140393883
 74
     0
 49
-4.535714140393883
 74
     0
  0
LTYPE
  5
24C
330
5
100
AcDbSymbolTableRecord
100
AcDbLinetypeTableRecord
  2
AI-Linetype-177
 70
     0
  3
Adobe Illustrator Linetype No. 177
 72
    65
 73
     6
 40
45.35714174037394
 49
22.67857103840452
 74
     0
 49
-4.535714140393883
 74
     0
 49
4.535714140393883
 74
     0
 49
-4.535714140393883
 74
     0
 49
4.535714140393883
 74
     0
 49
-4.535714140393883
 74
     0
  0
LTYPE
  5
24E
330
5
100
AcDbSymbolTableRecord
100
AcDbLinetypeTableRecord
  2
AI-Linetype-178
 70
     0
  3
Adobe Illustrator Linetype No. 178
 72
    65
 73
     6
 40
45.35714174037394
 49
22.67857103840452
 74
     0
 49
-4.535714140393883
 74
     0
 49
4.535714140393883
 74
     0
 49
-4.535714140393883
 74
     0
 49
4.535714140393883
 74
     0
 49
-4.535714140393883
 74
     0
  0
LTYPE
  5
250
330
5
100
AcDbSymbolTableRecord
100
AcDbLinetypeTableRecord
  2
AI-Linetype-179
 70
     0
  3
Adobe Illustrator Linetype No. 179
 72
    65
 73
     6
 40
45.35714174037394
 49
22.67857103840452
 74
     0
 49
-4.535714140393883
 74
     0
 49
4.535714140393883
 74
     0
 49
-4.535714140393883
 74
     0
 49
4.535714140393883
 74
     0
 49
-4.535714140393883
 74
     0
  0
LTYPE
  5
252
330
5
100
AcDbSymbolTableRecord
100
AcDbLinetypeTableRecord
  2
AI-Linetype-180
 70
     0
  3
Adobe Illustrator Linetype No. 180
 72
    65
 73
     6
 40
45.35714174037394
 49
22.67857103840452
 74
     0
 49
-4.535714140393883
 74
     0
 49
4.535714140393883
 74
     0
 49
-4.535714140393883
 74
     0
 49
4.535714140393883
 74
     0
 49
-4.535714140393883
 74
     0
  0
LTYPE
  5
254
330
5
100
AcDbSymbolTableRecord
100
AcDbLinetypeTableRecord
  2
AI-Linetype-181
 70
     0
  3
Adobe Illustrator Linetype No. 181
 72
    65
 73
     6
 40
45.35714174037394
 49
22.67857103840452
 74
     0
 49
-4.535714140393883
 74
     0
 49
4.535714140393883
 74
     0
 49
-4.535714140393883
 74
     0
 49
4.535714140393883
 74
     0
 49
-4.535714140393883
 74
     0
  0
LTYPE
  5
256
330
5
100
AcDbSymbolTableRecord
100
AcDbLinetypeTableRecord
  2
AI-Linetype-182
 70
     0
  3
Adobe Illustrator Linetype No. 182
 72
    65
 73
     6
 40
45.35714174037394
 49
22.67857103840452
 74
     0
 49
-4.535714140393883
 74
     0
 49
4.535714140393883
 74
     0
 49
-4.535714140393883
 74
     0
 49
4.535714140393883
 74
     0
 49
-4.535714140393883
 74
     0
  0
LTYPE
  5
258
330
5
100
AcDbSymbolTableRecord
100
AcDbLinetypeTableRecord
  2
AI-Linetype-183
 70
     0
  3
Adobe Illustrator Linetype No. 183
 72
    65
 73
     6
 40
45.35714174037394
 49
22.67857103840452
 74
     0
 49
-4.535714140393883
 74
     0
 49
4.535714140393883
 74
     0
 49
-4.535714140393883
 74
     0
 49
4.535714140393883
 74
     0
 49
-4.535714140393883
 74
     0
  0
LTYPE
  5
25A
330
5
100
AcDbSymbolTableRecord
100
AcDbLinetypeTableRecord
  2
AI-Linetype-184
 70
     0
  3
Adobe Illustrator Linetype No. 184
 72
    65
 73
     6
 40
45.35714174037394
 49
22.67857103840452
 74
     0
 49
-4.535714140393883
 74
     0
 49
4.535714140393883
 74
     0
 49
-4.535714140393883
 74
     0
 49
4.535714140393883
 74
     0
 49
-4.535714140393883
 74
     0
  0
LTYPE
  5
25C
330
5
100
AcDbSymbolTableRecord
100
AcDbLinetypeTableRecord
  2
AI-Linetype-185
 70
     0
  3
Adobe Illustrator Linetype No. 185
 72
    65
 73
     6
 40
45.35714174037394
 49
22.67857103840452
 74
     0
 49
-4.535714140393883
 74
     0
 49
4.535714140393883
 74
     0
 49
-4.535714140393883
 74
     0
 49
4.535714140393883
 74
     0
 49
-4.535714140393883
 74
     0
  0
LTYPE
  5
25E
330
5
100
AcDbSymbolTableRecord
100
AcDbLinetypeTableRecord
  2
AI-Linetype-186
 70
     0
  3
Adobe Illustrator Linetype No. 186
 72
    65
 73
     6
 40
45.35714174037394
 49
22.67857103840452
 74
     0
 49
-4.535714140393883
 74
     0
 49
4.535714140393883
 74
     0
 49
-4.535714140393883
 74
     0
 49
4.535714140393883
 74
     0
 49
-4.535714140393883
 74
     0
  0
LTYPE
  5
260
330
5
100
AcDbSymbolTableRecord
100
AcDbLinetypeTableRecord
  2
AI-Linetype-187
 70
     0
  3
Adobe Illustrator Linetype No. 187
 72
    65
 73
     6
 40
45.35714174037394
 49
22.67857103840452
 74
     0
 49
-4.535714140393883
 74
     0
 49
4.535714140393883
 74
     0
 49
-4.535714140393883
 74
     0
 49
4.535714140393883
 74
     0
 49
-4.535714140393883
 74
     0
  0
LTYPE
  5
262
330
5
100
AcDbSymbolTableRecord
100
AcDbLinetypeTableRecord
  2
AI-Linetype-188
 70
     0
  3
Adobe Illustrator Linetype No. 188
 72
    65
 73
     6
 40
45.35714174037394
 49
22.67857103840452
 74
     0
 49
-4.535714140393883
 74
     0
 49
4.535714140393883
 74
     0
 49
-4.535714140393883
 74
     0
 49
4.535714140393883
 74
     0
 49
-4.535714140393883
 74
     0
  0
LTYPE
  5
264
330
5
100
AcDbSymbolTableRecord
100
AcDbLinetypeTableRecord
  2
AI-Linetype-189
 70
     0
  3
Adobe Illustrator Linetype No. 189
 72
    65
 73
     6
 40
45.35714174037394
 49
22.67857103840452
 74
     0
 49
-4.535714140393883
 74
     0
 49
4.535714140393883
 74
     0
 49
-4.535714140393883
 74
     0
 49
4.535714140393883
 74
     0
 49
-4.535714140393883
 74
     0
  0
LTYPE
  5
266
330
5
100
AcDbSymbolTableRecord
100
AcDbLinetypeTableRecord
  2
AI-Linetype-190
 70
     0
  3
Adobe Illustrator Linetype No. 190
 72
    65
 73
     6
 40
45.35714174037394
 49
22.67857103840452
 74
     0
 49
-4.535714140393883
 74
     0
 49
4.535714140393883
 74
     0
 49
-4.535714140393883
 74
     0
 49
4.535714140393883
 74
     0
 49
-4.535714140393883
 74
     0
  0
LTYPE
  5
268
330
5
100
AcDbSymbolTableRecord
100
AcDbLinetypeTableRecord
  2
AI-Linetype-191
 70
     0
  3
Adobe Illustrator Linetype No. 191
 72
    65
 73
     6
 40
45.35714174037394
 49
22.67857103840452
 74
     0
 49
-4.535714140393883
 74
     0
 49
4.535714140393883
 74
     0
 49
-4.535714140393883
 74
     0
 49
4.535714140393883
 74
     0
 49
-4.535714140393883
 74
     0
  0
LTYPE
  5
26A
330
5
100
AcDbSymbolTableRecord
100
AcDbLinetypeTableRecord
  2
AI-Linetype-192
 70
     0
  3
Adobe Illustrator Linetype No. 192
 72
    65
 73
     6
 40
45.35714174037394
 49
22.67857103840452
 74
     0
 49
-4.535714140393883
 74
     0
 49
4.535714140393883
 74
     0
 49
-4.535714140393883
 74
     0
 49
4.535714140393883
 74
     0
 49
-4.535714140393883
 74
     0
  0
LTYPE
  5
26C
330
5
100
AcDbSymbolTableRecord
100
AcDbLinetypeTableRecord
  2
AI-Linetype-193
 70
     0
  3
Adobe Illustrator Linetype No. 193
 72
    65
 73
     6
 40
45.35714174037394
 49
22.67857103840452
 74
     0
 49
-4.535714140393883
 74
     0
 49
4.535714140393883
 74
     0
 49
-4.535714140393883
 74
     0
 49
4.535714140393883
 74
     0
 49
-4.535714140393883
 74
     0
  0
LTYPE
  5
26E
330
5
100
AcDbSymbolTableRecord
100
AcDbLinetypeTableRecord
  2
AI-Linetype-194
 70
     0
  3
Adobe Illustrator Linetype No. 194
 72
    65
 73
     6
 40
45.35714174037394
 49
22.67857103840452
 74
     0
 49
-4.535714140393883
 74
     0
 49
4.535714140393883
 74
     0
 49
-4.535714140393883
 74
     0
 49
4.535714140393883
 74
     0
 49
-4.535714140393883
 74
     0
  0
LTYPE
  5
270
330
5
100
AcDbSymbolTableRecord
100
AcDbLinetypeTableRecord
  2
AI-Linetype-195
 70
     0
  3
Adobe Illustrator Linetype No. 195
 72
    65
 73
     6
 40
45.35714174037394
 49
22.67857103840452
 74
     0
 49
-4.535714140393883
 74
     0
 49
4.535714140393883
 74
     0
 49
-4.535714140393883
 74
     0
 49
4.535714140393883
 74
     0
 49
-4.535714140393883
 74
     0
  0
LTYPE
  5
272
330
5
100
AcDbSymbolTableRecord
100
AcDbLinetypeTableRecord
  2
AI-Linetype-196
 70
     0
  3
Adobe Illustrator Linetype No. 196
 72
    65
 73
     6
 40
45.35714174037394
 49
22.67857103840452
 74
     0
 49
-4.535714140393883
 74
     0
 49
4.535714140393883
 74
     0
 49
-4.535714140393883
 74
     0
 49
4.535714140393883
 74
     0
 49
-4.535714140393883
 74
     0
  0
LTYPE
  5
274
330
5
100
AcDbSymbolTableRecord
100
AcDbLinetypeTableRecord
  2
AI-Linetype-197
 70
     0
  3
Adobe Illustrator Linetype No. 197
 72
    65
 73
     6
 40
45.35714174037394
 49
22.67857103840452
 74
     0
 49
-4.535714140393883
 74
     0
 49
4.535714140393883
 74
     0
 49
-4.535714140393883
 74
     0
 49
4.535714140393883
 74
     0
 49
-4.535714140393883
 74
     0
  0
LTYPE
  5
276
330
5
100
AcDbSymbolTableRecord
100
AcDbLinetypeTableRecord
  2
AI-Linetype-198
 70
     0
  3
Adobe Illustrator Linetype No. 198
 72
    65
 73
     6
 40
45.35714174037394
 49
22.67857103840452
 74
     0
 49
-4.535714140393883
 74
     0
 49
4.535714140393883
 74
     0
 49
-4.535714140393883
 74
     0
 49
4.535714140393883
 74
     0
 49
-4.535714140393883
 74
     0
  0
LTYPE
  5
278
330
5
100
AcDbSymbolTableRecord
100
AcDbLinetypeTableRecord
  2
AI-Linetype-199
 70
     0
  3
Adobe Illustrator Linetype No. 199
 72
    65
 73
     6
 40
45.35714174037394
 49
22.67857103840452
 74
     0
 49
-4.535714140393883
 74
     0
 49
4.535714140393883
 74
     0
 49
-4.535714140393883
 74
     0
 49
4.535714140393883
 74
     0
 49
-4.535714140393883
 74
     0
  0
LTYPE
  5
27A
330
5
100
AcDbSymbolTableRecord
100
AcDbLinetypeTableRecord
  2
AI-Linetype-200
 70
     0
  3
Adobe Illustrator Linetype No. 200
 72
    65
 73
     6
 40
45.35714174037394
 49
22.67857103840452
 74
     0
 49
-4.535714140393883
 74
     0
 49
4.535714140393883
 74
     0
 49
-4.535714140393883
 74
     0
 49
4.535714140393883
 74
     0
 49
-4.535714140393883
 74
     0
  0
LTYPE
  5
27C
330
5
100
AcDbSymbolTableRecord
100
AcDbLinetypeTableRecord
  2
AI-Linetype-201
 70
     0
  3
Adobe Illustrator Linetype No. 201
 72
    65
 73
     6
 40
45.35714174037394
 49
22.67857103840452
 74
     0
 49
-4.535714140393883
 74
     0
 49
4.535714140393883
 74
     0
 49
-4.535714140393883
 74
     0
 49
4.535714140393883
 74
     0
 49
-4.535714140393883
 74
     0
  0
LTYPE
  5
27E
330
5
100
AcDbSymbolTableRecord
100
AcDbLinetypeTableRecord
  2
AI-Linetype-202
 70
     0
  3
Adobe Illustrator Linetype No. 202
 72
    65
 73
     6
 40
45.35714174037394
 49
22.67857103840452
 74
     0
 49
-4.535714140393883
 74
     0
 49
4.535714140393883
 74
     0
 49
-4.535714140393883
 74
     0
 49
4.535714140393883
 74
     0
 49
-4.535714140393883
 74
     0
  0
LTYPE
  5
280
330
5
100
AcDbSymbolTableRecord
100
AcDbLinetypeTableRecord
  2
AI-Linetype-203
 70
     0
  3
Adobe Illustrator Linetype No. 203
 72
    65
 73
     6
 40
45.35714174037394
 49
22.67857103840452
 74
     0
 49
-4.535714140393883
 74
     0
 49
4.535714140393883
 74
     0
 49
-4.535714140393883
 74
     0
 49
4.535714140393883
 74
     0
 49
-4.535714140393883
 74
     0
  0
LTYPE
  5
282
330
5
100
AcDbSymbolTableRecord
100
AcDbLinetypeTableRecord
  2
AI-Linetype-204
 70
     0
  3
Adobe Illustrator Linetype No. 204
 72
    65
 73
     6
 40
45.35714174037394
 49
22.67857103840452
 74
     0
 49
-4.535714140393883
 74
     0
 49
4.535714140393883
 74
     0
 49
-4.535714140393883
 74
     0
 49
4.535714140393883
 74
     0
 49
-4.535714140393883
 74
     0
  0
LTYPE
  5
284
330
5
100
AcDbSymbolTableRecord
100
AcDbLinetypeTableRecord
  2
AI-Linetype-205
 70
     0
  3
Adobe Illustrator Linetype No. 205
 72
    65
 73
     6
 40
45.35714174037394
 49
22.67857103840452
 74
     0
 49
-4.535714140393883
 74
     0
 49
4.535714140393883
 74
     0
 49
-4.535714140393883
 74
     0
 49
4.535714140393883
 74
     0
 49
-4.535714140393883
 74
     0
  0
LTYPE
  5
286
330
5
100
AcDbSymbolTableRecord
100
AcDbLinetypeTableRecord
  2
AI-Linetype-206
 70
     0
  3
Adobe Illustrator Linetype No. 206
 72
    65
 73
     6
 40
45.35714174037394
 49
22.67857103840452
 74
     0
 49
-4.535714140393883
 74
     0
 49
4.535714140393883
 74
     0
 49
-4.535714140393883
 74
     0
 49
4.535714140393883
 74
     0
 49
-4.535714140393883
 74
     0
  0
LTYPE
  5
288
330
5
100
AcDbSymbolTableRecord
100
AcDbLinetypeTableRecord
  2
AI-Linetype-207
 70
     0
  3
Adobe Illustrator Linetype No. 207
 72
    65
 73
     6
 40
45.35714174037394
 49
22.67857103840452
 74
     0
 49
-4.535714140393883
 74
     0
 49
4.535714140393883
 74
     0
 49
-4.535714140393883
 74
     0
 49
4.535714140393883
 74
     0
 49
-4.535714140393883
 74
     0
  0
LTYPE
  5
28A
330
5
100
AcDbSymbolTableRecord
100
AcDbLinetypeTableRecord
  2
AI-Linetype-208
 70
     0
  3
Adobe Illustrator Linetype No. 208
 72
    65
 73
     6
 40
45.35714174037394
 49
22.67857103840452
 74
     0
 49
-4.535714140393883
 74
     0
 49
4.535714140393883
 74
     0
 49
-4.535714140393883
 74
     0
 49
4.535714140393883
 74
     0
 49
-4.535714140393883
 74
     0
  0
LTYPE
  5
28C
330
5
100
AcDbSymbolTableRecord
100
AcDbLinetypeTableRecord
  2
AI-Linetype-209
 70
     0
  3
Adobe Illustrator Linetype No. 209
 72
    65
 73
     6
 40
45.35714174037394
 49
22.67857103840452
 74
     0
 49
-4.535714140393883
 74
     0
 49
4.535714140393883
 74
     0
 49
-4.535714140393883
 74
     0
 49
4.535714140393883
 74
     0
 49
-4.535714140393883
 74
     0
  0
LTYPE
  5
28E
330
5
100
AcDbSymbolTableRecord
100
AcDbLinetypeTableRecord
  2
AI-Linetype-210
 70
     0
  3
Adobe Illustrator Linetype No. 210
 72
    65
 73
     6
 40
45.35714174037394
 49
22.67857103840452
 74
     0
 49
-4.535714140393883
 74
     0
 49
4.535714140393883
 74
     0
 49
-4.535714140393883
 74
     0
 49
4.535714140393883
 74
     0
 49
-4.535714140393883
 74
     0
  0
LTYPE
  5
290
330
5
100
AcDbSymbolTableRecord
100
AcDbLinetypeTableRecord
  2
AI-Linetype-211
 70
     0
  3
Adobe Illustrator Linetype No. 211
 72
    65
 73
     6
 40
45.35714174037394
 49
22.67857103840452
 74
     0
 49
-4.535714140393883
 74
     0
 49
4.535714140393883
 74
     0
 49
-4.535714140393883
 74
     0
 49
4.535714140393883
 74
     0
 49
-4.535714140393883
 74
     0
  0
LTYPE
  5
292
330
5
100
AcDbSymbolTableRecord
100
AcDbLinetypeTableRecord
  2
AI-Linetype-212
 70
     0
  3
Adobe Illustrator Linetype No. 212
 72
    65
 73
     6
 40
45.35714174037394
 49
22.67857103840452
 74
     0
 49
-4.535714140393883
 74
     0
 49
4.535714140393883
 74
     0
 49
-4.535714140393883
 74
     0
 49
4.535714140393883
 74
     0
 49
-4.535714140393883
 74
     0
  0
LTYPE
  5
294
330
5
100
AcDbSymbolTableRecord
100
AcDbLinetypeTableRecord
  2
AI-Linetype-213
 70
     0
  3
Adobe Illustrator Linetype No. 213
 72
    65
 73
     6
 40
45.35714174037394
 49
22.67857103840452
 74
     0
 49
-4.535714140393883
 74
     0
 49
4.535714140393883
 74
     0
 49
-4.535714140393883
 74
     0
 49
4.535714140393883
 74
     0
 49
-4.535714140393883
 74
     0
  0
LTYPE
  5
296
330
5
100
AcDbSymbolTableRecord
100
AcDbLinetypeTableRecord
  2
AI-Linetype-214
 70
     0
  3
Adobe Illustrator Linetype No. 214
 72
    65
 73
     6
 40
45.35714174037394
 49
22.67857103840452
 74
     0
 49
-4.535714140393883
 74
     0
 49
4.535714140393883
 74
     0
 49
-4.535714140393883
 74
     0
 49
4.535714140393883
 74
     0
 49
-4.535714140393883
 74
     0
  0
LTYPE
  5
298
330
5
100
AcDbSymbolTableRecord
100
AcDbLinetypeTableRecord
  2
AI-Linetype-215
 70
     0
  3
Adobe Illustrator Linetype No. 215
 72
    65
 73
     6
 40
45.35714174037394
 49
22.67857103840452
 74
     0
 49
-4.535714140393883
 74
     0
 49
4.535714140393883
 74
     0
 49
-4.535714140393883
 74
     0
 49
4.535714140393883
 74
     0
 49
-4.535714140393883
 74
     0
  0
LTYPE
  5
29A
330
5
100
AcDbSymbolTableRecord
100
AcDbLinetypeTableRecord
  2
AI-Linetype-216
 70
     0
  3
Adobe Illustrator Linetype No. 216
 72
    65
 73
     6
 40
45.35714174037394
 49
22.67857103840452
 74
     0
 49
-4.535714140393883
 74
     0
 49
4.535714140393883
 74
     0
 49
-4.535714140393883
 74
     0
 49
4.535714140393883
 74
     0
 49
-4.535714140393883
 74
     0
  0
LTYPE
  5
29C
330
5
100
AcDbSymbolTableRecord
100
AcDbLinetypeTableRecord
  2
AI-Linetype-217
 70
     0
  3
Adobe Illustrator Linetype No. 217
 72
    65
 73
     6
 40
45.35714174037394
 49
22.67857103840452
 74
     0
 49
-4.535714140393883
 74
     0
 49
4.535714140393883
 74
     0
 49
-4.535714140393883
 74
     0
 49
4.535714140393883
 74
     0
 49
-4.535714140393883
 74
     0
  0
LTYPE
  5
29E
330
5
100
AcDbSymbolTableRecord
100
AcDbLinetypeTableRecord
  2
AI-Linetype-218
 70
     0
  3
Adobe Illustrator Linetype No. 218
 72
    65
 73
     6
 40
45.35714174037394
 49
22.67857103840452
 74
     0
 49
-4.535714140393883
 74
     0
 49
4.535714140393883
 74
     0
 49
-4.535714140393883
 74
     0
 49
4.535714140393883
 74
     0
 49
-4.535714140393883
 74
     0
  0
LTYPE
  5
2A0
330
5
100
AcDbSymbolTableRecord
100
AcDbLinetypeTableRecord
  2
AI-Linetype-219
 70
     0
  3
Adobe Illustrator Linetype No. 219
 72
    65
 73
     6
 40
45.35714174037394
 49
22.67857103840452
 74
     0
 49
-4.535714140393883
 74
     0
 49
4.535714140393883
 74
     0
 49
-4.535714140393883
 74
     0
 49
4.535714140393883
 74
     0
 49
-4.535714140393883
 74
     0
  0
LTYPE
  5
2A2
330
5
100
AcDbSymbolTableRecord
100
AcDbLinetypeTableRecord
  2
AI-Linetype-220
 70
     0
  3
Adobe Illustrator Linetype No. 220
 72
    65
 73
     6
 40
45.35714174037394
 49
22.67857103840452
 74
     0
 49
-4.535714140393883
 74
     0
 49
4.535714140393883
 74
     0
 49
-4.535714140393883
 74
     0
 49
4.535714140393883
 74
     0
 49
-4.535714140393883
 74
     0
  0
LTYPE
  5
2A4
330
5
100
AcDbSymbolTableRecord
100
AcDbLinetypeTableRecord
  2
AI-Linetype-221
 70
     0
  3
Adobe Illustrator Linetype No. 221
 72
    65
 73
     6
 40
45.35714174037394
 49
22.67857103840452
 74
     0
 49
-4.535714140393883
 74
     0
 49
4.535714140393883
 74
     0
 49
-4.535714140393883
 74
     0
 49
4.535714140393883
 74
     0
 49
-4.535714140393883
 74
     0
  0
LTYPE
  5
2A6
330
5
100
AcDbSymbolTableRecord
100
AcDbLinetypeTableRecord
  2
AI-Linetype-222
 70
     0
  3
Adobe Illustrator Linetype No. 222
 72
    65
 73
     6
 40
45.35714174037394
 49
22.67857103840452
 74
     0
 49
-4.535714140393883
 74
     0
 49
4.535714140393883
 74
     0
 49
-4.535714140393883
 74
     0
 49
4.535714140393883
 74
     0
 49
-4.535714140393883
 74
     0
  0
LTYPE
  5
2A8
330
5
100
AcDbSymbolTableRecord
100
AcDbLinetypeTableRecord
  2
AI-Linetype-223
 70
     0
  3
Adobe Illustrator Linetype No. 223
 72
    65
 73
     6
 40
45.35714174037394
 49
22.67857103840452
 74
     0
 49
-4.535714140393883
 74
     0
 49
4.535714140393883
 74
     0
 49
-4.535714140393883
 74
     0
 49
4.535714140393883
 74
     0
 49
-4.535714140393883
 74
     0
  0
LTYPE
  5
2AA
330
5
100
AcDbSymbolTableRecord
100
AcDbLinetypeTableRecord
  2
AI-Linetype-224
 70
     0
  3
Adobe Illustrator Linetype No. 224
 72
    65
 73
     6
 40
45.35714174037394
 49
22.67857103840452
 74
     0
 49
-4.535714140393883
 74
     0
 49
4.535714140393883
 74
     0
 49
-4.535714140393883
 74
     0
 49
4.535714140393883
 74
     0
 49
-4.535714140393883
 74
     0
  0
LTYPE
  5
2AC
330
5
100
AcDbSymbolTableRecord
100
AcDbLinetypeTableRecord
  2
AI-Linetype-225
 70
     0
  3
Adobe Illustrator Linetype No. 225
 72
    65
 73
     6
 40
45.35714174037394
 49
22.67857103840452
 74
     0
 49
-4.535714140393883
 74
     0
 49
4.535714140393883
 74
     0
 49
-4.535714140393883
 74
     0
 49
4.535714140393883
 74
     0
 49
-4.535714140393883
 74
     0
  0
LTYPE
  5
2AE
330
5
100
AcDbSymbolTableRecord
100
AcDbLinetypeTableRecord
  2
AI-Linetype-226
 70
     0
  3
Adobe Illustrator Linetype No. 226
 72
    65
 73
     6
 40
45.35714174037394
 49
22.67857103840452
 74
     0
 49
-4.535714140393883
 74
     0
 49
4.535714140393883
 74
     0
 49
-4.535714140393883
 74
     0
 49
4.535714140393883
 74
     0
 49
-4.535714140393883
 74
     0
  0
LTYPE
  5
2B0
330
5
100
AcDbSymbolTableRecord
100
AcDbLinetypeTableRecord
  2
AI-Linetype-227
 70
     0
  3
Adobe Illustrator Linetype No. 227
 72
    65
 73
     6
 40
45.35714174037394
 49
22.67857103840452
 74
     0
 49
-4.535714140393883
 74
     0
 49
4.535714140393883
 74
     0
 49
-4.535714140393883
 74
     0
 49
4.535714140393883
 74
     0
 49
-4.535714140393883
 74
     0
  0
LTYPE
  5
2B2
330
5
100
AcDbSymbolTableRecord
100
AcDbLinetypeTableRecord
  2
AI-Linetype-228
 70
     0
  3
Adobe Illustrator Linetype No. 228
 72
    65
 73
     6
 40
45.35714174037394
 49
22.67857103840452
 74
     0
 49
-4.535714140393883
 74
     0
 49
4.535714140393883
 74
     0
 49
-4.535714140393883
 74
     0
 49
4.535714140393883
 74
     0
 49
-4.535714140393883
 74
     0
  0
LTYPE
  5
2B4
330
5
100
AcDbSymbolTableRecord
100
AcDbLinetypeTableRecord
  2
AI-Linetype-229
 70
     0
  3
Adobe Illustrator Linetype No. 229
 72
    65
 73
     6
 40
45.35714174037394
 49
22.67857103840452
 74
     0
 49
-4.535714140393883
 74
     0
 49
4.535714140393883
 74
     0
 49
-4.535714140393883
 74
     0
 49
4.535714140393883
 74
     0
 49
-4.535714140393883
 74
     0
  0
LTYPE
  5
2B6
330
5
100
AcDbSymbolTableRecord
100
AcDbLinetypeTableRecord
  2
AI-Linetype-230
 70
     0
  3
Adobe Illustrator Linetype No. 230
 72
    65
 73
     6
 40
45.35714174037394
 49
22.67857103840452
 74
     0
 49
-4.535714140393883
 74
     0
 49
4.535714140393883
 74
     0
 49
-4.535714140393883
 74
     0
 49
4.535714140393883
 74
     0
 49
-4.535714140393883
 74
     0
  0
LTYPE
  5
2B8
330
5
100
AcDbSymbolTableRecord
100
AcDbLinetypeTableRecord
  2
AI-Linetype-231
 70
     0
  3
Adobe Illustrator Linetype No. 231
 72
    65
 73
     6
 40
45.35714174037394
 49
22.67857103840452
 74
     0
 49
-4.535714140393883
 74
     0
 49
4.535714140393883
 74
     0
 49
-4.535714140393883
 74
     0
 49
4.535714140393883
 74
     0
 49
-4.535714140393883
 74
     0
  0
LTYPE
  5
2BA
330
5
100
AcDbSymbolTableRecord
100
AcDbLinetypeTableRecord
  2
AI-Linetype-232
 70
     0
  3
Adobe Illustrator Linetype No. 232
 72
    65
 73
     6
 40
45.35714174037394
 49
22.67857103840452
 74
     0
 49
-4.535714140393883
 74
     0
 49
4.535714140393883
 74
     0
 49
-4.535714140393883
 74
     0
 49
4.535714140393883
 74
     0
 49
-4.535714140393883
 74
     0
  0
LTYPE
  5
2BC
330
5
100
AcDbSymbolTableRecord
100
AcDbLinetypeTableRecord
  2
AI-Linetype-233
 70
     0
  3
Adobe Illustrator Linetype No. 233
 72
    65
 73
     6
 40
45.35714174037394
 49
22.67857103840452
 74
     0
 49
-4.535714140393883
 74
     0
 49
4.535714140393883
 74
     0
 49
-4.535714140393883
 74
     0
 49
4.535714140393883
 74
     0
 49
-4.535714140393883
 74
     0
  0
LTYPE
  5
2BE
330
5
100
AcDbSymbolTableRecord
100
AcDbLinetypeTableRecord
  2
AI-Linetype-234
 70
     0
  3
Adobe Illustrator Linetype No. 234
 72
    65
 73
     6
 40
45.35714174037394
 49
22.67857103840452
 74
     0
 49
-4.535714140393883
 74
     0
 49
4.535714140393883
 74
     0
 49
-4.535714140393883
 74
     0
 49
4.535714140393883
 74
     0
 49
-4.535714140393883
 74
     0
  0
LTYPE
  5
2C0
330
5
100
AcDbSymbolTableRecord
100
AcDbLinetypeTableRecord
  2
AI-Linetype-235
 70
     0
  3
Adobe Illustrator Linetype No. 235
 72
    65
 73
     6
 40
45.35714174037394
 49
22.67857103840452
 74
     0
 49
-4.535714140393883
 74
     0
 49
4.535714140393883
 74
     0
 49
-4.535714140393883
 74
     0
 49
4.535714140393883
 74
     0
 49
-4.535714140393883
 74
     0
  0
LTYPE
  5
2C2
330
5
100
AcDbSymbolTableRecord
100
AcDbLinetypeTableRecord
  2
AI-Linetype-236
 70
     0
  3
Adobe Illustrator Linetype No. 236
 72
    65
 73
     6
 40
45.35714174037394
 49
22.67857103840452
 74
     0
 49
-4.535714140393883
 74
     0
 49
4.535714140393883
 74
     0
 49
-4.535714140393883
 74
     0
 49
4.535714140393883
 74
     0
 49
-4.535714140393883
 74
     0
  0
LTYPE
  5
2C4
330
5
100
AcDbSymbolTableRecord
100
AcDbLinetypeTableRecord
  2
AI-Linetype-237
 70
     0
  3
Adobe Illustrator Linetype No. 237
 72
    65
 73
     6
 40
45.35714174037394
 49
22.67857103840452
 74
     0
 49
-4.535714140393883
 74
     0
 49
4.535714140393883
 74
     0
 49
-4.535714140393883
 74
     0
 49
4.535714140393883
 74
     0
 49
-4.535714140393883
 74
     0
  0
LTYPE
  5
2C6
330
5
100
AcDbSymbolTableRecord
100
AcDbLinetypeTableRecord
  2
AI-Linetype-238
 70
     0
  3
Adobe Illustrator Linetype No. 238
 72
    65
 73
     6
 40
45.35714174037394
 49
22.67857103840452
 74
     0
 49
-4.535714140393883
 74
     0
 49
4.535714140393883
 74
     0
 49
-4.535714140393883
 74
     0
 49
4.535714140393883
 74
     0
 49
-4.535714140393883
 74
     0
  0
LTYPE
  5
2C8
330
5
100
AcDbSymbolTableRecord
100
AcDbLinetypeTableRecord
  2
AI-Linetype-239
 70
     0
  3
Adobe Illustrator Linetype No. 239
 72
    65
 73
     6
 40
45.35714174037394
 49
22.67857103840452
 74
     0
 49
-4.535714140393883
 74
     0
 49
4.535714140393883
 74
     0
 49
-4.535714140393883
 74
     0
 49
4.535714140393883
 74
     0
 49
-4.535714140393883
 74
     0
  0
LTYPE
  5
2CA
330
5
100
AcDbSymbolTableRecord
100
AcDbLinetypeTableRecord
  2
AI-Linetype-240
 70
     0
  3
Adobe Illustrator Linetype No. 240
 72
    65
 73
     6
 40
45.35714174037394
 49
22.67857103840452
 74
     0
 49
-4.535714140393883
 74
     0
 49
4.535714140393883
 74
     0
 49
-4.535714140393883
 74
     0
 49
4.535714140393883
 74
     0
 49
-4.535714140393883
 74
     0
  0
LTYPE
  5
2CC
330
5
100
AcDbSymbolTableRecord
100
AcDbLinetypeTableRecord
  2
AI-Linetype-241
 70
     0
  3
Adobe Illustrator Linetype No. 241
 72
    65
 73
     6
 40
45.35714174037394
 49
22.67857103840452
 74
     0
 49
-4.535714140393883
 74
     0
 49
4.535714140393883
 74
     0
 49
-4.535714140393883
 74
     0
 49
4.535714140393883
 74
     0
 49
-4.535714140393883
 74
     0
  0
LTYPE
  5
2CE
330
5
100
AcDbSymbolTableRecord
100
AcDbLinetypeTableRecord
  2
AI-Linetype-242
 70
     0
  3
Adobe Illustrator Linetype No. 242
 72
    65
 73
     6
 40
45.35714174037394
 49
22.67857103840452
 74
     0
 49
-4.535714140393883
 74
     0
 49
4.535714140393883
 74
     0
 49
-4.535714140393883
 74
     0
 49
4.535714140393883
 74
     0
 49
-4.535714140393883
 74
     0
  0
LTYPE
  5
2D0
330
5
100
AcDbSymbolTableRecord
100
AcDbLinetypeTableRecord
  2
AI-Linetype-243
 70
     0
  3
Adobe Illustrator Linetype No. 243
 72
    65
 73
     6
 40
45.35714174037394
 49
22.67857103840452
 74
     0
 49
-4.535714140393883
 74
     0
 49
4.535714140393883
 74
     0
 49
-4.535714140393883
 74
     0
 49
4.535714140393883
 74
     0
 49
-4.535714140393883
 74
     0
  0
LTYPE
  5
2D2
330
5
100
AcDbSymbolTableRecord
100
AcDbLinetypeTableRecord
  2
AI-Linetype-244
 70
     0
  3
Adobe Illustrator Linetype No. 244
 72
    65
 73
     6
 40
45.35714174037394
 49
22.67857103840452
 74
     0
 49
-4.535714140393883
 74
     0
 49
4.535714140393883
 74
     0
 49
-4.535714140393883
 74
     0
 49
4.535714140393883
 74
     0
 49
-4.535714140393883
 74
     0
  0
LTYPE
  5
2D4
330
5
100
AcDbSymbolTableRecord
100
AcDbLinetypeTableRecord
  2
AI-Linetype-245
 70
     0
  3
Adobe Illustrator Linetype No. 245
 72
    65
 73
     6
 40
45.35714174037394
 49
22.67857103840452
 74
     0
 49
-4.535714140393883
 74
     0
 49
4.535714140393883
 74
     0
 49
-4.535714140393883
 74
     0
 49
4.535714140393883
 74
     0
 49
-4.535714140393883
 74
     0
  0
LTYPE
  5
2D6
330
5
100
AcDbSymbolTableRecord
100
AcDbLinetypeTableRecord
  2
AI-Linetype-246
 70
     0
  3
Adobe Illustrator Linetype No. 246
 72
    65
 73
     6
 40
45.35714174037394
 49
22.67857103840452
 74
     0
 49
-4.535714140393883
 74
     0
 49
4.535714140393883
 74
     0
 49
-4.535714140393883
 74
     0
 49
4.535714140393883
 74
     0
 49
-4.535714140393883
 74
     0
  0
LTYPE
  5
2D8
330
5
100
AcDbSymbolTableRecord
100
AcDbLinetypeTableRecord
  2
AI-Linetype-247
 70
     0
  3
Adobe Illustrator Linetype No. 247
 72
    65
 73
     6
 40
45.35714174037394
 49
22.67857103840452
 74
     0
 49
-4.535714140393883
 74
     0
 49
4.535714140393883
 74
     0
 49
-4.535714140393883
 74
     0
 49
4.535714140393883
 74
     0
 49
-4.535714140393883
 74
     0
  0
LTYPE
  5
2DA
330
5
100
AcDbSymbolTableRecord
100
AcDbLinetypeTableRecord
  2
AI-Linetype-248
 70
     0
  3
Adobe Illustrator Linetype No. 248
 72
    65
 73
     6
 40
45.35714174037394
 49
22.67857103840452
 74
     0
 49
-4.535714140393883
 74
     0
 49
4.535714140393883
 74
     0
 49
-4.535714140393883
 74
     0
 49
4.535714140393883
 74
     0
 49
-4.535714140393883
 74
     0
  0
LTYPE
  5
2DC
330
5
100
AcDbSymbolTableRecord
100
AcDbLinetypeTableRecord
  2
AI-Linetype-249
 70
     0
  3
Adobe Illustrator Linetype No. 249
 72
    65
 73
     6
 40
45.35714174037394
 49
22.67857103840452
 74
     0
 49
-4.535714140393883
 74
     0
 49
4.535714140393883
 74
     0
 49
-4.535714140393883
 74
     0
 49
4.535714140393883
 74
     0
 49
-4.535714140393883
 74
     0
  0
LTYPE
  5
2DE
330
5
100
AcDbSymbolTableRecord
100
AcDbLinetypeTableRecord
  2
AI-Linetype-250
 70
     0
  3
Adobe Illustrator Linetype No. 250
 72
    65
 73
     6
 40
45.35714174037394
 49
22.67857103840452
 74
     0
 49
-4.535714140393883
 74
     0
 49
4.535714140393883
 74
     0
 49
-4.535714140393883
 74
     0
 49
4.535714140393883
 74
     0
 49
-4.535714140393883
 74
     0
  0
LTYPE
  5
2E0
330
5
100
AcDbSymbolTableRecord
100
AcDbLinetypeTableRecord
  2
AI-Linetype-251
 70
     0
  3
Adobe Illustrator Linetype No. 251
 72
    65
 73
     6
 40
45.35714174037394
 49
22.67857103840452
 74
     0
 49
-4.535714140393883
 74
     0
 49
4.535714140393883
 74
     0
 49
-4.535714140393883
 74
     0
 49
4.535714140393883
 74
     0
 49
-4.535714140393883
 74
     0
  0
LTYPE
  5
2E2
330
5
100
AcDbSymbolTableRecord
100
AcDbLinetypeTableRecord
  2
AI-Linetype-252
 70
     0
  3
Adobe Illustrator Linetype No. 252
 72
    65
 73
     6
 40
45.35714174037394
 49
22.67857103840452
 74
     0
 49
-4.535714140393883
 74
     0
 49
4.535714140393883
 74
     0
 49
-4.535714140393883
 74
     0
 49
4.535714140393883
 74
     0
 49
-4.535714140393883
 74
     0
  0
LTYPE
  5
2E4
330
5
100
AcDbSymbolTableRecord
100
AcDbLinetypeTableRecord
  2
AI-Linetype-253
 70
     0
  3
Adobe Illustrator Linetype No. 253
 72
    65
 73
     6
 40
45.35714174037394
 49
22.67857103840452
 74
     0
 49
-4.535714140393883
 74
     0
 49
4.535714140393883
 74
     0
 49
-4.535714140393883
 74
     0
 49
4.535714140393883
 74
     0
 49
-4.535714140393883
 74
     0
  0
LTYPE
  5
2E6
330
5
100
AcDbSymbolTableRecord
100
AcDbLinetypeTableRecord
  2
AI-Linetype-254
 70
     0
  3
Adobe Illustrator Linetype No. 254
 72
    65
 73
     6
 40
45.35714174037394
 49
22.67857103840452
 74
     0
 49
-4.535714140393883
 74
     0
 49
4.535714140393883
 74
     0
 49
-4.535714140393883
 74
     0
 49
4.535714140393883
 74
     0
 49
-4.535714140393883
 74
     0
  0
LTYPE
  5
2E8
330
5
100
AcDbSymbolTableRecord
100
AcDbLinetypeTableRecord
  2
AI-Linetype-255
 70
     0
  3
Adobe Illustrator Linetype No. 255
 72
    65
 73
     6
 40
45.35714174037394
 49
22.67857103840452
 74
     0
 49
-4.535714140393883
 74
     0
 49
4.535714140393883
 74
     0
 49
-4.535714140393883
 74
     0
 49
4.535714140393883
 74
     0
 49
-4.535714140393883
 74
     0
  0
LTYPE
  5
2EA
330
5
100
AcDbSymbolTableRecord
100
AcDbLinetypeTableRecord
  2
AI-Linetype-256
 70
     0
  3
Adobe Illustrator Linetype No. 256
 72
    65
 73
     6
 40
45.35714174037394
 49
22.67857103840452
 74
     0
 49
-4.535714140393883
 74
     0
 49
4.535714140393883
 74
     0
 49
-4.535714140393883
 74
     0
 49
4.535714140393883
 74
     0
 49
-4.535714140393883
 74
     0
  0
LTYPE
  5
2EC
330
5
100
AcDbSymbolTableRecord
100
AcDbLinetypeTableRecord
  2
AI-Linetype-257
 70
     0
  3
Adobe Illustrator Linetype No. 257
 72
    65
 73
     6
 40
45.35714174037394
 49
22.67857103840452
 74
     0
 49
-4.535714140393883
 74
     0
 49
4.535714140393883
 74
     0
 49
-4.535714140393883
 74
     0
 49
4.535714140393883
 74
     0
 49
-4.535714140393883
 74
     0
  0
LTYPE
  5
2EE
330
5
100
AcDbSymbolTableRecord
100
AcDbLinetypeTableRecord
  2
AI-Linetype-258
 70
     0
  3
Adobe Illustrator Linetype No. 258
 72
    65
 73
     6
 40
45.35714174037394
 49
22.67857103840452
 74
     0
 49
-4.535714140393883
 74
     0
 49
4.535714140393883
 74
     0
 49
-4.535714140393883
 74
     0
 49
4.535714140393883
 74
     0
 49
-4.535714140393883
 74
     0
  0
LTYPE
  5
2F0
330
5
100
AcDbSymbolTableRecord
100
AcDbLinetypeTableRecord
  2
AI-Linetype-259
 70
     0
  3
Adobe Illustrator Linetype No. 259
 72
    65
 73
     6
 40
45.35714174037394
 49
22.67857103840452
 74
     0
 49
-4.535714140393883
 74
     0
 49
4.535714140393883
 74
     0
 49
-4.535714140393883
 74
     0
 49
4.535714140393883
 74
     0
 49
-4.535714140393883
 74
     0
  0
LTYPE
  5
2F2
330
5
100
AcDbSymbolTableRecord
100
AcDbLinetypeTableRecord
  2
AI-Linetype-260
 70
     0
  3
Adobe Illustrator Linetype No. 260
 72
    65
 73
     6
 40
45.35714174037394
 49
22.67857103840452
 74
     0
 49
-4.535714140393883
 74
     0
 49
4.535714140393883
 74
     0
 49
-4.535714140393883
 74
     0
 49
4.535714140393883
 74
     0
 49
-4.535714140393883
 74
     0
  0
LTYPE
  5
2F4
330
5
100
AcDbSymbolTableRecord
100
AcDbLinetypeTableRecord
  2
AI-Linetype-261
 70
     0
  3
Adobe Illustrator Linetype No. 261
 72
    65
 73
     6
 40
45.35714174037394
 49
22.67857103840452
 74
     0
 49
-4.535714140393883
 74
     0
 49
4.535714140393883
 74
     0
 49
-4.535714140393883
 74
     0
 49
4.535714140393883
 74
     0
 49
-4.535714140393883
 74
     0
  0
LTYPE
  5
2F6
330
5
100
AcDbSymbolTableRecord
100
AcDbLinetypeTableRecord
  2
AI-Linetype-262
 70
     0
  3
Adobe Illustrator Linetype No. 262
 72
    65
 73
     6
 40
45.35714174037394
 49
22.67857103840452
 74
     0
 49
-4.535714140393883
 74
     0
 49
4.535714140393883
 74
     0
 49
-4.535714140393883
 74
     0
 49
4.535714140393883
 74
     0
 49
-4.535714140393883
 74
     0
  0
LTYPE
  5
2F8
330
5
100
AcDbSymbolTableRecord
100
AcDbLinetypeTableRecord
  2
AI-Linetype-263
 70
     0
  3
Adobe Illustrator Linetype No. 263
 72
    65
 73
     6
 40
45.35714174037394
 49
22.67857103840452
 74
     0
 49
-4.535714140393883
 74
     0
 49
4.535714140393883
 74
     0
 49
-4.535714140393883
 74
     0
 49
4.535714140393883
 74
     0
 49
-4.535714140393883
 74
     0
  0
LTYPE
  5
2FA
330
5
100
AcDbSymbolTableRecord
100
AcDbLinetypeTableRecord
  2
AI-Linetype-264
 70
     0
  3
Adobe Illustrator Linetype No. 264
 72
    65
 73
     6
 40
45.35714174037394
 49
22.67857103840452
 74
     0
 49
-4.535714140393883
 74
     0
 49
4.535714140393883
 74
     0
 49
-4.535714140393883
 74
     0
 49
4.535714140393883
 74
     0
 49
-4.535714140393883
 74
     0
  0
LTYPE
  5
2FC
330
5
100
AcDbSymbolTableRecord
100
AcDbLinetypeTableRecord
  2
AI-Linetype-265
 70
     0
  3
Adobe Illustrator Linetype No. 265
 72
    65
 73
     6
 40
45.35714174037394
 49
22.67857103840452
 74
     0
 49
-4.535714140393883
 74
     0
 49
4.535714140393883
 74
     0
 49
-4.535714140393883
 74
     0
 49
4.535714140393883
 74
     0
 49
-4.535714140393883
 74
     0
  0
LTYPE
  5
2FE
330
5
100
AcDbSymbolTableRecord
100
AcDbLinetypeTableRecord
  2
AI-Linetype-266
 70
     0
  3
Adobe Illustrator Linetype No. 266
 72
    65
 73
     6
 40
45.35714174037394
 49
22.67857103840452
 74
     0
 49
-4.535714140393883
 74
     0
 49
4.535714140393883
 74
     0
 49
-4.535714140393883
 74
     0
 49
4.535714140393883
 74
     0
 49
-4.535714140393883
 74
     0
  0
LTYPE
  5
300
330
5
100
AcDbSymbolTableRecord
100
AcDbLinetypeTableRecord
  2
AI-Linetype-267
 70
     0
  3
Adobe Illustrator Linetype No. 267
 72
    65
 73
     6
 40
45.35714174037394
 49
22.67857103840452
 74
     0
 49
-4.535714140393883
 74
     0
 49
4.535714140393883
 74
     0
 49
-4.535714140393883
 74
     0
 49
4.535714140393883
 74
     0
 49
-4.535714140393883
 74
     0
  0
LTYPE
  5
302
330
5
100
AcDbSymbolTableRecord
100
AcDbLinetypeTableRecord
  2
AI-Linetype-268
 70
     0
  3
Adobe Illustrator Linetype No. 268
 72
    65
 73
     6
 40
45.35714174037394
 49
22.67857103840452
 74
     0
 49
-4.535714140393883
 74
     0
 49
4.535714140393883
 74
     0
 49
-4.535714140393883
 74
     0
 49
4.535714140393883
 74
     0
 49
-4.535714140393883
 74
     0
  0
LTYPE
  5
304
330
5
100
AcDbSymbolTableRecord
100
AcDbLinetypeTableRecord
  2
AI-Linetype-269
 70
     0
  3
Adobe Illustrator Linetype No. 269
 72
    65
 73
     6
 40
45.35714174037394
 49
22.67857103840452
 74
     0
 49
-4.535714140393883
 74
     0
 49
4.535714140393883
 74
     0
 49
-4.535714140393883
 74
     0
 49
4.535714140393883
 74
     0
 49
-4.535714140393883
 74
     0
  0
LTYPE
  5
306
330
5
100
AcDbSymbolTableRecord
100
AcDbLinetypeTableRecord
  2
AI-Linetype-270
 70
     0
  3
Adobe Illustrator Linetype No. 270
 72
    65
 73
     6
 40
45.35714174037394
 49
22.67857103840452
 74
     0
 49
-4.535714140393883
 74
     0
 49
4.535714140393883
 74
     0
 49
-4.535714140393883
 74
     0
 49
4.535714140393883
 74
     0
 49
-4.535714140393883
 74
     0
  0
LTYPE
  5
308
330
5
100
AcDbSymbolTableRecord
100
AcDbLinetypeTableRecord
  2
AI-Linetype-271
 70
     0
  3
Adobe Illustrator Linetype No. 271
 72
    65
 73
     6
 40
45.35714174037394
 49
22.67857103840452
 74
     0
 49
-4.535714140393883
 74
     0
 49
4.535714140393883
 74
     0
 49
-4.535714140393883
 74
     0
 49
4.535714140393883
 74
     0
 49
-4.535714140393883
 74
     0
  0
LTYPE
  5
30A
330
5
100
AcDbSymbolTableRecord
100
AcDbLinetypeTableRecord
  2
AI-Linetype-272
 70
     0
  3
Adobe Illustrator Linetype No. 272
 72
    65
 73
     6
 40
45.35714174037394
 49
22.67857103840452
 74
     0
 49
-4.535714140393883
 74
     0
 49
4.535714140393883
 74
     0
 49
-4.535714140393883
 74
     0
 49
4.535714140393883
 74
     0
 49
-4.535714140393883
 74
     0
  0
LTYPE
  5
30C
330
5
100
AcDbSymbolTableRecord
100
AcDbLinetypeTableRecord
  2
AI-Linetype-273
 70
     0
  3
Adobe Illustrator Linetype No. 273
 72
    65
 73
     6
 40
45.35714174037394
 49
22.67857103840452
 74
     0
 49
-4.535714140393883
 74
     0
 49
4.535714140393883
 74
     0
 49
-4.535714140393883
 74
     0
 49
4.535714140393883
 74
     0
 49
-4.535714140393883
 74
     0
  0
LTYPE
  5
30E
330
5
100
AcDbSymbolTableRecord
100
AcDbLinetypeTableRecord
  2
AI-Linetype-274
 70
     0
  3
Adobe Illustrator Linetype No. 274
 72
    65
 73
     6
 40
45.35714174037394
 49
22.67857103840452
 74
     0
 49
-4.535714140393883
 74
     0
 49
4.535714140393883
 74
     0
 49
-4.535714140393883
 74
     0
 49
4.535714140393883
 74
     0
 49
-4.535714140393883
 74
     0
  0
LTYPE
  5
310
330
5
100
AcDbSymbolTableRecord
100
AcDbLinetypeTableRecord
  2
AI-Linetype-275
 70
     0
  3
Adobe Illustrator Linetype No. 275
 72
    65
 73
     6
 40
45.35714174037394
 49
22.67857103840452
 74
     0
 49
-4.535714140393883
 74
     0
 49
4.535714140393883
 74
     0
 49
-4.535714140393883
 74
     0
 49
4.535714140393883
 74
     0
 49
-4.535714140393883
 74
     0
  0
LTYPE
  5
312
330
5
100
AcDbSymbolTableRecord
100
AcDbLinetypeTableRecord
  2
AI-Linetype-276
 70
     0
  3
Adobe Illustrator Linetype No. 276
 72
    65
 73
     6
 40
45.35714174037394
 49
22.67857103840452
 74
     0
 49
-4.535714140393883
 74
     0
 49
4.535714140393883
 74
     0
 49
-4.535714140393883
 74
     0
 49
4.535714140393883
 74
     0
 49
-4.535714140393883
 74
     0
  0
LTYPE
  5
314
330
5
100
AcDbSymbolTableRecord
100
AcDbLinetypeTableRecord
  2
AI-Linetype-277
 70
     0
  3
Adobe Illustrator Linetype No. 277
 72
    65
 73
     6
 40
45.35714174037394
 49
22.67857103840452
 74
     0
 49
-4.535714140393883
 74
     0
 49
4.535714140393883
 74
     0
 49
-4.535714140393883
 74
     0
 49
4.535714140393883
 74
     0
 49
-4.535714140393883
 74
     0
  0
LTYPE
  5
316
330
5
100
AcDbSymbolTableRecord
100
AcDbLinetypeTableRecord
  2
AI-Linetype-278
 70
     0
  3
Adobe Illustrator Linetype No. 278
 72
    65
 73
     6
 40
45.35714174037394
 49
22.67857103840452
 74
     0
 49
-4.535714140393883
 74
     0
 49
4.535714140393883
 74
     0
 49
-4.535714140393883
 74
     0
 49
4.535714140393883
 74
     0
 49
-4.535714140393883
 74
     0
  0
LTYPE
  5
318
330
5
100
AcDbSymbolTableRecord
100
AcDbLinetypeTableRecord
  2
AI-Linetype-279
 70
     0
  3
Adobe Illustrator Linetype No. 279
 72
    65
 73
     6
 40
45.35714174037394
 49
22.67857103840452
 74
     0
 49
-4.535714140393883
 74
     0
 49
4.535714140393883
 74
     0
 49
-4.535714140393883
 74
     0
 49
4.535714140393883
 74
     0
 49
-4.535714140393883
 74
     0
  0
LTYPE
  5
31A
330
5
100
AcDbSymbolTableRecord
100
AcDbLinetypeTableRecord
  2
AI-Linetype-280
 70
     0
  3
Adobe Illustrator Linetype No. 280
 72
    65
 73
     6
 40
45.35714174037394
 49
22.67857103840452
 74
     0
 49
-4.535714140393883
 74
     0
 49
4.535714140393883
 74
     0
 49
-4.535714140393883
 74
     0
 49
4.535714140393883
 74
     0
 49
-4.535714140393883
 74
     0
  0
ENDTAB
  0
TABLE
  2
LAYER
  5
2
330
0
100
AcDbSymbolTable
 70
     9
  0
LAYER
  5
54
330
2
100
AcDbSymbolTableRecord
100
AcDbLayerTableRecord
  2
0
 70
     0
 62
     7
  6
Continuous
370
    -3
390
F
347
21
348
0
  0
LAYER
  5
78
330
2
100
AcDbSymbolTableRecord
100
AcDbLayerTableRecord
  2
FLAME
 70
     0
 62
     7
  6
Continuous
370
     0
390
F
347
21
348
0
  0
LAYER
  5
80
330
2
100
AcDbSymbolTableRecord
100
AcDbLayerTableRecord
  2
SPEC
 70
     0
 62
     7
  6
Continuous
370
     0
390
F
347
21
348
0
  0
LAYER
  5
8E
330
2
100
AcDbSymbolTableRecord
100
AcDbLayerTableRecord
  2
0-HONTAI
 70
     0
 62
     7
  6
Continuous
370
     0
390
F
347
21
348
0
  0
LAYER
  5
AD
330
2
100
AcDbSymbolTableRecord
100
AcDbLayerTableRecord
  2
HONTAI
 70
     0
 62
     7
  6
Continuous
370
     0
390
F
347
21
348
0
  0
LAYER
  5
E3
330
2
100
AcDbSymbolTableRecord
100
AcDbLayerTableRecord
  2
TOUGU
 70
     0
 62
     7
  6
Continuous
370
     0
390
F
347
21
348
0
  0
LAYER
  5
11E
330
2
100
AcDbSymbolTableRecord
100
AcDbLayerTableRecord
  2
CL
 70
     0
 62
     7
  6
Continuous
370
     0
390
F
347
21
348
0
  0
LAYER
  5
127
330
2
100
AcDbSymbolTableRecord
100
AcDbLayerTableRecord
  2
HONTAI-1
 70
     0
 62
     7
  6
Continuous
370
     0
390
F
347
21
348
0
  0
LAYER
  5
12A
330
2
100
AcDbSymbolTableRecord
100
AcDbLayerTableRecord
  2
SOUZOU
 70
     0
 62
     7
  6
Continuous
370
     0
390
F
347
21
348
0
  0
ENDTAB
  0
TABLE
  2
STYLE
  5
3
330
0
100
AcDbSymbolTable
 70
     2
  0
STYLE
  5
55
330
3
100
AcDbSymbolTableRecord
100
AcDbTextStyleTableRecord
  2
Standard
 70
     0
 40
0.0
 41
1.0
 50
0.0
 71
     0
 42
0.2
  3
txt
  4

  0
STYLE
  5
5A
330
3
100
AcDbSymbolTableRecord
100
AcDbTextStyleTableRecord
  2
Annotative
 70
     0
 40
0.0
 41
1.0
 50
0.0
 71
     0
 42
0.2
  3
txt
  4

1001
AcadAnnotative
1000
AnnotativeData
1002
{
1070
     1
1070
     1
1002
}
  0
ENDTAB
  0
TABLE
  2
VIEW
  5
6
330
0
100
AcDbSymbolTable
 70
     0
  0
ENDTAB
  0
TABLE
  2
UCS
  5
7
330
0
100
AcDbSymbolTable
 70
     0
  0
ENDTAB
  0
TABLE
  2
APPID
  5
9
330
0
100
AcDbSymbolTable
 70
     2
  0
APPID
  5
56
330
9
100
AcDbSymbolTableRecord
100
AcDbRegAppTableRecord
  2
ACAD
 70
     0
  0
APPID
  5
5E
330
9
100
AcDbSymbolTableRecord
100
AcDbRegAppTableRecord
  2
AcadAnnotative
 70
     0
  0
ENDTAB
  0
TABLE
  2
DIMSTYLE
  5
A
330
0
100
AcDbSymbolTable
 70
     2
100
AcDbDimStyleTable
 71
     0
  0
DIMSTYLE
105
58
330
A
100
AcDbSymbolTableRecord
100
AcDbDimStyleTableRecord
  2
Standard
 70
     0
340
55
  0
DIMSTYLE
105
59
330
A
100
AcDbSymbolTableRecord
100
AcDbDimStyleTableRecord
  2
Annotative
 70
     0
340
55
1001
AcadAnnotative
1000
AnnotativeData
1002
{
1070
     1
1070
     1
1002
}
  0
ENDTAB
  0
TABLE
  2
BLOCK_RECORD
  5
1
330
0
100
AcDbSymbolTable
 70
     2
  0
BLOCK_RECORD
  5
70
330
1
100
AcDbSymbolTableRecord
100
AcDbBlockTableRecord
  2
*Model_Space
340
73
 70
     0
280
     1
281
     0
  0
BLOCK_RECORD
  5
6C
330
1
100
AcDbSymbolTableRecord
100
AcDbBlockTableRecord
  2
*Paper_Space
340
6F
 70
     0
280
     1
281
     0
  0
BLOCK_RECORD
  5
74
330
1
100
AcDbSymbolTableRecord
100
AcDbBlockTableRecord
  2
*Paper_Space0
340
77
 70
     0
280
     1
281
     0
  0
BLOCK_RECORD
  5
82
330
1
100
AcDbSymbolTableRecord
100
AcDbBlockTableRecord
  2
Block_0
340
0
102
{BLKREFS
331
83
102
}
 70
     0
280
     1
281
     0
  0
ENDTAB
  0
ENDSEC
  0
SECTION
  2
BLOCKS
  0
BLOCK
  5
71
330
70
100
AcDbEntity
  8
0
100
AcDbBlockBegin
  2
*Model_Space
 70
     0
 10
0.0
 20
0.0
 30
0.0
  3
*Model_Space
  1

  0
ENDBLK
  5
72
330
70
100
AcDbEntity
  8
0
100
AcDbBlockEnd
  0
BLOCK
  5
6D
330
6C
100
AcDbEntity
 67
     1
  8
0
100
AcDbBlockBegin
  2
*Paper_Space
 70
     0
 10
0.0
 20
0.0
 30
0.0
  3
*Paper_Space
  1

  0
ENDBLK
  5
6E
330
6C
100
AcDbEntity
 67
     1
  8
0
100
AcDbBlockEnd
  0
BLOCK
  5
75
330
74
100
AcDbEntity
 67
     1
  8
0
100
AcDbBlockBegin
  2
*Paper_Space0
 70
     0
 10
0.0
 20
0.0
 30
0.0
  3
*Paper_Space0
  1

  0
ENDBLK
  5
76
330
74
100
AcDbEntity
 67
     1
  8
0
100
AcDbBlockEnd
  0
BLOCK
  5
84
330
82
100
AcDbEntity
  8
0
100
AcDbBlockBegin
  2
Block_0
 70
     0
 10
0.0
 20
0.0
 30
0.0
  3
Block_0
  1

  0
MTEXT
  5
86
330
82
100
AcDbEntity
  8
SPEC
100
AcDbMText
 10
187.6349293557605
 20
24.28965110171568
 30
0.0
 40
0.2
 41
0.0
 46
0.0
 71
     7
 72
     1
  1
\C9;\c12632256;\FKozuka Gothic Pr6N R|b0|i0|c128;\H7.493000;\W1.000000;G9 LED
 73
     1
 44
1.0
  0
MTEXT
  5
87
330
82
100
AcDbEntity
  8
SPEC
100
AcDbMText
 10
232.5929302057949
 20
24.28965110171568
 30
0.0
 40
0.2
 41
0.0
 46
0.0
 71
     7
 72
     1
  1
\C9;\c12632256;\FMS PGothic|b0|i0|c128;\H7.493000;\W1.000000;電球
 73
     1
 44
1.0
  0
MTEXT
  5
88
330
82
100
AcDbEntity
  8
SPEC
100
AcDbMText
 10
254.3907383600677
 20
24.28965110171568
 30
0.0
 40
0.2
 41
0.0
 46
0.0
 71
     7
 72
     1
  1
\C9;\c12632256;\FKozuka Gothic Pr6N R|b0|i0|c128;\H7.493000;\W1.000000;(20W
 73
     1
 44
1.0
  0
MTEXT
  5
89
330
82
100
AcDbEntity
  8
SPEC
100
AcDbMText
 10
284.3627461040396
 20
24.28965110171568
 30
0.0
 40
0.2
 41
0.0
 46
0.0
 71
     7
 72
     1
  1
\C9;\c12632256;\FMS PGothic|b0|i0|c128;\H7.493000;\W1.000000;相当
 73
     1
 44
1.0
  0
MTEXT
  5
8A
330
82
100
AcDbEntity
  8
SPEC
100
AcDbMText
 10
306.1605757901591
 20
24.28965110171568
 30
0.0
 40
0.2
 41
0.0
 46
0.0
 71
     7
 72
     1
  1
\C9;\c12632256;\FKozuka Gothic Pr6N R|b0|i0|c128;\H7.493000;\W1.000000;,
 73
     1
 44
1.0
  0
MTEXT
  5
8B
330
82
100
AcDbEntity
  8
SPEC
100
AcDbMText
 10
309.9070740666747
 20
24.28965110171568
 30
0.0
 40
0.2
 41
0.0
 46
0.0
 71
     7
 72
     1
  1
\C9;\c12632256;\FMS PGothic|b0|i0|c128;\H7.493000;\W1.000000;電球色
 73
     1
 44
1.0
  0
MTEXT
  5
8C
330
82
100
AcDbEntity
  8
SPEC
100
AcDbMText
 10
342.6037862980839
 20
24.28965110171568
 30
0.0
 40
0.2
 41
0.0
 46
0.0
 71
     7
 72
     1
  1
\C9;\c12632256;\FKozuka Gothic Pr6N R|b0|i0|c128;\H7.493000;\W1.000000;)x1
 73
     1
 44
1.0
  0
MTEXT
  5
8D
330
82
100
AcDbEntity
  8
SPEC
100
AcDbMText
 10
360.0874520991057
 20
24.28965110171568
 30
0.0
 40
0.2
 41
0.0
 46
0.0
 71
     7
 72
     1
  1
\C9;\c12632256;\FMS PGothic|b0|i0|c128;\H7.493000;\W1.000000;灯
 73
     1
 44
1.0
  0
ENDBLK
  5
85
330
82
100
AcDbEntity
  8
0
100
AcDbBlockEnd
  0
ENDSEC
  0
SECTION
  2
ENTITIES
  0
LINE
  5
79
330
70
100
AcDbEntity
  8
FLAME
 62
     2
420
 16776960
370
    25
100
AcDbLine
 10
501.952380826891
 20
380.9999999047501
 30
0.0
 11
501.952380826891
 21
0.0
 31
0.0
  0
LINE
  5
7A
330
70
100
AcDbEntity
  8
FLAME
 62
     2
420
 16776960
370
    25
100
AcDbLine
 10
175.3809523371064
 20
0.0
 30
0.0
 11
175.3809523371064
 21
380.9999999047501
 31
0.0
  0
LINE
  5
7B
330
70
100
AcDbEntity
  8
FLAME
 62
     2
420
 16776960
370
    25
100
AcDbLine
 10
501.952380826891
 20
0.0
 30
0.0
 11
175.3809523371064
 21
0.0
 31
0.0
  0
LINE
  5
7C
330
70
100
AcDbEntity
  8
FLAME
 62
     2
420
 16776960
370
    25
100
AcDbLine
 10
501.952380826891
 20
18.14285713832436
 30
0.0
 11
175.3809523371064
 21
18.14285713832436
 31
0.0
  0
LINE
  5
7D
330
70
100
AcDbEntity
  8
FLAME
 62
     2
420
 16776960
370
    25
100
AcDbLine
 10
501.952380826891
 20
36.28571427664873
 30
0.0
 11
175.3809523371064
 21
36.28571427664873
 31
0.0
  0
LINE
  5
7E
330
70
100
AcDbEntity
  8
FLAME
 62
     2
420
 16776960
370
    25
100
AcDbLine
 10
501.952380826891
 20
54.42857141496283
 30
0.0
 11
175.3809523371064
 21
54.42857141496283
 31
0.0
  0
LINE
  5
7F
330
70
100
AcDbEntity
  8
FLAME
 62
     2
420
 16776960
370
    25
100
AcDbLine
 10
501.952380826891
 20
380.9999999047501
 30
0.0
 11
175.3809523371064
 21
380.9999999047501
 31
0.0
  0
MTEXT
  5
81
330
70
100
AcDbEntity
  8
SPEC
100
AcDbMText
 10
187.6349293557605
 20
41.1836753530328
 30
0.0
 40
0.2
 41
0.0
 46
0.0
 71
     7
 72
     1
  1
\C9;\c12632256;\FKozuka Gothic Pr6N R|b0|i0|c128;\H9.071429;\W1.000000;KT330TSCW
 73
     1
 44
1.0
  0
INSERT
  5
83
330
70
100
AcDbEntity
  8
SPEC
100
AcDbBlockReference
  2
Block_0
 10
0.0
 20
0.0
 30
0.0
  0
LINE
  5
8F
330
70
100
AcDbEntity
  8
0-HONTAI
 62
     2
420
 16776960
370
    25
100
AcDbLine
 10
476.8126813206833
 20
216.4474989373667
 30
0.0
 11
476.8126881166535
 21
208.5981732250497
 31
0.0
  0
LINE
  5
90
330
70
100
AcDbEntity
  8
0-HONTAI
 62
     2
420
 16776960
370
    25
100
AcDbLine
 10
466.5481784661072
 20
216.4474900503278
 30
0.0
 11
466.5481852620826
 21
208.5981643380108
 31
0.0
  0
LINE
  5
91
330
70
100
AcDbEntity
  8
0-HONTAI
 62
     2
420
 16776960
370
    25
100
AcDbLine
 10
462.9254153665654
 20
213.4285154859092
 30
0.0
 11
462.9254263708672
 21
200.7185909080429
 31
0.0
  0
LINE
  5
92
330
70
100
AcDbEntity
  8
0-HONTAI
 62
     2
420
 16776960
370
    25
100
AcDbLine
 10
475.3031872424988
 20
226.1082061994623
 30
0.0
 11
474.6993929569334
 21
226.1082056766984
 31
0.0
  0
LINE
  5
93
330
70
100
AcDbEntity
  8
0-HONTAI
 62
     2
420
 16776960
370
    25
100
AcDbLine
 10
467.1519722289036
 20
217.0512848586546
 30
0.0
 11
476.2088865123514
 21
217.0512927001656
 31
0.0
  0
LINE
  5
94
330
70
100
AcDbEntity
  8
0-HONTAI
 62
     2
420
 16776960
370
    25
100
AcDbLine
 10
474.6993929569334
 20
226.1082056766984
 30
0.0
 11
474.6994007984418
 21
217.0512913932454
 31
0.0
  0
LINE
  5
95
330
70
100
AcDbEntity
  8
0-HONTAI
 62
     2
420
 16776960
370
    25
100
AcDbLine
 10
468.0576558157395
 20
226.1081999262536
 30
0.0
 11
468.6614501012997
 21
226.1082004490175
 31
0.0
  0
SPLINE
  5
96
330
70
100
AcDbEntity
  8
0-HONTAI
 62
     2
420
 16776960
370
    25
100
AcDbSpline
210
0.0
220
0.0
230
1.0
 70
     8
 71
     3
 72
     8
 73
     4
 74
     0
 42
0.0000000001
 43
0.0000000001
 40
0.0
 40
0.0
 40
0.0
 40
0.0
 40
1.0
 40
1.0
 40
1.0
 40
1.0
 10
463.5292091293605
 20
214.032310294236
 30
0.0
 10
463.1957427534091
 20
214.0323100055196
 30
0.0
 10
462.9254150778484
 20
213.7619818618567
 30
0.0
 10
462.9254153665654
 20
213.4285154859054
 30
0.0
  0
SPLINE
  5
97
330
70
100
AcDbEntity
  8
0-HONTAI
 62
     2
420
 16776960
370
    25
100
AcDbSpline
210
0.0
220
0.0
230
1.0
 70
     8
 71
     3
 72
     8
 73
     4
 74
     0
 42
0.0000000001
 43
0.0000000001
 40
0.0
 40
0.0
 40
0.0
 40
0.0
 40
1.0
 40
1.0
 40
1.0
 40
1.0
 10
467.1519722289023
 20
217.0512848586649
 30
0.0
 10
466.8185058529509
 20
217.0512845699485
 30
0.0
 10
466.5481781773902
 20
216.7809564262856
 30
0.0
 10
466.5481784661072
 20
216.4474900503342
 30
0.0
  0
LINE
  5
98
330
70
100
AcDbEntity
  8
0-HONTAI
 62
     2
420
 16776960
370
    25
100
AcDbLine
 10
463.5292091293617
 20
214.032310294236
 30
0.0
 11
466.5481805571785
 21
214.0323129080765
 31
0.0
  0
LINE
  5
99
330
70
100
AcDbEntity
  8
0-HONTAI
 62
     2
420
 16776960
370
    25
100
AcDbLine
 10
468.0576558157395
 20
226.1081999262536
 30
0.0
 11
468.0576636572478
 21
217.0512856428109
 31
0.0
  0
LINE
  5
9A
330
70
100
AcDbEntity
  8
0-HONTAI
 62
     2
420
 16776960
370
    25
100
AcDbLine
 10
468.6614501012997
 20
226.1082004490175
 30
0.0
 11
468.6614579428132
 21
217.0512861655748
 31
0.0
  0
SPLINE
  5
9B
330
70
100
AcDbEntity
  8
0-HONTAI
 62
     2
420
 16776960
370
    25
100
AcDbSpline
210
0.0
220
0.0
230
1.0
 70
     8
 71
     3
 72
     8
 73
     4
 74
     0
 42
0.0000000001
 43
0.0000000001
 40
0.0
 40
0.0
 40
0.0
 40
0.0
 40
1.0
 40
1.0
 40
1.0
 40
1.0
 10
476.8126813206808
 20
216.4474989373705
 30
0.0
 10
476.8126810319643
 20
216.7809653133219
 30
0.0
 10
476.5423528883015
 20
217.051292988882
 30
0.0
 10
476.2088865123501
 20
217.0512927001659
 30
0.0
  0
LINE
  5
9C
330
70
100
AcDbEntity
  8
0-HONTAI
 62
     2
420
 16776960
370
    25
100
AcDbLine
 10
475.3031872424988
 20
226.1082061994623
 30
0.0
 11
475.3031950840045
 21
217.0512919160196
 31
0.0
  0
LINE
  5
9D
330
70
100
AcDbEntity
  8
0-HONTAI
 62
     2
420
 16776960
370
    25
100
AcDbLine
 10
467.1519800704094
 20
207.9943705752119
 30
0.0
 11
476.2088943538572
 21
207.9943784167229
 31
0.0
  0
LINE
  5
9E
330
70
100
AcDbEntity
  8
0-HONTAI
 62
     2
420
 16776960
370
    25
100
AcDbLine
 10
476.4416052106017
 20
186.8615786234756
 30
0.0
 11
471.680455508993
 21
186.8615745012626
 31
0.0
  0
SPLINE
  5
9F
330
70
100
AcDbEntity
  8
0-HONTAI
 62
     2
420
 16776960
370
    25
100
AcDbSpline
210
0.0
220
0.0
230
1.0
 70
     8
 71
     3
 72
     8
 73
     4
 74
     0
 42
0.0000000001
 43
0.0000000001
 40
0.0
 40
0.0
 40
0.0
 40
0.0
 40
1.0
 40
1.0
 40
1.0
 40
1.0
 10
462.9254263708621
 20
200.7185909080365
 30
0.0
 10
462.925427190159
 20
199.7723063104233
 30
0.0
 10
463.1478435435564
 20
198.8392692618898
 30
0.0
 10
463.5747335379534
 20
197.9947460399682
 30
0.0
  0
SPLINE
  5
A0
330
70
100
AcDbEntity
  8
0-HONTAI
 62
     2
420
 16776960
370
    25
100
AcDbSpline
210
0.0
220
0.0
230
1.0
 70
     8
 71
     3
 72
     8
 73
     4
 74
     0
 42
0.0000000001
 43
0.0000000001
 40
0.0
 40
0.0
 40
0.0
 40
0.0
 40
1.0
 40
1.0
 40
1.0
 40
1.0
 10
467.2027873206584
 20
191.0921319836745
 30
0.0
 10
466.9330623790741
 20
191.9515877874017
 30
0.0
 10
466.6223538510598
 20
192.7976405530963
 30
0.0
 10
466.2717283088023
 20
193.6273860271966
 30
0.0
  0
SPLINE
  5
A1
330
70
100
AcDbEntity
  8
0-HONTAI
 62
     2
420
 16776960
370
    25
100
AcDbSpline
210
0.0
220
0.0
230
1.0
 70
     8
 71
     3
 72
     8
 73
     4
 74
     0
 42
0.0000000001
 43
0.0000000001
 40
0.0
 40
0.0
 40
0.0
 40
0.0
 40
1.0
 40
1.0
 40
1.0
 40
1.0
 10
466.5481852620877
 20
208.5981643380069
 30
0.0
 10
466.5481855508041
 20
208.2646979620556
 30
0.0
 10
466.818513694467
 20
207.9943702864949
 30
0.0
 10
467.1519800704183
 20
207.9943705752113
 30
0.0
  0
SPLINE
  5
A2
330
70
100
AcDbEntity
  8
0-HONTAI
 62
     2
420
 16776960
370
    25
100
AcDbSpline
210
0.0
220
0.0
230
1.0
 70
     8
 71
     3
 72
     8
 73
     4
 74
     0
 42
0.0000000001
 43
0.0000000001
 40
0.0
 40
0.0
 40
0.0
 40
0.0
 40
1.0
 40
1.0
 40
1.0
 40
1.0
 10
463.5747335380195
 20
197.9947460398514
 30
0.0
 10
464.3480046722216
 20
196.4649715353036
 30
0.0
 10
465.2502690729449
 20
195.003895856836
 30
0.0
 10
466.2717283088299
 20
193.6273860271658
 30
0.0
  0
LINE
  5
A3
330
70
100
AcDbEntity
  8
0-HONTAI
 62
     2
420
 16776960
370
    25
100
AcDbLine
 10
466.9193058073791
 20
186.8615703790393
 30
0.0
 11
471.680455508993
 21
186.8615745012626
 31
0.0
  0
SPLINE
  5
A4
330
70
100
AcDbEntity
  8
0-HONTAI
 62
     2
420
 16776960
370
    25
100
AcDbSpline
210
0.0
220
0.0
230
1.0
 70
     8
 71
     3
 72
     8
 73
     4
 74
     0
 42
0.0000000001
 43
0.0000000001
 40
0.0
 40
0.0
 40
0.0
 40
0.0
 40
1.0
 40
1.0
 40
1.0
 40
1.0
 10
466.9193058073791
 20
186.8615703790502
 30
0.0
 10
467.5666469944876
 20
188.1795579023844
 30
0.0
 10
467.6684993753998
 20
189.6995609778129
 30
0.0
 10
467.2027873206661
 20
191.0921319836388
 30
0.0
  0
SPLINE
  5
A5
330
70
100
AcDbEntity
  8
0-HONTAI
 62
     2
420
 16776960
370
    25
100
AcDbSpline
210
0.0
220
0.0
230
1.0
 70
     8
 71
     3
 72
     8
 73
     4
 74
     0
 42
0.0000000001
 43
0.0000000001
 40
0.0
 40
0.0
 40
0.0
 40
0.0
 40
1.0
 40
1.0
 40
1.0
 40
1.0
 10
477.0891709934629
 20
193.6273953930173
 30
0.0
 10
476.7385468879849
 20
192.7976493117421
 30
0.0
 10
476.4278398249907
 20
191.9515960079919
 30
0.0
 10
476.1581163716387
 20
191.0921397371754
 30
0.0
  0
SPLINE
  5
A6
330
70
100
AcDbEntity
  8
0-HONTAI
 62
     2
420
 16776960
370
    25
100
AcDbSpline
210
0.0
220
0.0
230
1.0
 70
     8
 71
     3
 72
     8
 73
     4
 74
     0
 42
0.0000000001
 43
0.0000000001
 40
0.0
 40
0.0
 40
0.0
 40
0.0
 40
1.0
 40
1.0
 40
1.0
 40
1.0
 10
476.2088943538585
 20
207.9943784167123
 30
0.0
 10
476.5423607298099
 20
207.9943787054291
 30
0.0
 10
476.8126884053706
 20
208.2647068490913
 30
0.0
 10
476.8126881166535
 20
208.5981732250433
 30
0.0
  0
SPLINE
  5
A7
330
70
100
AcDbEntity
  8
0-HONTAI
 62
     2
420
 16776960
370
    25
100
AcDbSpline
210
0.0
220
0.0
230
1.0
 70
     8
 71
     3
 72
     8
 73
     4
 74
     0
 42
0.0000000001
 43
0.0000000001
 40
0.0
 40
0.0
 40
0.0
 40
0.0
 40
1.0
 40
1.0
 40
1.0
 40
1.0
 10
476.1581163716445
 20
191.0921397371908
 30
0.0
 10
475.6924067282914
 20
189.6995679249269
 30
0.0
 10
475.7942617412553
 20
188.1795650258566
 30
0.0
 10
476.4416052106106
 20
186.8615786234577
 30
0.0
  0
LINE
  5
A8
330
70
100
AcDbEntity
  8
0-HONTAI
 62
     2
420
 16776960
370
    25
100
AcDbLine
 10
480.4354590577012
 20
213.4285154859092
 30
0.0
 11
480.4354480533968
 21
200.7185909080429
 31
0.0
  0
SPLINE
  5
A9
330
70
100
AcDbEntity
  8
0-HONTAI
 62
     2
420
 16776960
370
    25
100
AcDbSpline
210
0.0
220
0.0
230
1.0
 70
     8
 71
     3
 72
     8
 73
     4
 74
     0
 42
0.0000000001
 43
0.0000000001
 40
0.0
 40
0.0
 40
0.0
 40
0.0
 40
1.0
 40
1.0
 40
1.0
 40
1.0
 10
480.4354590576986
 20
213.4285154859054
 30
0.0
 10
480.4354593464156
 20
213.7619818618567
 30
0.0
 10
480.1651316708549
 20
214.0323100055196
 30
0.0
 10
479.8316652949035
 20
214.032310294236
 30
0.0
  0
LINE
  5
AA
330
70
100
AcDbEntity
  8
0-HONTAI
 62
     2
420
 16776960
370
    25
100
AcDbLine
 10
479.8316652949022
 20
214.032310294236
 30
0.0
 11
476.8126938670881
 21
214.0323129080765
 31
0.0
  0
SPLINE
  5
AB
330
70
100
AcDbEntity
  8
0-HONTAI
 62
     2
420
 16776960
370
    25
100
AcDbSpline
210
0.0
220
0.0
230
1.0
 70
     8
 71
     3
 72
     8
 73
     4
 74
     0
 42
0.0000000001
 43
0.0000000001
 40
0.0
 40
0.0
 40
0.0
 40
0.0
 40
1.0
 40
1.0
 40
1.0
 40
1.0
 10
479.7861408863106
 20
197.9947460399682
 30
0.0
 10
480.2130308807076
 20
198.8392692618898
 30
0.0
 10
480.435447234105
 20
199.7723063104233
 30
0.0
 10
480.4354480534019
 20
200.7185909080365
 30
0.0
  0
SPLINE
  5
AC
330
70
100
AcDbEntity
  8
0-HONTAI
 62
     2
420
 16776960
370
    25
100
AcDbSpline
210
0.0
220
0.0
230
1.0
 70
     8
 71
     3
 72
     8
 73
     4
 74
     0
 42
0.0000000001
 43
0.0000000001
 40
0.0
 40
0.0
 40
0.0
 40
0.0
 40
1.0
 40
1.0
 40
1.0
 40
1.0
 10
477.0891461154424
 20
193.6273860271735
 30
0.0
 10
478.1106053513249
 20
195.0038958568412
 30
0.0
 10
479.0128697520462
 20
196.4649715353065
 30
0.0
 10
479.7861408862472
 20
197.9947460398508
 30
0.0
  0
LINE
  5
AE
330
70
100
AcDbEntity
  8
HONTAI
 62
     2
420
 16776960
370
    25
100
AcDbLine
 10
469.8690726523018
 20
186.8615745012626
 30
0.0
 11
469.8690726523018
 21
136.6694629345122
 31
0.0
  0
LINE
  5
AF
330
70
100
AcDbEntity
  8
HONTAI
 62
     2
420
 16776960
370
    25
100
AcDbLine
 10
473.4918383656789
 20
186.8615745012626
 30
0.0
 11
473.4918383656789
 21
136.6694629345122
 31
0.0
  0
LINE
  5
B0
330
70
100
AcDbEntity
  8
HONTAI
 62
     2
420
 16776960
370
    25
100
AcDbLine
 10
365.3795563457392
 20
119.7632229387422
 30
0.0
 11
377.0046758341866
 21
119.7632229387422
 31
0.0
  0
LINE
  5
B1
330
70
100
AcDbEntity
  8
HONTAI
 62
     2
420
 16776960
370
    25
100
AcDbLine
 10
380.2832901719383
 20
119.7632229387422
 30
0.0
 11
395.7603952934286
 21
119.7632229387422
 31
0.0
  0
LINE
  5
B2
330
70
100
AcDbEntity
  8
HONTAI
 62
     2
420
 16776960
370
    25
100
AcDbLine
 10
435.0070238550419
 20
119.7632229387422
 30
0.0
 11
442.653001471839
 21
119.7632229387422
 31
0.0
  0
LINE
  5
B3
330
70
100
AcDbEntity
  8
HONTAI
 62
     2
420
 16776960
370
    25
100
AcDbLine
 10
445.9316158095805
 20
119.7632229387422
 30
0.0
 11
456.5855983699064
 21
119.7632229387422
 31
0.0
  0
LINE
  5
B4
330
70
100
AcDbEntity
  8
HONTAI
 62
     2
420
 16776960
370
    25
100
AcDbLine
 10
365.3795563457392
 20
123.3859886521193
 30
0.0
 11
377.9342742001395
 21
123.3859886521193
 31
0.0
  0
LINE
  5
B5
330
70
100
AcDbEntity
  8
HONTAI
 62
     2
420
 16776960
370
    25
100
AcDbLine
 10
381.2128885378836
 20
123.3859886521193
 30
0.0
 11
395.7603952934286
 21
123.3859886521193
 31
0.0
  0
LINE
  5
B6
330
70
100
AcDbEntity
  8
HONTAI
 62
     2
420
 16776960
370
    25
100
AcDbLine
 10
435.0070238550419
 20
123.3859886521193
 30
0.0
 11
443.582599837792
 21
123.3859886521193
 31
0.0
  0
LINE
  5
B7
330
70
100
AcDbEntity
  8
HONTAI
 62
     2
420
 16776960
370
    25
100
AcDbLine
 10
446.8612141755309
 20
123.3859886521193
 30
0.0
 11
456.5855983699064
 21
123.3859886521193
 31
0.0
  0
SPLINE
  5
B8
330
70
100
AcDbEntity
  8
HONTAI
 62
     2
420
 16776960
370
    25
100
AcDbSpline
210
0.0
220
0.0
230
1.0
 70
     8
 71
     3
 72
     8
 73
     4
 74
     0
 42
0.0000000001
 43
0.0000000001
 40
0.0
 40
0.0
 40
0.0
 40
0.0
 40
1.0
 40
1.0
 40
1.0
 40
1.0
 10
456.5855983699064
 20
123.3859886521186
 30
0.0
 10
463.921858640842
 20
123.3859886521186
 30
0.0
 10
469.8690726523
 20
129.3332026635766
 30
0.0
 10
469.8690726523
 20
136.6694629345122
 30
0.0
  0
SPLINE
  5
B9
330
70
100
AcDbEntity
  8
HONTAI
 62
     2
420
 16776960
370
    25
100
AcDbSpline
210
0.0
220
0.0
230
1.0
 70
     8
 71
     3
 72
     8
 73
     4
 74
     0
 42
0.0000000001
 43
0.0000000001
 40
0.0
 40
0.0
 40
0.0
 40
0.0
 40
1.0
 40
1.0
 40
1.0
 40
1.0
 10
456.5855983699064
 20
119.763222938739
 30
0.0
 10
465.9226568965514
 20
119.763222938739
 30
0.0
 10
473.4918383656796
 20
127.3324044078672
 30
0.0
 10
473.4918383656796
 20
136.6694629345122
 30
0.0
  0
LINE
  5
BA
330
70
100
AcDbEntity
  8
HONTAI
 62
     2
420
 16776960
370
    25
100
AcDbLine
 10
311.7820131823574
 20
118.5765210155128
 30
0.0
 11
311.7820131823574
 21
135.0745129883264
 31
0.0
  0
LINE
  5
BB
330
70
100
AcDbEntity
  8
HONTAI
 62
     2
420
 16776960
370
    25
100
AcDbLine
 10
317.8199560379731
 20
118.5765210155128
 30
0.0
 11
317.8199560379731
 21
135.0745129883264
 31
0.0
  0
LINE
  5
BC
330
70
100
AcDbEntity
  8
HONTAI
 62
     2
420
 16776960
370
    25
100
AcDbLine
 10
321.7183171545968
 20
252.578538328801
 30
0.0
 11
307.883652065744
 21
246.5405954731725
 31
0.0
  0
SPLINE
  5
BD
330
70
100
AcDbEntity
  8
HONTAI
 62
     2
420
 16776960
370
    25
100
AcDbSpline
210
0.0
220
0.0
230
1.0
 70
     8
 71
     3
 72
     8
 73
     4
 74
     0
 42
0.0000000001
 43
0.0000000001
 40
0.0
 40
0.0
 40
0.0
 40
0.0
 40
1.0
 40
1.0
 40
1.0
 40
1.0
 10
313.4538860824485
 20
142.6753602569945
 30
0.0
 10
327.7837468333245
 20
176.4970637895114
 30
0.0
 10
327.2916320966955
 20
214.7748134818935
 30
0.0
 10
312.0969994824818
 20
248.2169377968955
 30
0.0
  0
SPLINE
  5
BE
330
70
100
AcDbEntity
  8
HONTAI
 62
     2
420
 16776960
370
    25
100
AcDbSpline
210
0.0
220
0.0
230
1.0
 70
     8
 71
     3
 72
     8
 73
     4
 74
     0
 42
0.0000000001
 43
0.0000000001
 40
0.0
 40
0.0
 40
0.0
 40
0.0
 40
1.0
 40
1.0
 40
1.0
 40
1.0
 10
318.9345379713669
 20
140.1417445007585
 30
0.0
 10
334.0321324933652
 20
175.6246738460534
 30
0.0
 10
333.5133279227079
 20
215.820746440949
 30
0.0
 10
317.5049697379847
 20
250.9021960048351
 30
0.0
  0
LINE
  5
BF
330
70
100
AcDbEntity
  8
HONTAI
 62
     2
420
 16776960
370
    25
100
AcDbLine
 10
307.883652065744
 20
246.5405954731725
 30
0.0
 11
304.7297444209818
 21
255.924412397811
 31
0.0
  0
LINE
  5
C0
330
70
100
AcDbEntity
  8
HONTAI
 62
     2
420
 16776960
370
    25
100
AcDbLine
 10
320.8607080284647
 20
144.5396752946947
 30
0.0
 11
335.0118586433583
 21
144.5396752946947
 31
0.0
  0
LINE
  5
C1
330
70
100
AcDbEntity
  8
HONTAI
 62
     2
420
 16776960
370
    25
100
AcDbLine
 10
322.2917102567131
 20
148.1624410080718
 30
0.0
 11
335.0118586433583
 21
148.1624410080718
 31
0.0
  0
LINE
  5
C2
330
70
100
AcDbEntity
  8
HONTAI
 62
    18
420
        0
370
    25
100
AcDbLine
 10
310.8561952778301
 20
258.5982147590333
 30
0.0
 11
298.4049966978562
 21
253.164066188978
 31
0.0
  0
LINE
  5
C3
330
70
100
AcDbEntity
  8
HONTAI
 62
    18
420
        0
370
    25
100
AcDbLine
 10
277.0437152863364
 20
336.0723392566297
 30
0.0
 11
269.2040717359843
 21
332.6508383051241
 31
0.0
  0
LINE
  5
C4
330
70
100
AcDbEntity
  8
HONTAI
 62
    18
420
        0
370
    25
100
AcDbLine
 10
274.2061112889595
 20
255.7786782621906
 30
0.0
 11
263.1540838800022
 21
268.5230067384413
 31
0.0
  0
LINE
  5
C5
330
70
100
AcDbEntity
  8
HONTAI
 62
    18
420
        0
370
    25
100
AcDbLine
 10
298.4049966978562
 20
253.164066188978
 30
0.0
 11
286.6494575378632
 21
252.4254854518847
 31
0.0
  0
LINE
  5
C6
330
70
100
AcDbEntity
  8
HONTAI
 62
    18
420
        0
370
    25
100
AcDbLine
 10
286.6494575378632
 20
252.4254854518847
 30
0.0
 11
274.2061112889595
 21
255.7786782621906
 31
0.0
  0
LINE
  5
C7
330
70
100
AcDbEntity
  8
HONTAI
 62
    18
420
        0
370
    25
100
AcDbLine
 10
263.1540838800125
 20
268.523006738431
 30
0.0
 11
257.4014185895853
 21
279.1882092858116
 31
0.0
  0
LINE
  5
C8
330
70
100
AcDbEntity
  8
HONTAI
 62
    18
420
        0
370
    25
100
AcDbLine
 10
257.4014185895853
 20
279.1882092858116
 30
0.0
 11
254.5012054907092
 21
313.0581098869905
 31
0.0
  0
LINE
  5
C9
330
70
100
AcDbEntity
  8
HONTAI
 62
    18
420
        0
370
    25
100
AcDbLine
 10
261.0211169346996
 20
327.5001527275872
 30
0.0
 11
269.2040717359843
 21
332.6508383051241
 31
0.0
  0
LINE
  5
CA
330
70
100
AcDbEntity
  8
HONTAI
 62
    18
420
        0
370
    25
100
AcDbLine
 10
261.0211169346996
 20
327.5001527275872
 30
0.0
 11
254.5012054907092
 21
313.0581098869905
 31
0.0
  0
SPLINE
  5
CB
330
70
100
AcDbEntity
  8
HONTAI
 62
     2
420
 16776960
370
    25
100
AcDbSpline
210
0.0
220
0.0
230
1.0
 70
     8
 71
     3
 72
     8
 73
     4
 74
     0
 42
0.0000000001
 43
0.0000000001
 40
0.0
 40
0.0
 40
0.0
 40
0.0
 40
1.0
 40
1.0
 40
1.0
 40
1.0
 10
313.4538860824322
 20
142.6753602569644
 30
0.0
 10
312.3524689462176
 20
140.2928032755851
 30
0.0
 10
311.7820131823555
 20
137.6993363114213
 30
0.0
 10
311.7820131823555
 20
135.0745129883264
 30
0.0
  0
SPLINE
  5
CC
330
70
100
AcDbEntity
  8
HONTAI
 62
     2
420
 16776960
370
    25
100
AcDbSpline
210
0.0
220
0.0
230
1.0
 70
     8
 71
     3
 72
     8
 73
     4
 74
     0
 42
0.0000000001
 43
0.0000000001
 40
0.0
 40
0.0
 40
0.0
 40
0.0
 40
1.0
 40
1.0
 40
1.0
 40
1.0
 10
318.934537971364
 20
140.1417445007515
 30
0.0
 10
318.2002598805543
 20
138.5533731798326
 30
0.0
 10
317.8199560379795
 20
136.8243952037232
 30
0.0
 10
317.8199560379795
 20
135.0745129883264
 30
0.0
  0
LINE
  5
CD
330
70
100
AcDbEntity
  8
HONTAI
 62
     2
420
 16776960
370
    25
100
AcDbLine
 10
356.1301844837601
 20
124.0753379250093
 30
0.0
 11
341.4864189467333
 21
141.5211948042954
 31
0.0
  0
LINE
  5
CE
330
70
100
AcDbEntity
  8
HONTAI
 62
     2
420
 16776960
370
    25
100
AcDbLine
 10
358.9049960423566
 20
126.4044691425083
 30
0.0
 11
344.2612305053298
 21
143.8503260217944
 31
0.0
  0
SPLINE
  5
CF
330
70
100
AcDbEntity
  8
HONTAI
 62
     2
420
 16776960
370
    25
100
AcDbSpline
210
0.0
220
0.0
230
1.0
 70
     8
 71
     3
 72
     8
 73
     4
 74
     0
 42
0.0000000001
 43
0.0000000001
 40
0.0
 40
0.0
 40
0.0
 40
0.0
 40
1.0
 40
1.0
 40
1.0
 40
1.0
 10
356.1301844837633
 20
124.0753379250119
 30
0.0
 10
358.4246475367278
 20
121.3418283003445
 30
0.0
 10
361.8107140166955
 20
119.7632229387409
 30
0.0
 10
365.3795563457392
 20
119.7632229387409
 30
0.0
  0
SPLINE
  5
D0
330
70
100
AcDbEntity
  8
HONTAI
 62
     2
420
 16776960
370
    25
100
AcDbSpline
210
0.0
220
0.0
230
1.0
 70
     8
 71
     3
 72
     8
 73
     4
 74
     0
 42
0.0000000001
 43
0.0000000001
 40
0.0
 40
0.0
 40
0.0
 40
0.0
 40
1.0
 40
1.0
 40
1.0
 40
1.0
 10
358.9049960423611
 20
126.4044691425096
 30
0.0
 10
360.5111201794354
 20
124.4910124052436
 30
0.0
 10
362.8813667154109
 20
123.3859886521219
 30
0.0
 10
365.3795563457392
 20
123.3859886521219
 30
0.0
  0
SPLINE
  5
D1
330
70
100
AcDbEntity
  8
HONTAI
 62
     2
420
 16776960
370
    25
100
AcDbSpline
210
0.0
220
0.0
230
1.0
 70
     8
 71
     3
 72
     8
 73
     4
 74
     0
 42
0.0000000001
 43
0.0000000001
 40
0.0
 40
0.0
 40
0.0
 40
0.0
 40
1.0
 40
1.0
 40
1.0
 40
1.0
 10
344.2612305053343
 20
143.8503260218021
 30
0.0
 10
341.9667674523698
 20
146.5838356464694
 30
0.0
 10
338.5807009724018
 20
148.1624410080731
 30
0.0
 10
335.0118586433583
 20
148.1624410080731
 30
0.0
  0
SPLINE
  5
D2
330
70
100
AcDbEntity
  8
HONTAI
 62
     2
420
 16776960
370
    25
100
AcDbSpline
210
0.0
220
0.0
230
1.0
 70
     8
 71
     3
 72
     8
 73
     4
 74
     0
 42
0.0000000001
 43
0.0000000001
 40
0.0
 40
0.0
 40
0.0
 40
0.0
 40
1.0
 40
1.0
 40
1.0
 40
1.0
 10
341.4864189467364
 20
141.5211948043044
 30
0.0
 10
339.8802948096621
 20
143.4346515415704
 30
0.0
 10
337.5100482736867
 20
144.5396752946921
 30
0.0
 10
335.0118586433583
 20
144.5396752946921
 30
0.0
  0
LINE
  5
D3
330
70
100
AcDbEntity
  8
HONTAI
 62
    18
420
        0
370
    25
100
AcDbLine
 10
310.8561952778301
 20
258.5982147590333
 30
0.0
 11
323.3073938578041
 21
264.0323633290989
 31
0.0
  0
LINE
  5
D4
330
70
100
AcDbEntity
  8
HONTAI
 62
    18
420
        0
370
    25
100
AcDbLine
 10
277.0437152863364
 20
336.0723392566297
 30
0.0
 11
284.8833588366782
 21
339.493840208156
 31
0.0
  0
LINE
  5
D5
330
70
100
AcDbEntity
  8
HONTAI
 62
    18
420
        0
370
    25
100
AcDbLine
 10
337.8455706977005
 20
283.5532153980508
 30
0.0
 11
336.0166533479818
 21
300.3228391113905
 31
0.0
  0
LINE
  5
D6
330
70
100
AcDbEntity
  8
HONTAI
 62
    18
420
        0
370
    25
100
AcDbLine
 10
323.3073938578041
 20
264.0323633290989
 30
0.0
 11
331.8426968281269
 21
272.1494321135872
 31
0.0
  0
LINE
  5
D7
330
70
100
AcDbEntity
  8
HONTAI
 62
    18
420
        0
370
    25
100
AcDbLine
 10
331.8426968281269
 20
272.1494321135872
 30
0.0
 11
337.8455706977005
 21
283.5532153980508
 31
0.0
  0
LINE
  5
D8
330
70
100
AcDbEntity
  8
HONTAI
 62
    18
420
        0
370
    25
100
AcDbLine
 10
336.0166533479922
 20
300.3228391113905
 30
0.0
 11
332.1086100694086
 21
311.7931007061745
 31
0.0
  0
LINE
  5
D9
330
70
100
AcDbEntity
  8
HONTAI
 62
    18
420
        0
370
    25
100
AcDbLine
 10
332.1086100694086
 20
311.7931007061745
 30
0.0
 11
309.2469336509615
 21
336.9511044841044
 31
0.0
  0
LINE
  5
DA
330
70
100
AcDbEntity
  8
HONTAI
 62
    18
420
        0
370
    25
100
AcDbLine
 10
294.2243131479568
 20
341.9912155810751
 30
0.0
 11
284.8833588366859
 21
339.493840208156
 31
0.0
  0
LINE
  5
DB
330
70
100
AcDbEntity
  8
HONTAI
 62
    18
420
        0
370
    25
100
AcDbLine
 10
294.2243131479568
 20
341.9912155810751
 30
0.0
 11
309.2469336509615
 21
336.9511044841044
 31
0.0
  0
LINE
  5
DC
330
70
100
AcDbEntity
  8
HONTAI
 62
     2
420
 16776960
370
    25
100
AcDbLine
 10
321.7183171545994
 20
252.578538328801
 30
0.0
 11
316.9826461346837
 21
261.2720171202659
 31
0.0
  0
SPLINE
  5
DD
330
70
100
AcDbEntity
  8
HONTAI
 62
     2
420
 16776960
370
    25
100
AcDbSpline
210
0.0
220
0.0
230
1.0
 70
     8
 71
     3
 72
    17
 73
    13
 74
     0
 42
0.0000000001
 43
0.0000000001
 40
0.0
 40
0.0
 40
0.0
 40
0.0
 40
1.0
 40
1.0
 40
1.0
 40
2.0
 40
2.0
 40
2.0
 40
3.0
 40
3.0
 40
3.0
 40
4.0
 40
4.0
 40
4.0
 40
4.0
 10
315.0917141723357
 20
146.3926981495376
 30
0.0
 10
289.3195689672817
 20
153.0606136238201
 30
0.0
 10
255.1860496334109
 20
149.9370819474495
 30
0.0
 10
238.8523648962713
 20
139.4160948839803
 30
0.0
 10
222.5186801591315
 20
128.8951078205112
 30
0.0
 10
230.170064143388
 20
114.960749136551
 30
0.0
 10
255.9422093484423
 20
108.2928336622685
 30
0.0
 10
281.7143545534963
 20
101.6249181879861
 30
0.0
 10
315.8478738873671
 20
104.7484498643566
 30
0.0
 10
332.1815586245068
 20
115.2694369278258
 30
0.0
 10
347.0281474468351
 20
124.8325435660473
 30
0.0
 10
342.2060265235738
 20
137.407015765267
 30
0.0
 10
320.9105926067439
 20
144.6603317444697
 30
0.0
  0
SPLINE
  5
DE
330
70
100
AcDbEntity
  8
HONTAI
 62
     2
420
 16776960
370
    25
100
AcDbSpline
210
0.0
220
0.0
230
1.0
 70
     8
 71
     3
 72
    14
 73
    10
 74
     0
 42
0.0000000001
 43
0.0000000001
 40
0.0
 40
0.0
 40
0.0
 40
0.0
 40
1.0
 40
1.0
 40
1.0
 40
2.0
 40
2.0
 40
2.0
 40
3.0
 40
3.0
 40
3.0
 40
3.0
 10
230.2697846314299
 20
115.0808590211674
 30
0.0
 10
230.2697846314299
 20
102.6248457921338
 30
0.0
 10
255.0047883608645
 20
92.52725196819399
 30
0.0
 10
285.516961760389
 20
92.52725196819399
 30
0.0
 10
316.0291351599135
 20
92.52725196819399
 30
0.0
 10
340.7641388893477
 20
102.6248457921338
 30
0.0
 10
340.7641388893484
 20
115.0808590211674
 30
0.0
 10
340.7641388893477
 20
115.0963550685139
 30
0.0
 10
340.7640997682352
 20
115.1118511117447
 30
0.0
 10
340.7640215260715
 20
115.1273471261727
 30
0.0
  0
LINE
  5
DF
330
70
100
AcDbEntity
  8
HONTAI
 62
     2
420
 16776960
370
    25
100
AcDbLine
 10
230.2697846314322
 20
127.3427659059031
 30
0.0
 11
230.2697846314322
 21
115.0808590211674
 31
0.0
  0
LINE
  5
E0
330
70
100
AcDbEntity
  8
HONTAI
 62
     2
420
 16776960
370
    25
100
AcDbLine
 10
340.6967195341502
 20
128.4566390246091
 30
0.0
 11
340.7640215260747
 21
115.127347126174
 31
0.0
  0
ELLIPSE
  5
E1
330
70
100
AcDbEntity
  8
HONTAI
 62
     8
420
  8421504
370
    25
100
AcDbEllipse
 10
270.1926610625165
 20
127.3427659059031
 30
0.0
 11
25.18499790691782
 21
0.0
 31
0.0
210
0.0
220
0.0
230
1.0
 40
0.4887170597603444
 41
0.0
 42
6.283185307179585
  0
SPLINE
  5
E2
330
70
100
AcDbEntity
  8
HONTAI
 62
     2
420
 16776960
370
    25
100
AcDbSpline
210
0.0
220
0.0
230
1.0
 70
     8
 71
     3
 72
    11
 73
     7
 74
     0
 42
0.0000000001
 43
0.0000000001
 40
0.0
 40
0.0
 40
0.0
 40
0.0
 40
1.0
 40
1.0
 40
1.0
 40
2.0
 40
2.0
 40
2.0
 40
2.0
 10
311.7820131823545
 20
118.5765210155115
 30
0.0
 10
311.7820131823549
 20
117.8399353445196
 30
0.0
 10
313.1336527304117
 20
117.2428146779433
 30
0.0
 10
314.8009846101668
 20
117.242814677944
 30
0.0
 10
316.4683164899214
 20
117.242814677944
 30
0.0
 10
317.8199560379782
 20
117.8399353445215
 30
0.0
 10
317.8199560379785
 20
118.5765210155135
 30
0.0
  0
LINE
  5
E4
330
70
100
AcDbEntity
  8
TOUGU
  6
AI-Linetype-0
 62
     3
420
    65280
370
    25
100
AcDbLine
 10
435.0070238550419
 20
125.3926652899887
 30
0.0
 11
435.0070238550419
 21
117.7565463008728
 31
0.0
  0
SPLINE
  5
E6
330
70
100
AcDbEntity
  8
TOUGU
  6
AI-Linetype-1
 62
     3
420
    65280
370
    25
100
AcDbSpline
210
0.0
220
0.0
230
1.0
 70
     8
 71
     3
 72
    11
 73
     7
 74
     0
 42
0.0000000001
 43
0.0000000001
 40
0.0
 40
0.0
 40
0.0
 40
0.0
 40
1.0
 40
1.0
 40
1.0
 40
2.0
 40
2.0
 40
2.0
 40
2.0
 10
421.1197552870912
 20
117.649942939269
 30
0.0
 10
423.287286730777
 20
117.649942939269
 30
0.0
 10
425.044418143253
 20
119.407074351745
 30
0.0
 10
425.044418143253
 20
121.5746057954308
 30
0.0
 10
425.044418143253
 20
123.7421372391165
 30
0.0
 10
423.287286730777
 20
125.4992686515925
 30
0.0
 10
421.1197552870912
 20
125.4992686515925
 30
0.0
  0
SPLINE
  5
E8
330
70
100
AcDbEntity
  8
TOUGU
  6
AI-Linetype-2
 62
     3
420
    65280
370
    25
100
AcDbSpline
210
0.0
220
0.0
230
1.0
 70
     8
 71
     3
 72
    11
 73
     7
 74
     0
 42
0.0000000001
 43
0.0000000001
 40
0.0
 40
0.0
 40
0.0
 40
0.0
 40
1.0
 40
1.0
 40
1.0
 40
2.0
 40
2.0
 40
2.0
 40
2.0
 10
421.1197552870912
 20
118.2537372248325
 30
0.0
 10
422.953820354825
 20
118.2537372248325
 30
0.0
 10
424.4406238576894
 20
119.740540727697
 30
0.0
 10
424.4406238576894
 20
121.5746057954308
 30
0.0
 10
424.4406238576894
 20
123.4086708631645
 30
0.0
 10
422.953820354825
 20
124.895474366029
 30
0.0
 10
421.1197552870912
 20
124.895474366029
 30
0.0
  0
SPLINE
  5
EA
330
70
100
AcDbEntity
  8
TOUGU
  6
AI-Linetype-3
 62
     3
420
    65280
370
    25
100
AcDbSpline
210
0.0
220
0.0
230
1.0
 70
     8
 71
     3
 72
    11
 73
     7
 74
     0
 42
0.0000000001
 43
0.0000000001
 40
0.0
 40
0.0
 40
0.0
 40
0.0
 40
1.0
 40
1.0
 40
1.0
 40
2.0
 40
2.0
 40
2.0
 40
2.0
 10
420.8178581443073
 20
118.857531510396
 30
0.0
 10
422.3184568360896
 20
118.857531510396
 30
0.0
 10
423.5349324293427
 20
120.0740071036484
 30
0.0
 10
423.5349324293427
 20
121.5746057954308
 30
0.0
 10
423.5349324293427
 20
123.0752044872131
 30
0.0
 10
422.3184568360896
 20
124.2916800804655
 30
0.0
 10
420.8178581443073
 20
124.2916800804655
 30
0.0
  0
SPLINE
  5
EC
330
70
100
AcDbEntity
  8
TOUGU
  6
AI-Linetype-4
 62
     3
420
    65280
370
    25
100
AcDbSpline
210
0.0
220
0.0
230
1.0
 70
     8
 71
     3
 72
    11
 73
     7
 74
     0
 42
0.0000000001
 43
0.0000000001
 40
0.0
 40
0.0
 40
0.0
 40
0.0
 40
1.0
 40
1.0
 40
1.0
 40
2.0
 40
2.0
 40
2.0
 40
2.0
 10
409.6476638613843
 20
125.4992686515925
 30
0.0
 10
407.4801324176986
 20
125.4992686515925
 30
0.0
 10
405.7230010052227
 20
123.7421372391165
 30
0.0
 10
405.7230010052227
 20
121.5746057954308
 30
0.0
 10
405.7230010052227
 20
119.407074351745
 30
0.0
 10
407.4801324176986
 20
117.649942939269
 30
0.0
 10
409.6476638613843
 20
117.649942939269
 30
0.0
  0
SPLINE
  5
EE
330
70
100
AcDbEntity
  8
TOUGU
  6
AI-Linetype-5
 62
     3
420
    65280
370
    25
100
AcDbSpline
210
0.0
220
0.0
230
1.0
 70
     8
 71
     3
 72
    11
 73
     7
 74
     0
 42
0.0000000001
 43
0.0000000001
 40
0.0
 40
0.0
 40
0.0
 40
0.0
 40
1.0
 40
1.0
 40
1.0
 40
2.0
 40
2.0
 40
2.0
 40
2.0
 10
409.6476638613843
 20
124.895474366029
 30
0.0
 10
407.8135987936506
 20
124.895474366029
 30
0.0
 10
406.3267952907861
 20
123.4086708631645
 30
0.0
 10
406.3267952907861
 20
121.5746057954308
 30
0.0
 10
406.3267952907861
 20
119.740540727697
 30
0.0
 10
407.8135987936506
 20
118.2537372248325
 30
0.0
 10
409.6476638613843
 20
118.2537372248325
 30
0.0
  0
SPLINE
  5
F0
330
70
100
AcDbEntity
  8
TOUGU
  6
AI-Linetype-6
 62
     3
420
    65280
370
    25
100
AcDbSpline
210
0.0
220
0.0
230
1.0
 70
     8
 71
     3
 72
    11
 73
     7
 74
     0
 42
0.0000000001
 43
0.0000000001
 40
0.0
 40
0.0
 40
0.0
 40
0.0
 40
1.0
 40
1.0
 40
1.0
 40
2.0
 40
2.0
 40
2.0
 40
2.0
 10
412.9685324319852
 20
124.2916800804655
 30
0.0
 10
411.4679337402027
 20
124.2916800804655
 30
0.0
 10
410.2514581469497
 20
123.0752044872131
 30
0.0
 10
410.2514581469497
 20
121.5746057954308
 30
0.0
 10
410.2514581469497
 20
120.0740071036484
 30
0.0
 10
411.4679337402027
 20
118.857531510396
 30
0.0
 10
412.9685324319852
 20
118.857531510396
 30
0.0
  0
LINE
  5
F2
330
70
100
AcDbEntity
  8
TOUGU
  6
AI-Linetype-7
 62
     3
420
    65280
370
    25
100
AcDbLine
 10
419.6102695731765
 20
124.2916800804687
 30
0.0
 11
419.6102695731765
 21
118.8575315103928
 31
0.0
  0
LINE
  5
F4
330
70
100
AcDbEntity
  8
TOUGU
  6
AI-Linetype-8
 62
     3
420
    65280
370
    25
100
AcDbLine
 10
414.1761210031082
 20
124.2916800804687
 30
0.0
 11
414.1761210031082
 21
118.8575315103928
 31
0.0
  0
LINE
  5
F6
330
70
100
AcDbEntity
  8
TOUGU
  6
AI-Linetype-9
 62
     3
420
    65280
370
    25
100
AcDbLine
 10
414.8553895743678
 20
124.2916800804687
 30
0.0
 11
414.8553895743678
 21
118.8575315103928
 31
0.0
  0
LINE
  5
F8
330
70
100
AcDbEntity
  8
TOUGU
  6
AI-Linetype-10
 62
     3
420
    65280
370
    25
100
AcDbLine
 10
415.5346581456272
 20
124.2916800804687
 30
0.0
 11
415.5346581456272
 21
118.8575315103928
 31
0.0
  0
LINE
  5
FA
330
70
100
AcDbEntity
  8
TOUGU
  6
AI-Linetype-11
 62
     3
420
    65280
370
    25
100
AcDbLine
 10
416.2139267168867
 20
124.2916800804687
 30
0.0
 11
416.2139267168867
 21
118.8575315103928
 31
0.0
  0
LINE
  5
FC
330
70
100
AcDbEntity
  8
TOUGU
  6
AI-Linetype-12
 62
     3
420
    65280
370
    25
100
AcDbLine
 10
417.572463859398
 20
124.2916800804687
 30
0.0
 11
417.572463859398
 21
118.8575315103928
 31
0.0
  0
LINE
  5
FE
330
70
100
AcDbEntity
  8
TOUGU
  6
AI-Linetype-13
 62
     3
420
    65280
370
    25
100
AcDbLine
 10
418.2517324306575
 20
124.2916800804687
 30
0.0
 11
418.2517324306575
 21
118.8575315103928
 31
0.0
  0
LINE
  5
100
330
70
100
AcDbEntity
  8
TOUGU
  6
AI-Linetype-14
 62
     3
420
    65280
370
    25
100
AcDbLine
 10
418.9310010019169
 20
124.2916800804687
 30
0.0
 11
418.9310010019169
 21
118.8575315103928
 31
0.0
  0
LINE
  5
102
330
70
100
AcDbEntity
  8
TOUGU
  6
AI-Linetype-15
 62
     3
420
    65280
370
    25
100
AcDbLine
 10
416.8931952881385
 20
124.2916800804687
 30
0.0
 11
416.8931952881385
 21
118.8575315103928
 31
0.0
  0
LINE
  5
104
330
70
100
AcDbEntity
  8
TOUGU
  6
AI-Linetype-16
 62
     3
420
    65280
370
    25
100
AcDbLine
 10
395.7603952934286
 20
125.3926652899887
 30
0.0
 11
395.7603952934286
 21
117.7565463008728
 31
0.0
  0
SPLINE
  5
106
330
70
100
AcDbEntity
  8
TOUGU
  6
AI-Linetype-17
 62
     3
420
    65280
370
    25
100
AcDbSpline
210
0.0
220
0.0
230
1.0
 70
     8
 71
     3
 72
     8
 73
     4
 74
     0
 42
0.0000000001
 43
0.0000000001
 40
0.0
 40
0.0
 40
0.0
 40
0.0
 40
1.0
 40
1.0
 40
1.0
 40
1.0
 10
396.4542390686185
 20
116.8759797018962
 30
0.0
 10
408.8963828937902
 20
113.8826354479769
 30
0.0
 10
421.8710362546771
 20
113.8826354479769
 30
0.0
 10
434.3131800798495
 20
116.8759797018962
 30
0.0
  0
LINE
  5
108
330
70
100
AcDbEntity
  8
TOUGU
  6
AI-Linetype-18
 62
     3
420
    65280
370
    25
100
AcDbLine
 10
409.6476638613843
 20
117.6499429392774
 30
0.0
 11
421.1197552870912
 21
117.6499429392774
 31
0.0
  0
LINE
  5
10A
330
70
100
AcDbEntity
  8
TOUGU
  6
AI-Linetype-19
 62
     3
420
    65280
370
    25
100
AcDbLine
 10
409.6476638613843
 20
118.2537372248299
 30
0.0
 11
421.1197552870912
 21
118.2537372248299
 31
0.0
  0
LINE
  5
10C
330
70
100
AcDbEntity
  8
TOUGU
  6
AI-Linetype-20
 62
     3
420
    65280
370
    25
100
AcDbLine
 10
412.9685324319852
 20
118.8575315103928
 30
0.0
 11
420.8178581443073
 21
118.8575315103928
 31
0.0
  0
SPLINE
  5
10E
330
70
100
AcDbEntity
  8
TOUGU
  6
AI-Linetype-21
 62
     3
420
    65280
370
    25
100
AcDbSpline
210
0.0
220
0.0
230
1.0
 70
     8
 71
     3
 72
     8
 73
     4
 74
     0
 42
0.0000000001
 43
0.0000000001
 40
0.0
 40
0.0
 40
0.0
 40
0.0
 40
1.0
 40
1.0
 40
1.0
 40
1.0
 10
395.760395293428
 20
117.7565463008728
 30
0.0
 10
395.760395293428
 20
117.3379516826483
 30
0.0
 10
396.0472567038061
 20
116.9738919540203
 30
0.0
 10
396.4542390686441
 20
116.8759797018917
 30
0.0
  0
SPLINE
  5
110
330
70
100
AcDbEntity
  8
TOUGU
  6
AI-Linetype-22
 62
     3
420
    65280
370
    25
100
AcDbSpline
210
0.0
220
0.0
230
1.0
 70
     8
 71
     3
 72
     8
 73
     4
 74
     0
 42
0.0000000001
 43
0.0000000001
 40
0.0
 40
0.0
 40
0.0
 40
0.0
 40
1.0
 40
1.0
 40
1.0
 40
1.0
 10
434.3131800798289
 20
116.8759797018917
 30
0.0
 10
434.720162444667
 20
116.9738919540203
 30
0.0
 10
435.0070238550451
 20
117.3379516826483
 30
0.0
 10
435.0070238550451
 20
117.7565463008728
 30
0.0
  0
SPLINE
  5
112
330
70
100
AcDbEntity
  8
TOUGU
  6
AI-Linetype-23
 62
     3
420
    65280
370
    25
100
AcDbSpline
210
0.0
220
0.0
230
1.0
 70
     8
 71
     3
 72
     8
 73
     4
 74
     0
 42
0.0000000001
 43
0.0000000001
 40
0.0
 40
0.0
 40
0.0
 40
0.0
 40
1.0
 40
1.0
 40
1.0
 40
1.0
 10
434.3131800798495
 20
126.2732318889762
 30
0.0
 10
421.8710362546778
 20
129.2665761428962
 30
0.0
 10
408.8963828937902
 20
129.2665761428962
 30
0.0
 10
396.4542390686185
 20
126.2732318889762
 30
0.0
  0
LINE
  5
114
330
70
100
AcDbEntity
  8
TOUGU
  6
AI-Linetype-24
 62
     3
420
    65280
370
    25
100
AcDbLine
 10
409.6476638613843
 20
125.4992686515944
 30
0.0
 11
421.1197552870912
 21
125.4992686515944
 31
0.0
  0
LINE
  5
116
330
70
100
AcDbEntity
  8
TOUGU
  6
AI-Linetype-25
 62
     3
420
    65280
370
    25
100
AcDbLine
 10
409.6476638613843
 20
124.8954743660315
 30
0.0
 11
421.1197552870912
 21
124.8954743660315
 31
0.0
  0
LINE
  5
118
330
70
100
AcDbEntity
  8
TOUGU
  6
AI-Linetype-26
 62
     3
420
    65280
370
    25
100
AcDbLine
 10
412.9685324319852
 20
124.2916800804687
 30
0.0
 11
420.8178581443073
 21
124.2916800804687
 31
0.0
  0
SPLINE
  5
11A
330
70
100
AcDbEntity
  8
TOUGU
  6
AI-Linetype-27
 62
     3
420
    65280
370
    25
100
AcDbSpline
210
0.0
220
0.0
230
1.0
 70
     8
 71
     3
 72
     8
 73
     4
 74
     0
 42
0.0000000001
 43
0.0000000001
 40
0.0
 40
0.0
 40
0.0
 40
0.0
 40
1.0
 40
1.0
 40
1.0
 40
1.0
 10
396.4542390686441
 20
126.2732318889698
 30
0.0
 10
396.0472567038061
 20
126.1753196368412
 30
0.0
 10
395.760395293428
 20
125.8112599082132
 30
0.0
 10
395.760395293428
 20
125.3926652899887
 30
0.0
  0
SPLINE
  5
11C
330
70
100
AcDbEntity
  8
TOUGU
  6
AI-Linetype-28
 62
     3
420
    65280
370
    25
100
AcDbSpline
210
0.0
220
0.0
230
1.0
 70
     8
 71
     3
 72
     8
 73
     4
 74
     0
 42
0.0000000001
 43
0.0000000001
 40
0.0
 40
0.0
 40
0.0
 40
0.0
 40
1.0
 40
1.0
 40
1.0
 40
1.0
 10
435.0070238550451
 20
125.3926652899887
 30
0.0
 10
435.0070238550451
 20
125.8112599082132
 30
0.0
 10
434.720162444667
 20
126.1753196368412
 30
0.0
 10
434.3131800798289
 20
126.2732318889698
 30
0.0
  0
LINE
  5
11F
330
70
100
AcDbEntity
  8
CL
  6
AI-Linetype-29
 62
     9
420
 12632256
370
    25
100
AcDbLine
 10
382.2514629567038
 20
127.4334482143698
 30
0.0
 11
379.2447157531103
 21
115.715763376502
 31
0.0
  0
LINE
  5
121
330
70
100
AcDbEntity
  8
CL
  6
AI-Linetype-30
 62
     9
420
 12632256
370
    25
100
AcDbLine
 10
378.9728486189546
 20
127.4334482143698
 30
0.0
 11
375.9661014153611
 21
115.715763376502
 31
0.0
  0
LINE
  5
123
330
70
100
AcDbEntity
  8
CL
  6
AI-Linetype-31
 62
     9
420
 12632256
370
    25
100
AcDbLine
 10
447.8997885943537
 20
127.4334482143698
 30
0.0
 11
444.8930413907602
 21
115.715763376502
 31
0.0
  0
LINE
  5
125
330
70
100
AcDbEntity
  8
CL
  6
AI-Linetype-32
 62
     9
420
 12632256
370
    25
100
AcDbLine
 10
444.6211742566097
 20
127.4334482143698
 30
0.0
 11
441.6144270530033
 21
115.715763376502
 31
0.0
  0
LINE
  5
128
330
70
100
AcDbEntity
  8
HONTAI-1
 62
    18
420
        0
370
    25
100
AcDbLine
 10
296.6610226713029
 20
269.995836055697
 30
0.0
 11
296.6610226713029
 21
269.995836055697
 31
0.0
  0
LINE
  5
129
330
70
100
AcDbEntity
  8
HONTAI-1
 62
    18
420
        0
370
    25
100
AcDbLine
 10
312.1520386767753
 20
276.7566697163514
 30
0.0
 11
312.1520386767753
 21
276.7566697163514
 31
0.0
  0
LINE
  5
12B
330
70
100
AcDbEntity
  8
SOUZOU
  6
AI-Linetype-33
 62
     8
420
  8421504
370
    25
100
AcDbLine
 10
276.2561751283219
 20
334.1492772408443
 30
0.0
 11
276.2429271592329
 21
335.7228466653862
 31
0.0
  0
LINE
  5
12D
330
70
100
AcDbEntity
  8
SOUZOU
  6
AI-Linetype-34
 62
     8
420
  8421504
370
    25
100
AcDbLine
 10
276.2561751283219
 20
334.1492772408443
 30
0.0
 11
275.4664705741586
 21
335.3839732296802
 31
0.0
  0
LINE
  5
12F
330
70
100
AcDbEntity
  8
SOUZOU
  6
AI-Linetype-35
 62
     8
420
  8421504
370
    25
100
AcDbLine
 10
275.4664705741586
 20
335.3839732296802
 30
0.0
 11
273.5646169260435
 21
332.9745849361491
 31
0.0
  0
LINE
  5
131
330
70
100
AcDbEntity
  8
SOUZOU
  6
AI-Linetype-36
 62
     8
420
  8421504
370
    25
100
AcDbLine
 10
273.5646169260435
 20
332.9745849361491
 30
0.0
 11
274.7379377715306
 21
335.0660154473652
 31
0.0
  0
LINE
  5
133
330
70
100
AcDbEntity
  8
SOUZOU
  6
AI-Linetype-37
 62
     8
420
  8421504
370
    25
100
AcDbLine
 10
274.7379377715306
 20
335.0660154473652
 30
0.0
 11
270.9963619815038
 21
331.853706584979
 31
0.0
  0
LINE
  5
135
330
70
100
AcDbEntity
  8
SOUZOU
  6
AI-Linetype-38
 62
     8
420
  8421504
370
    25
100
AcDbLine
 10
270.9963619815038
 20
331.853706584979
 30
0.0
 11
274.0794648519222
 21
334.7786343047742
 31
0.0
  0
LINE
  5
137
330
70
100
AcDbEntity
  8
SOUZOU
  6
AI-Linetype-39
 62
     8
420
  8421504
370
    25
100
AcDbLine
 10
274.0794648519222
 20
334.7786343047742
 30
0.0
 11
268.6294454215848
 21
330.8206995088411
 31
0.0
  0
LINE
  5
139
330
70
100
AcDbEntity
  8
SOUZOU
  6
AI-Linetype-40
 62
     8
420
  8421504
370
    25
100
AcDbLine
 10
268.6294454215848
 20
330.8206995088411
 30
0.0
 11
273.5110591817535
 21
334.53056173249
 31
0.0
  0
LINE
  5
13B
330
70
100
AcDbEntity
  8
SOUZOU
  6
AI-Linetype-41
 62
     8
420
  8421504
370
    25
100
AcDbLine
 10
273.5110591817535
 20
334.53056173249
 30
0.0
 11
266.5357848082581
 21
329.9069511050165
 31
0.0
  0
LINE
  5
13D
330
70
100
AcDbEntity
  8
SOUZOU
  6
AI-Linetype-42
 62
     8
420
  8421504
370
    25
100
AcDbLine
 10
266.5357848082581
 20
329.9069511050165
 30
0.0
 11
273.0499914797475
 21
334.3293352901233
 31
0.0
  0
LINE
  5
13F
330
70
100
AcDbEntity
  8
SOUZOU
  6
AI-Linetype-43
 62
     8
420
  8421504
370
    25
100
AcDbLine
 10
273.0499914797475
 20
334.3293352901233
 30
0.0
 11
264.7789949597979
 21
329.1402251563736
 31
0.0
  0
LINE
  5
141
330
70
100
AcDbEntity
  8
SOUZOU
  6
AI-Linetype-44
 62
     8
420
  8421504
370
    25
100
AcDbLine
 10
264.7789949597979
 20
329.1402251563736
 30
0.0
 11
272.7102710546705
 21
334.1810691412669
 31
0.0
  0
LINE
  5
143
330
70
100
AcDbEntity
  8
SOUZOU
  6
AI-Linetype-45
 62
     8
420
  8421504
370
    25
100
AcDbLine
 10
272.7102710546705
 20
334.1810691412669
 30
0.0
 11
263.4124550467788
 21
328.5438182428971
 31
0.0
  0
LINE
  5
145
330
70
100
AcDbEntity
  8
SOUZOU
  6
AI-Linetype-46
 62
     8
420
  8421504
370
    25
100
AcDbLine
 10
263.4124550467788
 20
328.5438182428971
 30
0.0
 11
272.5022201397162
 21
334.0902682778144
 31
0.0
  0
LINE
  5
147
330
70
100
AcDbEntity
  8
SOUZOU
  6
AI-Linetype-47
 62
     8
420
  8421504
370
    25
100
AcDbLine
 10
272.5022201397162
 20
334.0902682778144
 30
0.0
 11
261.2125080325415
 21
327.5836826507473
 31
0.0
  0
LINE
  5
149
330
70
100
AcDbEntity
  8
SOUZOU
  6
AI-Linetype-48
 62
     8
420
  8421504
370
    25
100
AcDbLine
 10
261.2125080325415
 20
327.5836826507473
 30
0.0
 11
272.4321602567248
 21
334.0596916381006
 31
0.0
  0
LINE
  5
14B
330
70
100
AcDbEntity
  8
SOUZOU
  6
AI-Linetype-49
 62
     8
420
  8421504
370
    25
100
AcDbLine
 10
277.6227150413282
 20
334.7456841543209
 30
0.0
 11
279.9448367524729
 21
324.16262095476
 31
0.0
  0
LINE
  5
14D
330
70
100
AcDbEntity
  8
SOUZOU
  6
AI-Linetype-50
 62
     8
420
  8421504
370
    25
100
AcDbLine
 10
279.9448367524729
 20
324.16262095476
 30
0.0
 11
276.2561751283219
 21
334.1492772408443
 31
0.0
  0
LINE
  5
14F
330
70
100
AcDbEntity
  8
SOUZOU
  6
AI-Linetype-51
 62
     8
420
  8421504
370
    25
100
AcDbLine
 10
276.2561751283219
 20
334.1492772408443
 30
0.0
 11
276.1449898786716
 21
322.5042318187143
 31
0.0
  0
LINE
  5
151
330
70
100
AcDbEntity
  8
SOUZOU
  6
AI-Linetype-52
 62
     8
420
  8421504
370
    25
100
AcDbLine
 10
276.1449898786716
 20
322.5042318187143
 30
0.0
 11
273.5646169260435
 21
332.9745849361491
 31
0.0
  0
LINE
  5
153
330
70
100
AcDbEntity
  8
SOUZOU
  6
AI-Linetype-53
 62
     8
420
  8421504
370
    25
100
AcDbLine
 10
273.5646169260435
 20
332.9745849361491
 30
0.0
 11
272.5192181922547
 21
320.9218153229459
 31
0.0
  0
LINE
  5
155
330
70
100
AcDbEntity
  8
SOUZOU
  6
AI-Linetype-54
 62
     8
420
  8421504
370
    25
100
AcDbLine
 10
272.5192181922547
 20
320.9218153229459
 30
0.0
 11
270.9963619815038
 21
331.853706584979
 31
0.0
  0
LINE
  5
157
330
70
100
AcDbEntity
  8
SOUZOU
  6
AI-Linetype-55
 62
     8
420
  8421504
370
    25
100
AcDbLine
 10
270.9963619815038
 20
331.853706584979
 30
0.0
 11
269.1776889312028
 21
319.4634523919132
 31
0.0
  0
LINE
  5
159
330
70
100
AcDbEntity
  8
SOUZOU
  6
AI-Linetype-56
 62
     8
420
  8421504
370
    25
100
AcDbLine
 10
269.1776889312028
 20
319.4634523919132
 30
0.0
 11
268.6294454215848
 21
330.8206995088411
 31
0.0
  0
LINE
  5
15B
330
70
100
AcDbEntity
  8
SOUZOU
  6
AI-Linetype-57
 62
     8
420
  8421504
370
    25
100
AcDbLine
 10
268.6294454215848
 20
330.8206995088411
 30
0.0
 11
266.2219327712059
 21
318.1734546453494
 31
0.0
  0
LINE
  5
15D
330
70
100
AcDbEntity
  8
SOUZOU
  6
AI-Linetype-58
 62
     8
420
  8421504
370
    25
100
AcDbLine
 10
266.2219327712059
 20
318.1734546453494
 30
0.0
 11
266.5357848082581
 21
329.9069511050165
 31
0.0
  0
LINE
  5
15F
330
70
100
AcDbEntity
  8
SOUZOU
  6
AI-Linetype-59
 62
     8
420
  8421504
370
    25
100
AcDbLine
 10
266.5357848082581
 20
329.9069511050165
 30
0.0
 11
262.7177230367081
 21
316.6440921349293
 31
0.0
  0
LINE
  5
161
330
70
100
AcDbEntity
  8
SOUZOU
  6
AI-Linetype-60
 62
     8
420
  8421504
370
    25
100
AcDbLine
 10
262.7177230367081
 20
316.6440921349293
 30
0.0
 11
264.7789949597979
 21
329.1402251563736
 31
0.0
  0
LINE
  5
163
330
70
100
AcDbEntity
  8
SOUZOU
  6
AI-Linetype-61
 62
     8
420
  8421504
370
    25
100
AcDbLine
 10
264.7789949597979
 20
329.1402251563736
 30
0.0
 11
259.4340121616854
 21
315.2109632163441
 31
0.0
  0
LINE
  5
165
330
70
100
AcDbEntity
  8
SOUZOU
  6
AI-Linetype-62
 62
     8
420
  8421504
370
    25
100
AcDbLine
 10
259.4340121616854
 20
315.2109632163441
 30
0.0
 11
263.4124550467788
 21
328.5438182428971
 31
0.0
  0
LINE
  5
167
330
70
100
AcDbEntity
  8
SOUZOU
  6
AI-Linetype-63
 62
     8
420
  8421504
370
    25
100
AcDbLine
 10
263.4124550467788
 20
328.5438182428971
 30
0.0
 11
256.660776334229
 21
314.000623873556
 31
0.0
  0
LINE
  5
169
330
70
100
AcDbEntity
  8
SOUZOU
  6
AI-Linetype-64
 62
     8
420
  8421504
370
    25
100
AcDbLine
 10
256.660776334229
 20
314.000623873556
 30
0.0
 11
261.2125080325415
 21
327.5836826507473
 31
0.0
  0
LINE
  5
16B
330
70
100
AcDbEntity
  8
SOUZOU
  6
AI-Linetype-65
 62
     8
420
  8421504
370
    25
100
AcDbLine
 10
279.9448367524729
 20
324.16262095476
 30
0.0
 11
288.8291821889296
 21
292.9044098207778
 31
0.0
  0
LINE
  5
16D
330
70
100
AcDbEntity
  8
SOUZOU
  6
AI-Linetype-66
 62
     8
420
  8421504
370
    25
100
AcDbLine
 10
279.9448367524729
 20
324.16262095476
 30
0.0
 11
294.7550143294995
 21
295.4906549959982
 31
0.0
  0
LINE
  5
16F
330
70
100
AcDbEntity
  8
SOUZOU
  6
AI-Linetype-67
 62
     8
420
  8421504
370
    25
100
AcDbLine
 10
276.2429271592329
 20
335.7228466653862
 30
0.0
 11
277.6227150413282
 21
334.7456841543209
 31
0.0
  0
LINE
  5
171
330
70
100
AcDbEntity
  8
SOUZOU
  6
AI-Linetype-68
 62
     8
420
  8421504
370
    25
100
AcDbLine
 10
261.2125080325415
 20
327.5836826507473
 30
0.0
 11
254.9265134019637
 21
313.2437294771814
 31
0.0
  0
LINE
  5
173
330
70
100
AcDbEntity
  8
SOUZOU
  6
AI-Linetype-69
 62
     8
420
  8421504
370
    25
100
AcDbLine
 10
288.8291821889296
 20
292.9044098207778
 30
0.0
 11
276.1449898786716
 21
322.5042318187143
 31
0.0
  0
LINE
  5
175
330
70
100
AcDbEntity
  8
SOUZOU
  6
AI-Linetype-70
 62
     8
420
  8421504
370
    25
100
AcDbLine
 10
276.1449898786716
 20
322.5042318187143
 30
0.0
 11
283.0834034593609
 21
290.3967463965098
 31
0.0
  0
LINE
  5
177
330
70
100
AcDbEntity
  8
SOUZOU
  6
AI-Linetype-71
 62
     8
420
  8421504
370
    25
100
AcDbLine
 10
283.0834034593609
 20
290.3967463965098
 30
0.0
 11
272.5192181922547
 21
320.9218153229459
 31
0.0
  0
LINE
  5
179
330
70
100
AcDbEntity
  8
SOUZOU
  6
AI-Linetype-72
 62
     8
420
  8421504
370
    25
100
AcDbLine
 10
272.5192181922547
 20
320.9218153229459
 30
0.0
 11
277.6922607199088
 21
288.0438588073932
 31
0.0
  0
LINE
  5
17B
330
70
100
AcDbEntity
  8
SOUZOU
  6
AI-Linetype-73
 62
     8
420
  8421504
370
    25
100
AcDbLine
 10
277.6922607199088
 20
288.0438588073932
 30
0.0
 11
269.1776889312028
 21
319.4634523919132
 31
0.0
  0
LINE
  5
17D
330
70
100
AcDbEntity
  8
SOUZOU
  6
AI-Linetype-74
 62
     8
420
  8421504
370
    25
100
AcDbLine
 10
269.1776889312028
 20
319.4634523919132
 30
0.0
 11
272.8195611146566
 21
285.9172383521686
 31
0.0
  0
LINE
  5
17F
330
70
100
AcDbEntity
  8
SOUZOU
  6
AI-Linetype-75
 62
     8
420
  8421504
370
    25
100
AcDbLine
 10
272.8195611146566
 20
285.9172383521686
 30
0.0
 11
266.2219327712059
 21
318.1734546453494
 31
0.0
  0
LINE
  5
181
330
70
100
AcDbEntity
  8
SOUZOU
  6
AI-Linetype-76
 62
     8
420
  8421504
370
    25
100
AcDbLine
 10
266.2219327712059
 20
318.1734546453494
 30
0.0
 11
268.6133591555229
 21
284.0815013173041
 31
0.0
  0
LINE
  5
183
330
70
100
AcDbEntity
  8
SOUZOU
  6
AI-Linetype-77
 62
     8
420
  8421504
370
    25
100
AcDbLine
 10
268.6133591555229
 20
284.0815013173041
 30
0.0
 11
262.7177230367081
 21
316.6440921349293
 31
0.0
  0
LINE
  5
185
330
70
100
AcDbEntity
  8
SOUZOU
  6
AI-Linetype-78
 62
     8
420
  8421504
370
    25
100
AcDbLine
 10
262.7177230367081
 20
316.6440921349293
 30
0.0
 11
264.4901537458093
 21
282.2819869462759
 31
0.0
  0
LINE
  5
187
330
70
100
AcDbEntity
  8
SOUZOU
  6
AI-Linetype-79
 62
     8
420
  8421504
370
    25
100
AcDbLine
 10
264.4901537458093
 20
282.2819869462759
 30
0.0
 11
259.4340121616854
 21
315.2109632163441
 31
0.0
  0
LINE
  5
189
330
70
100
AcDbEntity
  8
SOUZOU
  6
AI-Linetype-80
 62
     8
420
  8421504
370
    25
100
AcDbLine
 10
259.4340121616854
 20
315.2109632163441
 30
0.0
 11
260.9861723773817
 21
280.7527241029797
 31
0.0
  0
LINE
  5
18B
330
70
100
AcDbEntity
  8
SOUZOU
  6
AI-Linetype-81
 62
     8
420
  8421504
370
    25
100
AcDbLine
 10
260.9861723773817
 20
280.7527241029797
 30
0.0
 11
256.660776334229
 21
314.000623873556
 31
0.0
  0
LINE
  5
18D
330
70
100
AcDbEntity
  8
SOUZOU
  6
AI-Linetype-82
 62
     8
420
  8421504
370
    25
100
AcDbLine
 10
256.660776334229
 20
314.000623873556
 30
0.0
 11
258.1239973262603
 21
279.5035685006999
 31
0.0
  0
LINE
  5
18F
330
70
100
AcDbEntity
  8
SOUZOU
  6
AI-Linetype-83
 62
     8
420
  8421504
370
    25
100
AcDbLine
 10
258.1239973262603
 20
279.5035685006999
 30
0.0
 11
254.9265134019637
 21
313.2437294771814
 31
0.0
  0
LINE
  5
191
330
70
100
AcDbEntity
  8
SOUZOU
  6
AI-Linetype-84
 62
     8
420
  8421504
370
    25
100
AcDbLine
 10
254.9265134019637
 20
313.2437294771814
 30
0.0
 11
257.6055541919962
 21
279.2773013667668
 31
0.0
  0
LINE
  5
193
330
70
100
AcDbEntity
  8
SOUZOU
  6
AI-Linetype-85
 62
     8
420
  8421504
370
    25
100
AcDbLine
 10
294.7550143294995
 20
295.4906549959982
 30
0.0
 11
296.6915193864234
 21
283.1599435786988
 31
0.0
  0
LINE
  5
195
330
70
100
AcDbEntity
  8
SOUZOU
  6
AI-Linetype-86
 62
     8
420
  8421504
370
    25
100
AcDbLine
 10
296.6915193864234
 20
283.1599435786988
 30
0.0
 11
288.8291821889296
 21
292.9044098207778
 31
0.0
  0
LINE
  5
197
330
70
100
AcDbEntity
  8
SOUZOU
  6
AI-Linetype-87
 62
     8
420
  8421504
370
    25
100
AcDbLine
 10
288.8291821889296
 20
292.9044098207778
 30
0.0
 11
290.9917490757227
 21
280.6723598746355
 31
0.0
  0
LINE
  5
199
330
70
100
AcDbEntity
  8
SOUZOU
  6
AI-Linetype-88
 62
     8
420
  8421504
370
    25
100
AcDbLine
 10
290.9917490757227
 20
280.6723598746355
 30
0.0
 11
283.0834034593609
 21
290.3967463965098
 31
0.0
  0
LINE
  5
19B
330
70
100
AcDbEntity
  8
SOUZOU
  6
AI-Linetype-89
 62
     8
420
  8421504
370
    25
100
AcDbLine
 10
283.0834034593609
 20
290.3967463965098
 30
0.0
 11
285.5530915461077
 21
278.2987351309827
 31
0.0
  0
LINE
  5
19D
330
70
100
AcDbEntity
  8
SOUZOU
  6
AI-Linetype-90
 62
     8
420
  8421504
370
    25
100
AcDbLine
 10
285.5530915461077
 20
278.2987351309827
 30
0.0
 11
277.6922607199088
 21
288.0438588073932
 31
0.0
  0
LINE
  5
19F
330
70
100
AcDbEntity
  8
SOUZOU
  6
AI-Linetype-91
 62
     8
420
  8421504
370
    25
100
AcDbLine
 10
277.6922607199088
 20
288.0438588073932
 30
0.0
 11
280.540797654526
 21
276.1111907344542
 31
0.0
  0
LINE
  5
1A1
330
70
100
AcDbEntity
  8
SOUZOU
  6
AI-Linetype-92
 62
     8
420
  8421504
370
    25
100
AcDbLine
 10
280.540797654526
 20
276.1111907344542
 30
0.0
 11
272.8195611146566
 21
285.9172383521686
 31
0.0
  0
LINE
  5
1A3
330
70
100
AcDbEntity
  8
SOUZOU
  6
AI-Linetype-93
 62
     8
420
  8421504
370
    25
100
AcDbLine
 10
272.8195611146566
 20
285.9172383521686
 30
0.0
 11
276.1071634145344
 21
274.176194114588
 31
0.0
  0
LINE
  5
1A5
330
70
100
AcDbEntity
  8
SOUZOU
  6
AI-Linetype-94
 62
     8
420
  8421504
370
    25
100
AcDbLine
 10
276.1071634145344
 20
274.176194114588
 30
0.0
 11
268.6133591555229
 21
284.0815013173041
 31
0.0
  0
LINE
  5
1A7
330
70
100
AcDbEntity
  8
SOUZOU
  6
AI-Linetype-95
 62
     8
420
  8421504
370
    25
100
AcDbLine
 10
268.6133591555229
 20
284.0815013173041
 30
0.0
 11
271.7451649286341
 21
272.2724619009874
 31
0.0
  0
LINE
  5
1A9
330
70
100
AcDbEntity
  8
SOUZOU
  6
AI-Linetype-96
 62
     8
420
  8421504
370
    25
100
AcDbLine
 10
271.7451649286341
 20
272.2724619009874
 30
0.0
 11
264.4901537458093
 21
282.2819869462759
 31
0.0
  0
LINE
  5
1AB
330
70
100
AcDbEntity
  8
SOUZOU
  6
AI-Linetype-97
 62
     8
420
  8421504
370
    25
100
AcDbLine
 10
264.4901537458093
 20
282.2819869462759
 30
0.0
 11
268.1109719405775
 21
270.6863700478612
 31
0.0
  0
LINE
  5
1AD
330
70
100
AcDbEntity
  8
SOUZOU
  6
AI-Linetype-98
 62
     8
420
  8421504
370
    25
100
AcDbLine
 10
268.1109719405775
 20
270.6863700478612
 30
0.0
 11
260.9861723773817
 21
280.7527241029797
 31
0.0
  0
LINE
  5
1AF
330
70
100
AcDbEntity
  8
SOUZOU
  6
AI-Linetype-99
 62
     8
420
  8421504
370
    25
100
AcDbLine
 10
260.9861723773817
 20
280.7527241029797
 30
0.0
 11
265.0114405113262
 21
269.3336236294306
 31
0.0
  0
LINE
  5
1B1
330
70
100
AcDbEntity
  8
SOUZOU
  6
AI-Linetype-100
 62
     8
420
  8421504
370
    25
100
AcDbLine
 10
265.0114405113262
 20
269.3336236294306
 30
0.0
 11
258.1239973262603
 21
279.5035685006999
 31
0.0
  0
LINE
  5
1B3
330
70
100
AcDbEntity
  8
SOUZOU
  6
AI-Linetype-101
 62
     8
420
  8421504
370
    25
100
AcDbLine
 10
258.1239973262603
 20
279.5035685006999
 30
0.0
 11
263.4999752428583
 21
268.6739661053326
 31
0.0
  0
LINE
  5
1B5
330
70
100
AcDbEntity
  8
SOUZOU
  6
AI-Linetype-102
 62
     8
420
  8421504
370
    25
100
AcDbLine
 10
306.0258409933325
 20
269.6659468301259
 30
0.0
 11
296.6915193864234
 21
283.1599435786988
 31
0.0
  0
LINE
  5
1B7
330
70
100
AcDbEntity
  8
SOUZOU
  6
AI-Linetype-103
 62
     8
420
  8421504
370
    25
100
AcDbLine
 10
296.6915193864234
 20
283.1599435786988
 30
0.0
 11
303.5339152695832
 21
268.5783812820071
 31
0.0
  0
LINE
  5
1B9
330
70
100
AcDbEntity
  8
SOUZOU
  6
AI-Linetype-104
 62
     8
420
  8421504
370
    25
100
AcDbLine
 10
303.5339152695832
 20
268.5783812820071
 30
0.0
 11
290.9917490757227
 21
280.6723598746355
 31
0.0
  0
LINE
  5
1BB
330
70
100
AcDbEntity
  8
SOUZOU
  6
AI-Linetype-105
 62
     8
420
  8421504
370
    25
100
AcDbLine
 10
290.9917490757227
 20
280.6723598746355
 30
0.0
 11
298.6257797242538
 21
266.4362953146108
 31
0.0
  0
LINE
  5
1BD
330
70
100
AcDbEntity
  8
SOUZOU
  6
AI-Linetype-106
 62
     8
420
  8421504
370
    25
100
AcDbLine
 10
298.6257797242538
 20
266.4362953146108
 30
0.0
 11
285.5530915461077
 21
278.2987351309827
 31
0.0
  0
LINE
  5
1BF
330
70
100
AcDbEntity
  8
SOUZOU
  6
AI-Linetype-107
 62
     8
420
  8421504
370
    25
100
AcDbLine
 10
285.5530915461077
 20
278.2987351309827
 30
0.0
 11
293.9424912959829
 21
264.3923406742441
 31
0.0
  0
LINE
  5
1C1
330
70
100
AcDbEntity
  8
SOUZOU
  6
AI-Linetype-108
 62
     8
420
  8421504
370
    25
100
AcDbLine
 10
293.9424912959829
 20
264.3923406742441
 30
0.0
 11
280.540797654526
 21
276.1111907344542
 31
0.0
  0
LINE
  5
1C3
330
70
100
AcDbEntity
  8
SOUZOU
  6
AI-Linetype-109
 62
     8
420
  8421504
370
    25
100
AcDbLine
 10
280.540797654526
 20
276.1111907344542
 30
0.0
 11
289.6263493337775
 21
262.5086218883474
 31
0.0
  0
LINE
  5
1C5
330
70
100
AcDbEntity
  8
SOUZOU
  6
AI-Linetype-110
 62
     8
420
  8421504
370
    25
100
AcDbLine
 10
289.6263493337775
 20
262.5086218883474
 30
0.0
 11
276.1071634145344
 21
274.176194114588
 31
0.0
  0
LINE
  5
1C7
330
70
100
AcDbEntity
  8
SOUZOU
  6
AI-Linetype-111
 62
     8
420
  8421504
370
    25
100
AcDbLine
 10
276.1071634145344
 20
274.176194114588
 30
0.0
 11
285.8084976271233
 21
260.8423747990238
 31
0.0
  0
LINE
  5
1C9
330
70
100
AcDbEntity
  8
SOUZOU
  6
AI-Linetype-112
 62
     8
420
  8421504
370
    25
100
AcDbLine
 10
285.8084976271233
 20
260.8423747990238
 30
0.0
 11
271.7451649286341
 21
272.2724619009874
 31
0.0
  0
LINE
  5
1CB
330
70
100
AcDbEntity
  8
SOUZOU
  6
AI-Linetype-113
 62
     8
420
  8421504
370
    25
100
AcDbLine
 10
271.7451649286341
 20
272.2724619009874
 30
0.0
 11
281.9686269705925
 21
259.1665178521295
 31
0.0
  0
LINE
  5
1CD
330
70
100
AcDbEntity
  8
SOUZOU
  6
AI-Linetype-114
 62
     8
420
  8421504
370
    25
100
AcDbLine
 10
281.9686269705925
 20
259.1665178521295
 30
0.0
 11
268.1109719405775
 21
270.6863700478612
 31
0.0
  0
LINE
  5
1CF
330
70
100
AcDbEntity
  8
SOUZOU
  6
AI-Linetype-115
 62
     8
420
  8421504
370
    25
100
AcDbLine
 10
268.1109719405775
 20
270.6863700478612
 30
0.0
 11
278.8705447929281
 21
257.8144039389468
 31
0.0
  0
LINE
  5
1D1
330
70
100
AcDbEntity
  8
SOUZOU
  6
AI-Linetype-116
 62
     8
420
  8421504
370
    25
100
AcDbLine
 10
278.8705447929281
 20
257.8144039389468
 30
0.0
 11
265.0114405113262
 21
269.3336236294306
 31
0.0
  0
LINE
  5
1D3
330
70
100
AcDbEntity
  8
SOUZOU
  6
AI-Linetype-117
 62
     8
420
  8421504
370
    25
100
AcDbLine
 10
265.0114405113262
 20
269.3336236294306
 30
0.0
 11
275.3112861975357
 21
256.2610161359651
 31
0.0
  0
LINE
  5
1D5
330
70
100
AcDbEntity
  8
SOUZOU
  6
AI-Linetype-118
 62
     8
420
  8421504
370
    25
100
AcDbLine
 10
275.3112861975357
 20
256.2610161359651
 30
0.0
 11
263.4999752428583
 21
268.6739661053326
 31
0.0
  0
LINE
  5
1D7
330
70
100
AcDbEntity
  8
SOUZOU
  6
AI-Linetype-119
 62
     8
420
  8421504
370
    25
100
AcDbLine
 10
309.246077182995
 20
262.2874587827308
 30
0.0
 11
303.5339152695832
 21
268.5783812820071
 31
0.0
  0
LINE
  5
1D9
330
70
100
AcDbEntity
  8
SOUZOU
  6
AI-Linetype-120
 62
     8
420
  8421504
370
    25
100
AcDbLine
 10
303.5339152695832
 20
268.5783812820071
 30
0.0
 11
305.8827670491429
 21
260.819589899504
 31
0.0
  0
LINE
  5
1DB
330
70
100
AcDbEntity
  8
SOUZOU
  6
AI-Linetype-121
 62
     8
420
  8421504
370
    25
100
AcDbLine
 10
305.8827670491429
 20
260.819589899504
 30
0.0
 11
298.6257797242538
 21
266.4362953146108
 31
0.0
  0
LINE
  5
1DD
330
70
100
AcDbEntity
  8
SOUZOU
  6
AI-Linetype-122
 62
     8
420
  8421504
370
    25
100
AcDbLine
 10
298.6257797242538
 20
266.4362953146108
 30
0.0
 11
302.6216493918048
 21
259.3963214695119
 31
0.0
  0
LINE
  5
1DF
330
70
100
AcDbEntity
  8
SOUZOU
  6
AI-Linetype-123
 62
     8
420
  8421504
370
    25
100
AcDbLine
 10
302.6216493918048
 20
259.3963214695119
 30
0.0
 11
293.9424912959829
 21
264.3923406742441
 31
0.0
  0
LINE
  5
1E1
330
70
100
AcDbEntity
  8
SOUZOU
  6
AI-Linetype-124
 62
     8
420
  8421504
370
    25
100
AcDbLine
 10
293.9424912959829
 20
264.3923406742441
 30
0.0
 11
299.5618116207968
 21
258.0608987838012
 31
0.0
  0
LINE
  5
1E3
330
70
100
AcDbEntity
  8
SOUZOU
  6
AI-Linetype-125
 62
     8
420
  8421504
370
    25
100
AcDbLine
 10
299.5618116207968
 20
258.0608987838012
 30
0.0
 11
289.6263493337775
 21
262.5086218883474
 31
0.0
  0
LINE
  5
1E5
330
70
100
AcDbEntity
  8
SOUZOU
  6
AI-Linetype-126
 62
     8
420
  8421504
370
    25
100
AcDbLine
 10
289.6263493337775
 20
262.5086218883474
 30
0.0
 11
296.7962253583947
 21
256.8538979848985
 31
0.0
  0
LINE
  5
1E7
330
70
100
AcDbEntity
  8
SOUZOU
  6
AI-Linetype-127
 62
     8
420
  8421504
370
    25
100
AcDbLine
 10
296.7962253583947
 20
256.8538979848985
 30
0.0
 11
285.8084976271233
 21
260.8423747990238
 31
0.0
  0
LINE
  5
1E9
330
70
100
AcDbEntity
  8
SOUZOU
  6
AI-Linetype-128
 62
     8
420
  8421504
370
    25
100
AcDbLine
 10
285.8084976271233
 20
260.8423747990238
 30
0.0
 11
294.4089215437653
 21
255.8119931813499
 31
0.0
  0
LINE
  5
1EB
330
70
100
AcDbEntity
  8
SOUZOU
  6
AI-Linetype-129
 62
     8
420
  8421504
370
    25
100
AcDbLine
 10
294.4089215437653
 20
255.8119931813499
 30
0.0
 11
281.9686269705925
 21
259.1665178521295
 31
0.0
  0
LINE
  5
1ED
330
70
100
AcDbEntity
  8
SOUZOU
  6
AI-Linetype-130
 62
     8
420
  8421504
370
    25
100
AcDbLine
 10
281.9686269705925
 20
259.1665178521295
 30
0.0
 11
292.4724371952626
 21
254.966842123334
 31
0.0
  0
LINE
  5
1EF
330
70
100
AcDbEntity
  8
SOUZOU
  6
AI-Linetype-131
 62
     8
420
  8421504
370
    25
100
AcDbLine
 10
292.4724371952626
 20
254.966842123334
 30
0.0
 11
278.8705447929281
 21
257.8144039389468
 31
0.0
  0
LINE
  5
1F1
330
70
100
AcDbEntity
  8
SOUZOU
  6
AI-Linetype-132
 62
     8
420
  8421504
370
    25
100
AcDbLine
 10
278.8705447929281
 20
257.8144039389468
 30
0.0
 11
288.0161344362115
 21
253.021952150664
 31
0.0
  0
LINE
  5
1F3
330
70
100
AcDbEntity
  8
SOUZOU
  6
AI-Linetype-133
 62
     8
420
  8421504
370
    25
100
AcDbLine
 10
288.0161344362115
 20
253.021952150664
 30
0.0
 11
275.3112861975357
 21
256.2610161359651
 31
0.0
  0
LINE
  5
1F5
330
70
100
AcDbEntity
  8
SOUZOU
  6
AI-Linetype-134
 62
     8
420
  8421504
370
    25
100
AcDbLine
 10
275.3112861975357
 20
256.2610161359651
 30
0.0
 11
287.1423205935105
 21
252.6405885242411
 31
0.0
  0
LINE
  5
1F7
330
70
100
AcDbEntity
  8
SOUZOU
  6
AI-Linetype-135
 62
     8
420
  8421504
370
    25
100
AcDbLine
 10
287.1423205935105
 20
252.6405885242411
 30
0.0
 11
274.3370496491652
 21
255.8358244476132
 31
0.0
  0
LINE
  5
1F9
330
70
100
AcDbEntity
  8
SOUZOU
  6
AI-Linetype-136
 62
     8
420
  8421504
370
    25
100
AcDbLine
 10
309.246077182995
 20
262.2874587827308
 30
0.0
 11
310.0845021504754
 21
258.2614202667122
 31
0.0
  0
LINE
  5
1FB
330
70
100
AcDbEntity
  8
SOUZOU
  6
AI-Linetype-137
 62
     8
420
  8421504
370
    25
100
AcDbLine
 10
310.0845021504754
 20
258.2614202667122
 30
0.0
 11
305.8827670491429
 21
260.819589899504
 31
0.0
  0
LINE
  5
1FD
330
70
100
AcDbEntity
  8
SOUZOU
  6
AI-Linetype-138
 62
     8
420
  8421504
370
    25
100
AcDbLine
 10
305.8827670491429
 20
260.819589899504
 30
0.0
 11
308.5645634009544
 21
257.5980646122919
 31
0.0
  0
LINE
  5
1FF
330
70
100
AcDbEntity
  8
SOUZOU
  6
AI-Linetype-139
 62
     8
420
  8421504
370
    25
100
AcDbLine
 10
308.5645634009544
 20
257.5980646122919
 30
0.0
 11
302.6216493918048
 21
259.3963214695119
 31
0.0
  0
LINE
  5
201
330
70
100
AcDbEntity
  8
SOUZOU
  6
AI-Linetype-140
 62
     8
420
  8421504
370
    25
100
AcDbLine
 10
302.6216493918048
 20
259.3963214695119
 30
0.0
 11
307.007429163211
 21
256.9184755159583
 31
0.0
  0
LINE
  5
203
330
70
100
AcDbEntity
  8
SOUZOU
  6
AI-Linetype-141
 62
     8
420
  8421504
370
    25
100
AcDbLine
 10
307.007429163211
 20
256.9184755159583
 30
0.0
 11
299.5618116207968
 21
258.0608987838012
 31
0.0
  0
LINE
  5
205
330
70
100
AcDbEntity
  8
SOUZOU
  6
AI-Linetype-142
 62
     8
420
  8421504
370
    25
100
AcDbLine
 10
299.5618116207968
 20
258.0608987838012
 30
0.0
 11
305.1917426649181
 21
256.1260449619717
 31
0.0
  0
LINE
  5
207
330
70
100
AcDbEntity
  8
SOUZOU
  6
AI-Linetype-143
 62
     8
420
  8421504
370
    25
100
AcDbLine
 10
305.1917426649181
 20
256.1260449619717
 30
0.0
 11
296.7962253583947
 21
256.8538979848985
 31
0.0
  0
LINE
  5
209
330
70
100
AcDbEntity
  8
SOUZOU
  6
AI-Linetype-144
 62
     8
420
  8421504
370
    25
100
AcDbLine
 10
296.7962253583947
 20
256.8538979848985
 30
0.0
 11
303.6234417536058
 21
255.4415823297334
 31
0.0
  0
LINE
  5
20B
330
70
100
AcDbEntity
  8
SOUZOU
  6
AI-Linetype-145
 62
     8
420
  8421504
370
    25
100
AcDbLine
 10
303.6234417536058
 20
255.4415823297334
 30
0.0
 11
294.4089215437653
 21
255.8119931813499
 31
0.0
  0
LINE
  5
20D
330
70
100
AcDbEntity
  8
SOUZOU
  6
AI-Linetype-146
 62
     8
420
  8421504
370
    25
100
AcDbLine
 10
294.4089215437653
 20
255.8119931813499
 30
0.0
 11
301.6875534536907
 21
254.5966914086537
 31
0.0
  0
LINE
  5
20F
330
70
100
AcDbEntity
  8
SOUZOU
  6
AI-Linetype-147
 62
     8
420
  8421504
370
    25
100
AcDbLine
 10
301.6875534536907
 20
254.5966914086537
 30
0.0
 11
292.4724371952626
 21
254.966842123334
 31
0.0
  0
LINE
  5
211
330
70
100
AcDbEntity
  8
SOUZOU
  6
AI-Linetype-148
 62
     8
420
  8421504
370
    25
100
AcDbLine
 10
292.4724371952626
 20
254.966842123334
 30
0.0
 11
300.1127741297277
 21
253.9094013653225
 31
0.0
  0
LINE
  5
213
330
70
100
AcDbEntity
  8
SOUZOU
  6
AI-Linetype-149
 62
     8
420
  8421504
370
    25
100
AcDbLine
 10
300.1127741297277
 20
253.9094013653225
 30
0.0
 11
288.0161344362115
 21
253.021952150664
 31
0.0
  0
LINE
  5
215
330
70
100
AcDbEntity
  8
SOUZOU
  6
AI-Linetype-150
 62
     8
420
  8421504
370
    25
100
AcDbLine
 10
288.0161344362115
 20
253.021952150664
 30
0.0
 11
299.3417130058378
 21
253.5728827019329
 31
0.0
  0
LINE
  5
217
330
70
100
AcDbEntity
  8
SOUZOU
  6
AI-Linetype-151
 62
     8
420
  8421504
370
    25
100
AcDbLine
 10
299.3417130058378
 20
253.5728827019329
 30
0.0
 11
287.1423205935105
 21
252.6405885242411
 31
0.0
  0
LINE
  5
219
330
70
100
AcDbEntity
  8
SOUZOU
  6
AI-Linetype-152
 62
     8
420
  8421504
370
    25
100
AcDbLine
 10
287.1423205935105
 20
252.6405885242411
 30
0.0
 11
298.7076070485081
 21
253.2961361735324
 31
0.0
  0
LINE
  5
21B
330
70
100
AcDbEntity
  8
SOUZOU
  6
AI-Linetype-153
 62
     8
420
  8421504
370
    25
100
AcDbLine
 10
298.7076070485081
 20
253.2961361735324
 30
0.0
 11
286.8480690848712
 21
252.5121666374125
 31
0.0
  0
LINE
  5
21D
330
70
100
AcDbEntity
  8
SOUZOU
  6
AI-Linetype-154
 62
     8
420
  8421504
370
    25
100
AcDbLine
 10
276.9712287299577
 20
256.7648787339403
 30
0.0
 11
265.0114405113262
 21
269.3336236294306
 31
0.0
  0
LINE
  5
21F
330
70
100
AcDbEntity
  8
SOUZOU
  6
AI-Linetype-155
 62
     8
420
  8421504
370
    25
100
AcDbLine
 10
287.8571601771329
 20
253.0014383029275
 30
0.0
 11
276.9712287299577
 21
256.7648787339403
 31
0.0
  0
LINE
  5
221
330
70
100
AcDbEntity
  8
SOUZOU
  6
AI-Linetype-156
 62
     8
420
  8421504
370
    25
100
AcDbLine
 10
265.0114405113262
 20
269.3336236294306
 30
0.0
 11
261.2014968381783
 21
279.9100377384982
 31
0.0
  0
LINE
  5
223
330
70
100
AcDbEntity
  8
SOUZOU
  6
AI-Linetype-157
 62
     8
420
  8421504
370
    25
100
AcDbLine
 10
278.9892549543422
 20
335.3420910678078
 30
0.0
 11
277.8445034134425
 21
336.4218318478835
 31
0.0
  0
LINE
  5
225
330
70
100
AcDbEntity
  8
SOUZOU
  6
AI-Linetype-158
 62
     8
420
  8421504
370
    25
100
AcDbLine
 10
278.9892549543422
 20
335.3420910678078
 30
0.0
 11
278.6209599985193
 21
336.7607052835896
 31
0.0
  0
LINE
  5
227
330
70
100
AcDbEntity
  8
SOUZOU
  6
AI-Linetype-159
 62
     8
420
  8421504
370
    25
100
AcDbLine
 10
278.6209599985193
 20
336.7607052835896
 30
0.0
 11
281.680813156613
 21
336.5167833725029
 31
0.0
  0
LINE
  5
229
330
70
100
AcDbEntity
  8
SOUZOU
  6
AI-Linetype-160
 62
     8
420
  8421504
370
    25
100
AcDbLine
 10
281.680813156613
 20
336.5167833725029
 30
0.0
 11
279.3494928011473
 21
337.0786630659046
 31
0.0
  0
LINE
  5
22B
330
70
100
AcDbEntity
  8
SOUZOU
  6
AI-Linetype-161
 62
     8
420
  8421504
370
    25
100
AcDbLine
 10
279.3494928011473
 20
337.0786630659046
 30
0.0
 11
284.2490681011603
 21
337.6376617236731
 31
0.0
  0
LINE
  5
22D
330
70
100
AcDbEntity
  8
SOUZOU
  6
AI-Linetype-162
 62
     8
420
  8421504
370
    25
100
AcDbLine
 10
284.2490681011603
 20
337.6376617236731
 30
0.0
 11
280.0079657207506
 21
337.3660442084956
 31
0.0
  0
LINE
  5
22F
330
70
100
AcDbEntity
  8
SOUZOU
  6
AI-Linetype-163
 62
     8
420
  8421504
370
    25
100
AcDbLine
 10
280.0079657207506
 20
337.3660442084956
 30
0.0
 11
286.6159846610742
 21
338.670668799811
 31
0.0
  0
LINE
  5
231
330
70
100
AcDbEntity
  8
SOUZOU
  6
AI-Linetype-164
 62
     8
420
  8421504
370
    25
100
AcDbLine
 10
286.6159846610742
 20
338.670668799811
 30
0.0
 11
280.5763713909193
 21
337.6141167807695
 31
0.0
  0
LINE
  5
233
330
70
100
AcDbEntity
  8
SOUZOU
  6
AI-Linetype-165
 62
     8
420
  8421504
370
    25
100
AcDbLine
 10
280.5763713909193
 20
337.6141167807695
 30
0.0
 11
288.7096452744035
 21
339.5844172036356
 31
0.0
  0
LINE
  5
235
330
70
100
AcDbEntity
  8
SOUZOU
  6
AI-Linetype-166
 62
     8
420
  8421504
370
    25
100
AcDbLine
 10
288.7096452744035
 20
339.5844172036356
 30
0.0
 11
281.0374390929228
 21
337.8153432231567
 31
0.0
  0
LINE
  5
237
330
70
100
AcDbEntity
  8
SOUZOU
  6
AI-Linetype-167
 62
     8
420
  8421504
370
    25
100
AcDbLine
 10
281.0374390929228
 20
337.8153432231567
 30
0.0
 11
290.4664351228662
 21
340.3511431522784
 31
0.0
  0
LINE
  5
239
330
70
100
AcDbEntity
  8
SOUZOU
  6
AI-Linetype-168
 62
     8
420
  8421504
370
    25
100
AcDbLine
 10
290.4664351228662
 20
340.3511431522784
 30
0.0
 11
281.3771595180023
 21
337.963609372013
 31
0.0
  0
LINE
  5
23B
330
70
100
AcDbEntity
  8
SOUZOU
  6
AI-Linetype-169
 62
     8
420
  8421504
370
    25
100
AcDbLine
 10
281.3771595180023
 20
337.963609372013
 30
0.0
 11
291.8329750358802
 21
340.947550065755
 31
0.0
  0
LINE
  5
23D
330
70
100
AcDbEntity
  8
SOUZOU
  6
AI-Linetype-170
 62
     8
420
  8421504
370
    25
100
AcDbLine
 10
291.8329750358802
 20
340.947550065755
 30
0.0
 11
281.5852104329592
 21
338.0544102354554
 31
0.0
  0
LINE
  5
23F
330
70
100
AcDbEntity
  8
SOUZOU
  6
AI-Linetype-171
 62
     8
420
  8421504
370
    25
100
AcDbLine
 10
281.5852104329592
 20
338.0544102354554
 30
0.0
 11
294.0329220501201
 21
341.9076856579048
 31
0.0
  0
LINE
  5
241
330
70
100
AcDbEntity
  8
SOUZOU
  6
AI-Linetype-172
 62
     8
420
  8421504
370
    25
100
AcDbLine
 10
294.0329220501201
 20
341.9076856579048
 30
0.0
 11
281.6552703159506
 21
338.0849868751691
 31
0.0
  0
LINE
  5
243
330
70
100
AcDbEntity
  8
SOUZOU
  6
AI-Linetype-173
 62
     8
420
  8421504
370
    25
100
AcDbLine
 10
277.6227150413282
 20
334.7456841543209
 30
0.0
 11
283.8033023892054
 21
325.8465934163452
 31
0.0
  0
LINE
  5
245
330
70
100
AcDbEntity
  8
SOUZOU
  6
AI-Linetype-174
 62
     8
420
  8421504
370
    25
100
AcDbLine
 10
283.8033023892054
 20
325.8465934163452
 30
0.0
 11
278.9892549543422
 21
335.3420910678078
 31
0.0
  0
LINE
  5
247
330
70
100
AcDbEntity
  8
SOUZOU
  6
AI-Linetype-175
 62
     8
420
  8421504
370
    25
100
AcDbLine
 10
278.9892549543422
 20
335.3420910678078
 30
0.0
 11
287.6031492630067
 21
327.5049825523908
 31
0.0
  0
LINE
  5
249
330
70
100
AcDbEntity
  8
SOUZOU
  6
AI-Linetype-176
 62
     8
420
  8421504
370
    25
100
AcDbLine
 10
287.6031492630067
 20
327.5049825523908
 30
0.0
 11
281.680813156613
 21
336.5167833725029
 31
0.0
  0
LINE
  5
24B
330
70
100
AcDbEntity
  8
SOUZOU
  6
AI-Linetype-177
 62
     8
420
  8421504
370
    25
100
AcDbLine
 10
281.680813156613
 20
336.5167833725029
 30
0.0
 11
291.2289209494159
 21
329.0873990481594
 31
0.0
  0
LINE
  5
24D
330
70
100
AcDbEntity
  8
SOUZOU
  6
AI-Linetype-178
 62
     8
420
  8421504
370
    25
100
AcDbLine
 10
291.2289209494159
 20
329.0873990481594
 30
0.0
 11
284.2490681011603
 21
337.6376617236731
 31
0.0
  0
LINE
  5
24F
330
70
100
AcDbEntity
  8
SOUZOU
  6
AI-Linetype-179
 62
     8
420
  8421504
370
    25
100
AcDbLine
 10
284.2490681011603
 20
337.6376617236731
 30
0.0
 11
294.5704502104755
 21
330.5457619791817
 31
0.0
  0
LINE
  5
251
330
70
100
AcDbEntity
  8
SOUZOU
  6
AI-Linetype-180
 62
     8
420
  8421504
370
    25
100
AcDbLine
 10
294.5704502104755
 20
330.5457619791817
 30
0.0
 11
286.6159846610742
 21
338.670668799811
 31
0.0
  0
LINE
  5
253
330
70
100
AcDbEntity
  8
SOUZOU
  6
AI-Linetype-181
 62
     8
420
  8421504
370
    25
100
AcDbLine
 10
286.6159846610742
 20
338.670668799811
 30
0.0
 11
297.5262063704724
 21
331.8357597257558
 31
0.0
  0
LINE
  5
255
330
70
100
AcDbEntity
  8
SOUZOU
  6
AI-Linetype-182
 62
     8
420
  8421504
370
    25
100
AcDbLine
 10
297.5262063704724
 20
331.8357597257558
 30
0.0
 11
288.7096452744035
 21
339.5844172036356
 31
0.0
  0
LINE
  5
257
330
70
100
AcDbEntity
  8
SOUZOU
  6
AI-Linetype-183
 62
     8
420
  8421504
370
    25
100
AcDbLine
 10
288.7096452744035
 20
339.5844172036356
 30
0.0
 11
301.0304161049677
 21
333.3651222361554
 31
0.0
  0
LINE
  5
259
330
70
100
AcDbEntity
  8
SOUZOU
  6
AI-Linetype-184
 62
     8
420
  8421504
370
    25
100
AcDbLine
 10
301.0304161049677
 20
333.3651222361554
 30
0.0
 11
290.4664351228662
 21
340.3511431522784
 31
0.0
  0
LINE
  5
25B
330
70
100
AcDbEntity
  8
SOUZOU
  6
AI-Linetype-185
 62
     8
420
  8421504
370
    25
100
AcDbLine
 10
290.4664351228662
 20
340.3511431522784
 30
0.0
 11
304.3141269799877
 21
334.7982511547405
 31
0.0
  0
LINE
  5
25D
330
70
100
AcDbEntity
  8
SOUZOU
  6
AI-Linetype-186
 62
     8
420
  8421504
370
    25
100
AcDbLine
 10
304.3141269799877
 20
334.7982511547405
 30
0.0
 11
291.8329750358802
 21
340.947550065755
 31
0.0
  0
LINE
  5
25F
330
70
100
AcDbEntity
  8
SOUZOU
  6
AI-Linetype-187
 62
     8
420
  8421504
370
    25
100
AcDbLine
 10
291.8329750358802
 20
340.947550065755
 30
0.0
 11
307.0873628074494
 21
336.0085904975389
 31
0.0
  0
LINE
  5
261
330
70
100
AcDbEntity
  8
SOUZOU
  6
AI-Linetype-188
 62
     8
420
  8421504
370
    25
100
AcDbLine
 10
307.0873628074494
 20
336.0085904975389
 30
0.0
 11
294.0329220501201
 21
341.9076856579048
 31
0.0
  0
LINE
  5
263
330
70
100
AcDbEntity
  8
SOUZOU
  6
AI-Linetype-189
 62
     8
420
  8421504
370
    25
100
AcDbLine
 10
283.8033023892054
 20
325.8465934163452
 30
0.0
 11
300.6808464700721
 21
298.0769001712083
 31
0.0
  0
LINE
  5
265
330
70
100
AcDbEntity
  8
SOUZOU
  6
AI-Linetype-190
 62
     8
420
  8421504
370
    25
100
AcDbLine
 10
283.8033023892054
 20
325.8465934163452
 30
0.0
 11
294.7550143294995
 21
295.4906549959982
 31
0.0
  0
LINE
  5
267
330
70
100
AcDbEntity
  8
SOUZOU
  6
AI-Linetype-191
 62
     8
420
  8421504
370
    25
100
AcDbLine
 10
277.8445034134425
 20
336.4218318478835
 30
0.0
 11
277.6227150413282
 21
334.7456841543209
 31
0.0
  0
LINE
  5
269
330
70
100
AcDbEntity
  8
SOUZOU
  6
AI-Linetype-192
 62
     8
420
  8421504
370
    25
100
AcDbLine
 10
294.0329220501201
 20
341.9076856579048
 30
0.0
 11
308.8216257397069
 21
336.7654848939238
 31
0.0
  0
LINE
  5
26B
330
70
100
AcDbEntity
  8
SOUZOU
  6
AI-Linetype-193
 62
     8
420
  8421504
370
    25
100
AcDbLine
 10
300.6808464700721
 20
298.0769001712083
 30
0.0
 11
287.6031492630067
 21
327.5049825523908
 31
0.0
  0
LINE
  5
26D
330
70
100
AcDbEntity
  8
SOUZOU
  6
AI-Linetype-194
 62
     8
420
  8421504
370
    25
100
AcDbLine
 10
287.6031492630067
 20
327.5049825523908
 30
0.0
 11
306.4266251996433
 21
300.584563595466
 31
0.0
  0
LINE
  5
26F
330
70
100
AcDbEntity
  8
SOUZOU
  6
AI-Linetype-195
 62
     8
420
  8421504
370
    25
100
AcDbLine
 10
306.4266251996433
 20
300.584563595466
 30
0.0
 11
291.2289209494159
 21
329.0873990481594
 31
0.0
  0
LINE
  5
271
330
70
100
AcDbEntity
  8
SOUZOU
  6
AI-Linetype-196
 62
     8
420
  8421504
370
    25
100
AcDbLine
 10
291.2289209494159
 20
329.0873990481594
 30
0.0
 11
311.8177679390902
 21
302.9374511845929
 31
0.0
  0
LINE
  5
273
330
70
100
AcDbEntity
  8
SOUZOU
  6
AI-Linetype-197
 62
     8
420
  8421504
370
    25
100
AcDbLine
 10
311.8177679390902
 20
302.9374511845929
 30
0.0
 11
294.5704502104755
 21
330.5457619791817
 31
0.0
  0
LINE
  5
275
330
70
100
AcDbEntity
  8
SOUZOU
  6
AI-Linetype-198
 62
     8
420
  8421504
370
    25
100
AcDbLine
 10
294.5704502104755
 20
330.5457619791817
 30
0.0
 11
316.6904675443425
 21
305.0640716398175
 31
0.0
  0
LINE
  5
277
330
70
100
AcDbEntity
  8
SOUZOU
  6
AI-Linetype-199
 62
     8
420
  8421504
370
    25
100
AcDbLine
 10
316.6904675443425
 20
305.0640716398175
 30
0.0
 11
297.5262063704724
 21
331.8357597257558
 31
0.0
  0
LINE
  5
279
330
70
100
AcDbEntity
  8
SOUZOU
  6
AI-Linetype-200
 62
     8
420
  8421504
370
    25
100
AcDbLine
 10
297.5262063704724
 20
331.8357597257558
 30
0.0
 11
320.8966695034762
 21
306.8998086746717
 31
0.0
  0
LINE
  5
27B
330
70
100
AcDbEntity
  8
SOUZOU
  6
AI-Linetype-201
 62
     8
420
  8421504
370
    25
100
AcDbLine
 10
320.8966695034762
 20
306.8998086746717
 30
0.0
 11
301.0304161049677
 21
333.3651222361554
 31
0.0
  0
LINE
  5
27D
330
70
100
AcDbEntity
  8
SOUZOU
  6
AI-Linetype-202
 62
     8
420
  8421504
370
    25
100
AcDbLine
 10
301.0304161049677
 20
333.3651222361554
 30
0.0
 11
325.0198749131949
 21
308.6993230457102
 31
0.0
  0
LINE
  5
27F
330
70
100
AcDbEntity
  8
SOUZOU
  6
AI-Linetype-203
 62
     8
420
  8421504
370
    25
100
AcDbLine
 10
325.0198749131949
 20
308.6993230457102
 30
0.0
 11
304.3141269799877
 21
334.7982511547405
 31
0.0
  0
LINE
  5
281
330
70
100
AcDbEntity
  8
SOUZOU
  6
AI-Linetype-204
 62
     8
420
  8421504
370
    25
100
AcDbLine
 10
304.3141269799877
 20
334.7982511547405
 30
0.0
 11
328.5238562816225
 21
310.2285858889961
 31
0.0
  0
LINE
  5
283
330
70
100
AcDbEntity
  8
SOUZOU
  6
AI-Linetype-205
 62
     8
420
  8421504
370
    25
100
AcDbLine
 10
328.5238562816225
 20
310.2285858889961
 30
0.0
 11
307.0873628074494
 21
336.0085904975389
 31
0.0
  0
LINE
  5
285
330
70
100
AcDbEntity
  8
SOUZOU
  6
AI-Linetype-206
 62
     8
420
  8421504
370
    25
100
AcDbLine
 10
307.0873628074494
 20
336.0085904975389
 30
0.0
 11
331.3860313327388
 21
311.4777414912759
 31
0.0
  0
LINE
  5
287
330
70
100
AcDbEntity
  8
SOUZOU
  6
AI-Linetype-207
 62
     8
420
  8421504
370
    25
100
AcDbLine
 10
331.3860313327388
 20
311.4777414912759
 30
0.0
 11
308.8216257397069
 21
336.7654848939238
 31
0.0
  0
LINE
  5
289
330
70
100
AcDbEntity
  8
SOUZOU
  6
AI-Linetype-208
 62
     8
420
  8421504
370
    25
100
AcDbLine
 10
308.8216257397069
 20
336.7654848939238
 30
0.0
 11
331.9044744669977
 21
311.7040086252193
 31
0.0
  0
LINE
  5
28B
330
70
100
AcDbEntity
  8
SOUZOU
  6
AI-Linetype-209
 62
     8
420
  8421504
370
    25
100
AcDbLine
 10
294.7550143294995
 20
295.4906549959982
 30
0.0
 11
302.4792178415735
 21
285.6859022711125
 31
0.0
  0
LINE
  5
28D
330
70
100
AcDbEntity
  8
SOUZOU
  6
AI-Linetype-210
 62
     8
420
  8421504
370
    25
100
AcDbLine
 10
302.4792178415735
 20
285.6859022711125
 30
0.0
 11
300.6808464700721
 21
298.0769001712083
 31
0.0
  0
LINE
  5
28F
330
70
100
AcDbEntity
  8
SOUZOU
  6
AI-Linetype-211
 62
     8
420
  8421504
370
    25
100
AcDbLine
 10
300.6808464700721
 20
298.0769001712083
 30
0.0
 11
308.1789881522742
 21
288.1734859751656
 31
0.0
  0
LINE
  5
291
330
70
100
AcDbEntity
  8
SOUZOU
  6
AI-Linetype-212
 62
     8
420
  8421504
370
    25
100
AcDbLine
 10
308.1789881522742
 20
288.1734859751656
 30
0.0
 11
306.4266251996433
 21
300.584563595466
 31
0.0
  0
LINE
  5
293
330
70
100
AcDbEntity
  8
SOUZOU
  6
AI-Linetype-213
 62
     8
420
  8421504
370
    25
100
AcDbLine
 10
306.4266251996433
 20
300.584563595466
 30
0.0
 11
313.6176456818918
 21
290.5471107188286
 31
0.0
  0
LINE
  5
295
330
70
100
AcDbEntity
  8
SOUZOU
  6
AI-Linetype-214
 62
     8
420
  8421504
370
    25
100
AcDbLine
 10
313.6176456818918
 20
290.5471107188286
 30
0.0
 11
311.8177679390902
 21
302.9374511845929
 31
0.0
  0
LINE
  5
297
330
70
100
AcDbEntity
  8
SOUZOU
  6
AI-Linetype-215
 62
     8
420
  8421504
370
    25
100
AcDbLine
 10
311.8177679390902
 20
302.9374511845929
 30
0.0
 11
318.6299395734709
 21
292.734655115357
 31
0.0
  0
LINE
  5
299
330
70
100
AcDbEntity
  8
SOUZOU
  6
AI-Linetype-216
 62
     8
420
  8421504
370
    25
100
AcDbLine
 10
318.6299395734709
 20
292.734655115357
 30
0.0
 11
316.6904675443425
 21
305.0640716398175
 31
0.0
  0
LINE
  5
29B
330
70
100
AcDbEntity
  8
SOUZOU
  6
AI-Linetype-217
 62
     8
420
  8421504
370
    25
100
AcDbLine
 10
316.6904675443425
 20
305.0640716398175
 30
0.0
 11
323.0635738134676
 21
294.669651735213
 31
0.0
  0
LINE
  5
29D
330
70
100
AcDbEntity
  8
SOUZOU
  6
AI-Linetype-218
 62
     8
420
  8421504
370
    25
100
AcDbLine
 10
323.0635738134676
 20
294.669651735213
 30
0.0
 11
320.8966695034762
 21
306.8998086746717
 31
0.0
  0
LINE
  5
29F
330
70
100
AcDbEntity
  8
SOUZOU
  6
AI-Linetype-219
 62
     8
420
  8421504
370
    25
100
AcDbLine
 10
320.8966695034762
 20
306.8998086746717
 30
0.0
 11
327.425572299368
 21
296.5733839488239
 31
0.0
  0
LINE
  5
2A1
330
70
100
AcDbEntity
  8
SOUZOU
  6
AI-Linetype-220
 62
     8
420
  8421504
370
    25
100
AcDbLine
 10
327.425572299368
 20
296.5733839488239
 30
0.0
 11
325.0198749131949
 21
308.6993230457102
 31
0.0
  0
LINE
  5
2A3
330
70
100
AcDbEntity
  8
SOUZOU
  6
AI-Linetype-221
 62
     8
420
  8421504
370
    25
100
AcDbLine
 10
325.0198749131949
 20
308.6993230457102
 30
0.0
 11
331.0597652874169
 21
298.1594758019501
 31
0.0
  0
LINE
  5
2A5
330
70
100
AcDbEntity
  8
SOUZOU
  6
AI-Linetype-222
 62
     8
420
  8421504
370
    25
100
AcDbLine
 10
331.0597652874169
 20
298.1594758019501
 30
0.0
 11
328.5238562816225
 21
310.2285858889961
 31
0.0
  0
LINE
  5
2A7
330
70
100
AcDbEntity
  8
SOUZOU
  6
AI-Linetype-223
 62
     8
420
  8421504
370
    25
100
AcDbLine
 10
328.5238562816225
 20
310.2285858889961
 30
0.0
 11
334.1592967166733
 21
299.5122222203807
 31
0.0
  0
LINE
  5
2A9
330
70
100
AcDbEntity
  8
SOUZOU
  6
AI-Linetype-224
 62
     8
420
  8421504
370
    25
100
AcDbLine
 10
334.1592967166733
 20
299.5122222203807
 30
0.0
 11
331.3860313327388
 21
311.4777414912759
 31
0.0
  0
LINE
  5
2AB
330
70
100
AcDbEntity
  8
SOUZOU
  6
AI-Linetype-225
 62
     8
420
  8421504
370
    25
100
AcDbLine
 10
331.3860313327388
 20
311.4777414912759
 30
0.0
 11
335.6707619851361
 21
300.1718797444787
 31
0.0
  0
LINE
  5
2AD
330
70
100
AcDbEntity
  8
SOUZOU
  6
AI-Linetype-226
 62
     8
420
  8421504
370
    25
100
AcDbLine
 10
306.0258409933325
 20
269.6659468301259
 30
0.0
 11
302.4792178415735
 21
285.6859022711125
 31
0.0
  0
LINE
  5
2AF
330
70
100
AcDbEntity
  8
SOUZOU
  6
AI-Linetype-227
 62
     8
420
  8421504
370
    25
100
AcDbLine
 10
302.4792178415735
 20
285.6859022711125
 30
0.0
 11
308.5177667170741
 21
270.7535123782447
 31
0.0
  0
LINE
  5
2B1
330
70
100
AcDbEntity
  8
SOUZOU
  6
AI-Linetype-228
 62
     8
420
  8421504
370
    25
100
AcDbLine
 10
308.5177667170741
 20
270.7535123782447
 30
0.0
 11
308.1789881522742
 21
288.1734859751656
 31
0.0
  0
LINE
  5
2B3
330
70
100
AcDbEntity
  8
SOUZOU
  6
AI-Linetype-229
 62
     8
420
  8421504
370
    25
100
AcDbLine
 10
308.1789881522742
 20
288.1734859751656
 30
0.0
 11
313.4259022623983
 21
272.8955983456408
 31
0.0
  0
LINE
  5
2B5
330
70
100
AcDbEntity
  8
SOUZOU
  6
AI-Linetype-230
 62
     8
420
  8421504
370
    25
100
AcDbLine
 10
313.4259022623983
 20
272.8955983456408
 30
0.0
 11
313.6176456818918
 21
290.5471107188286
 31
0.0
  0
LINE
  5
2B7
330
70
100
AcDbEntity
  8
SOUZOU
  6
AI-Linetype-231
 62
     8
420
  8421504
370
    25
100
AcDbLine
 10
313.6176456818918
 20
290.5471107188286
 30
0.0
 11
318.1091906906795
 21
274.9395529860076
 31
0.0
  0
LINE
  5
2B9
330
70
100
AcDbEntity
  8
SOUZOU
  6
AI-Linetype-232
 62
     8
420
  8421504
370
    25
100
AcDbLine
 10
318.1091906906795
 20
274.9395529860076
 30
0.0
 11
318.6299395734709
 21
292.734655115357
 31
0.0
  0
LINE
  5
2BB
330
70
100
AcDbEntity
  8
SOUZOU
  6
AI-Linetype-233
 62
     8
420
  8421504
370
    25
100
AcDbLine
 10
318.6299395734709
 20
292.734655115357
 30
0.0
 11
322.4253326528798
 21
276.8232717719044
 31
0.0
  0
LINE
  5
2BD
330
70
100
AcDbEntity
  8
SOUZOU
  6
AI-Linetype-234
 62
     8
420
  8421504
370
    25
100
AcDbLine
 10
322.4253326528798
 20
276.8232717719044
 30
0.0
 11
323.0635738134676
 21
294.669651735213
 31
0.0
  0
LINE
  5
2BF
330
70
100
AcDbEntity
  8
SOUZOU
  6
AI-Linetype-235
 62
     8
420
  8421504
370
    25
100
AcDbLine
 10
323.0635738134676
 20
294.669651735213
 30
0.0
 11
326.2431843595417
 21
278.4895188612176
 31
0.0
  0
LINE
  5
2C1
330
70
100
AcDbEntity
  8
SOUZOU
  6
AI-Linetype-236
 62
     8
420
  8421504
370
    25
100
AcDbLine
 10
326.2431843595417
 20
278.4895188612176
 30
0.0
 11
327.425572299368
 21
296.5733839488239
 31
0.0
  0
LINE
  5
2C3
330
70
100
AcDbEntity
  8
SOUZOU
  6
AI-Linetype-237
 62
     8
420
  8421504
370
    25
100
AcDbLine
 10
327.425572299368
 20
296.5733839488239
 30
0.0
 11
330.0830550160597
 21
280.1653758081119
 31
0.0
  0
LINE
  5
2C5
330
70
100
AcDbEntity
  8
SOUZOU
  6
AI-Linetype-238
 62
     8
420
  8421504
370
    25
100
AcDbLine
 10
330.0830550160597
 20
280.1653758081119
 30
0.0
 11
331.0597652874169
 21
298.1594758019501
 31
0.0
  0
LINE
  5
2C7
330
70
100
AcDbEntity
  8
SOUZOU
  6
AI-Linetype-239
 62
     8
420
  8421504
370
    25
100
AcDbLine
 10
331.0597652874169
 20
298.1594758019501
 30
0.0
 11
333.1811371937369
 21
281.5174897212947
 31
0.0
  0
LINE
  5
2C9
330
70
100
AcDbEntity
  8
SOUZOU
  6
AI-Linetype-240
 62
     8
420
  8421504
370
    25
100
AcDbLine
 10
333.1811371937369
 20
281.5174897212947
 30
0.0
 11
334.1592967166733
 21
299.5122222203807
 31
0.0
  0
LINE
  5
2CB
330
70
100
AcDbEntity
  8
SOUZOU
  6
AI-Linetype-241
 62
     8
420
  8421504
370
    25
100
AcDbLine
 10
334.1592967166733
 20
299.5122222203807
 30
0.0
 11
336.7403957891294
 21
283.0708775242763
 31
0.0
  0
LINE
  5
2CD
330
70
100
AcDbEntity
  8
SOUZOU
  6
AI-Linetype-242
 62
     8
420
  8421504
370
    25
100
AcDbLine
 10
336.7403957891294
 20
283.0708775242763
 30
0.0
 11
335.6707619851361
 21
300.1718797444787
 31
0.0
  0
LINE
  5
2CF
330
70
100
AcDbEntity
  8
SOUZOU
  6
AI-Linetype-243
 62
     8
420
  8421504
370
    25
100
AcDbLine
 10
309.2460771829976
 20
262.2874587827308
 30
0.0
 11
308.5177667170741
 21
270.7535123782447
 31
0.0
  0
LINE
  5
2D1
330
70
100
AcDbEntity
  8
SOUZOU
  6
AI-Linetype-244
 62
     8
420
  8421504
370
    25
100
AcDbLine
 10
308.5177667170741
 20
270.7535123782447
 30
0.0
 11
312.6093873168472
 21
263.7553276659782
 31
0.0
  0
LINE
  5
2D3
330
70
100
AcDbEntity
  8
SOUZOU
  6
AI-Linetype-245
 62
     8
420
  8421504
370
    25
100
AcDbLine
 10
312.6093873168472
 20
263.7553276659782
 30
0.0
 11
313.4259022623983
 21
272.8955983456408
 31
0.0
  0
LINE
  5
2D5
330
70
100
AcDbEntity
  8
SOUZOU
  6
AI-Linetype-246
 62
     8
420
  8421504
370
    25
100
AcDbLine
 10
313.4259022623983
 20
272.8955983456408
 30
0.0
 11
315.8705049741827
 21
265.1785960959601
 31
0.0
  0
LINE
  5
2D7
330
70
100
AcDbEntity
  8
SOUZOU
  6
AI-Linetype-247
 62
     8
420
  8421504
370
    25
100
AcDbLine
 10
315.8705049741827
 20
265.1785960959601
 30
0.0
 11
318.1091906906795
 21
274.9395529860076
 31
0.0
  0
LINE
  5
2D9
330
70
100
AcDbEntity
  8
SOUZOU
  6
AI-Linetype-248
 62
     8
420
  8421504
370
    25
100
AcDbLine
 10
318.1091906906795
 20
274.9395529860076
 30
0.0
 11
318.9303427451933
 21
266.5140187816708
 31
0.0
  0
LINE
  5
2DB
330
70
100
AcDbEntity
  8
SOUZOU
  6
AI-Linetype-249
 62
     8
420
  8421504
370
    25
100
AcDbLine
 10
318.9303427451933
 20
266.5140187816708
 30
0.0
 11
322.4253326528798
 21
276.8232717719044
 31
0.0
  0
LINE
  5
2DD
330
70
100
AcDbEntity
  8
SOUZOU
  6
AI-Linetype-250
 62
     8
420
  8421504
370
    25
100
AcDbLine
 10
322.4253326528798
 20
276.8232717719044
 30
0.0
 11
321.695929007598
 21
267.7210195805734
 31
0.0
  0
LINE
  5
2DF
330
70
100
AcDbEntity
  8
SOUZOU
  6
AI-Linetype-251
 62
     8
420
  8421504
370
    25
100
AcDbLine
 10
321.695929007598
 20
267.7210195805734
 30
0.0
 11
326.2431843595417
 21
278.4895188612176
 31
0.0
  0
LINE
  5
2E1
330
70
100
AcDbEntity
  8
SOUZOU
  6
AI-Linetype-252
 62
     8
420
  8421504
370
    25
100
AcDbLine
 10
326.2431843595417
 20
278.4895188612176
 30
0.0
 11
324.0832328222299
 21
268.7629243841221
 31
0.0
  0
LINE
  5
2E3
330
70
100
AcDbEntity
  8
SOUZOU
  6
AI-Linetype-253
 62
     8
420
  8421504
370
    25
100
AcDbLine
 10
324.0832328222299
 20
268.7629243841221
 30
0.0
 11
330.0830550160597
 21
280.1653758081119
 31
0.0
  0
LINE
  5
2E5
330
70
100
AcDbEntity
  8
SOUZOU
  6
AI-Linetype-254
 62
     8
420
  8421504
370
    25
100
AcDbLine
 10
330.0830550160597
 20
280.1653758081119
 30
0.0
 11
326.0197171707223
 21
269.6080754421276
 31
0.0
  0
LINE
  5
2E7
330
70
100
AcDbEntity
  8
SOUZOU
  6
AI-Linetype-255
 62
     8
420
  8421504
370
    25
100
AcDbLine
 10
326.0197171707223
 20
269.6080754421276
 30
0.0
 11
333.1811371937369
 21
281.5174897212947
 31
0.0
  0
LINE
  5
2E9
330
70
100
AcDbEntity
  8
SOUZOU
  6
AI-Linetype-256
 62
     8
420
  8421504
370
    25
100
AcDbLine
 10
333.1811371937369
 20
281.5174897212947
 30
0.0
 11
330.4760199297759
 21
271.5529654147977
 31
0.0
  0
LINE
  5
2EB
330
70
100
AcDbEntity
  8
SOUZOU
  6
AI-Linetype-257
 62
     8
420
  8421504
370
    25
100
AcDbLine
 10
330.4760199297759
 20
271.5529654147977
 30
0.0
 11
336.7403957891294
 21
283.0708775242763
 31
0.0
  0
LINE
  5
2ED
330
70
100
AcDbEntity
  8
SOUZOU
  6
AI-Linetype-258
 62
     8
420
  8421504
370
    25
100
AcDbLine
 10
336.7403957891294
 20
283.0708775242763
 30
0.0
 11
331.3498337724847
 21
271.9343290412309
 31
0.0
  0
LINE
  5
2EF
330
70
100
AcDbEntity
  8
SOUZOU
  6
AI-Linetype-259
 62
     8
420
  8421504
370
    25
100
AcDbLine
 10
331.3498337724847
 20
271.9343290412309
 30
0.0
 11
337.7146323374946
 21
283.4960692126283
 31
0.0
  0
LINE
  5
2F1
330
70
100
AcDbEntity
  8
SOUZOU
  6
AI-Linetype-260
 62
     8
420
  8421504
370
    25
100
AcDbLine
 10
309.2460771829976
 20
262.2874587827308
 30
0.0
 11
311.6278884051849
 21
258.9350092513647
 31
0.0
  0
LINE
  5
2F3
330
70
100
AcDbEntity
  8
SOUZOU
  6
AI-Linetype-261
 62
     8
420
  8421504
370
    25
100
AcDbLine
 10
311.6278884051849
 20
258.9350092513647
 30
0.0
 11
312.6093873168472
 21
263.7553276659782
 31
0.0
  0
LINE
  5
2F5
330
70
100
AcDbEntity
  8
SOUZOU
  6
AI-Linetype-262
 62
     8
420
  8421504
370
    25
100
AcDbLine
 10
312.6093873168472
 20
263.7553276659782
 30
0.0
 11
313.1478271547059
 21
259.5983649057748
 31
0.0
  0
LINE
  5
2F7
330
70
100
AcDbEntity
  8
SOUZOU
  6
AI-Linetype-263
 62
     8
420
  8421504
370
    25
100
AcDbLine
 10
313.1478271547059
 20
259.5983649057748
 30
0.0
 11
315.8705049741827
 21
265.1785960959601
 31
0.0
  0
LINE
  5
2F9
330
70
100
AcDbEntity
  8
SOUZOU
  6
AI-Linetype-264
 62
     8
420
  8421504
370
    25
100
AcDbLine
 10
315.8705049741827
 20
265.1785960959601
 30
0.0
 11
314.7049613924441
 21
260.2779540021289
 31
0.0
  0
LINE
  5
2FB
330
70
100
AcDbEntity
  8
SOUZOU
  6
AI-Linetype-265
 62
     8
420
  8421504
370
    25
100
AcDbLine
 10
314.7049613924441
 20
260.2779540021289
 30
0.0
 11
318.9303427451933
 21
266.5140187816708
 31
0.0
  0
LINE
  5
2FD
330
70
100
AcDbEntity
  8
SOUZOU
  6
AI-Linetype-266
 62
     8
420
  8421504
370
    25
100
AcDbLine
 10
318.9303427451933
 20
266.5140187816708
 30
0.0
 11
316.5206478907395
 21
261.070384556095
 31
0.0
  0
LINE
  5
2FF
330
70
100
AcDbEntity
  8
SOUZOU
  6
AI-Linetype-267
 62
     8
420
  8421504
370
    25
100
AcDbLine
 10
316.5206478907395
 20
261.070384556095
 30
0.0
 11
321.695929007598
 21
267.7210195805734
 31
0.0
  0
LINE
  5
301
330
70
100
AcDbEntity
  8
SOUZOU
  6
AI-Linetype-268
 62
     8
420
  8421504
370
    25
100
AcDbLine
 10
321.695929007598
 20
267.7210195805734
 30
0.0
 11
318.088948802052
 21
261.7548471883436
 31
0.0
  0
LINE
  5
303
330
70
100
AcDbEntity
  8
SOUZOU
  6
AI-Linetype-269
 62
     8
420
  8421504
370
    25
100
AcDbLine
 10
318.088948802052
 20
261.7548471883436
 30
0.0
 11
324.0832328222299
 21
268.7629243841221
 31
0.0
  0
LINE
  5
305
330
70
100
AcDbEntity
  8
SOUZOU
  6
AI-Linetype-270
 62
     8
420
  8421504
370
    25
100
AcDbLine
 10
324.0832328222299
 20
268.7629243841221
 30
0.0
 11
320.0248371019695
 21
262.5997381094232
 31
0.0
  0
LINE
  5
307
330
70
100
AcDbEntity
  8
SOUZOU
  6
AI-Linetype-271
 62
     8
420
  8421504
370
    25
100
AcDbLine
 10
320.0248371019695
 20
262.5997381094232
 30
0.0
 11
326.0197171707223
 21
269.6080754421276
 31
0.0
  0
LINE
  5
309
330
70
100
AcDbEntity
  8
SOUZOU
  6
AI-Linetype-272
 62
     8
420
  8421504
370
    25
100
AcDbLine
 10
326.0197171707223
 20
269.6080754421276
 30
0.0
 11
321.5996164259301
 21
263.2870281527442
 31
0.0
  0
LINE
  5
30B
330
70
100
AcDbEntity
  8
SOUZOU
  6
AI-Linetype-273
 62
     8
420
  8421504
370
    25
100
AcDbLine
 10
321.5996164259301
 20
263.2870281527442
 30
0.0
 11
330.4760199297759
 21
271.5529654147977
 31
0.0
  0
LINE
  5
30D
330
70
100
AcDbEntity
  8
SOUZOU
  6
AI-Linetype-274
 62
     8
420
  8421504
370
    25
100
AcDbLine
 10
330.4760199297759
 20
271.5529654147977
 30
0.0
 11
322.3706775498148
 21
263.623546816144
 31
0.0
  0
LINE
  5
30F
330
70
100
AcDbEntity
  8
SOUZOU
  6
AI-Linetype-275
 62
     8
420
  8421504
370
    25
100
AcDbLine
 10
322.3706775498148
 20
263.623546816144
 30
0.0
 11
331.3498337724847
 21
271.9343290412309
 31
0.0
  0
LINE
  5
311
330
70
100
AcDbEntity
  8
SOUZOU
  6
AI-Linetype-276
 62
     8
420
  8421504
370
    25
100
AcDbLine
 10
331.3498337724847
 20
271.9343290412309
 30
0.0
 11
323.004783507147
 21
263.9002933445342
 31
0.0
  0
LINE
  5
313
330
70
100
AcDbEntity
  8
SOUZOU
  6
AI-Linetype-277
 62
     8
420
  8421504
370
    25
100
AcDbLine
 10
323.004783507147
 20
263.9002933445342
 30
0.0
 11
331.6440852811137
 21
272.0627509280492
 31
0.0
  0
LINE
  5
315
330
70
100
AcDbEntity
  8
SOUZOU
  6
AI-Linetype-278
 62
     8
420
  8421504
370
    25
100
AcDbLine
 10
335.2421967078686
 20
282.1964141222309
 30
0.0
 11
334.1592967166733
 21
299.5122222203807
 31
0.0
  0
LINE
  5
317
330
70
100
AcDbEntity
  8
SOUZOU
  6
AI-Linetype-279
 62
     8
420
  8421504
370
    25
100
AcDbLine
 10
330.5991634275601
 20
271.6555778504626
 30
0.0
 11
335.2421967078686
 21
282.1964141222309
 31
0.0
  0
LINE
  5
319
330
70
100
AcDbEntity
  8
SOUZOU
  6
AI-Linetype-280
 62
     8
420
  8421504
370
    25
100
AcDbLine
 10
334.1592967166733
 20
299.5122222203807
 30
0.0
 11
328.995303496652
 21
309.4976806586548
 31
0.0
  0
ENDSEC
  0
SECTION
  2
OBJECTS
  0
DICTIONARY
  5
C
330
0
100
AcDbDictionary
281
     1
  3
ACAD_COLOR
350
63
  3
ACAD_DETAILVIEWSTYLE
350
6A
  3
ACAD_GROUP
350
D
  3
ACAD_LAYOUT
350
62
  3
ACAD_MATERIAL
350
10
  3
ACAD_MLEADERSTYLE
350
66
  3
ACAD_MLINESTYLE
350
5F
  3
ACAD_PLOTSETTINGS
350
61
  3
ACAD_PLOTSTYLENAME
350
E
  3
ACAD_SCALELIST
350
42
  3
ACAD_SECTIONVIEWSTYLE
350
68
  3
ACAD_TABLESTYLE
350
64
  3
ACAD_VISUALSTYLE
350
29
  3
ACDB_RECOMPOSE_DATA
350
323
  3
AcDbVariableDictionary
350
31B
  0
DICTIONARY
  5
63
102
{ACAD_REACTORS
330
C
102
}
330
C
100
AcDbDictionary
281
     1
  0
DICTIONARY
  5
6A
102
{ACAD_REACTORS
330
C
102
}
330
C
100
AcDbDictionary
281
     1
  3
Imperial24
350
6B
  0
DICTIONARY
  5
D
102
{ACAD_REACTORS
330
C
102
}
330
C
100
AcDbDictionary
281
     1
  0
DICTIONARY
  5
62
102
{ACAD_REACTORS
330
C
102
}
330
C
100
AcDbDictionary
281
     1
  3
Layout1
350
6F
  3
Layout2
350
77
  3
Model
350
73
  0
DICTIONARY
  5
10
102
{ACAD_REACTORS
330
C
102
}
330
C
100
AcDbDictionary
281
     1
  3
ByBlock
350
19
  3
ByLayer
350
11
  3
Global
350
21
  0
DICTIONARY
  5
66
102
{ACAD_REACTORS
330
C
102
}
330
C
100
AcDbDictionary
281
     1
  3
Standard
350
67
  0
DICTIONARY
  5
5F
102
{ACAD_REACTORS
330
C
102
}
330
C
100
AcDbDictionary
281
     1
  3
Standard
350
60
  0
DICTIONARY
  5
61
102
{ACAD_REACTORS
330
C
102
}
330
C
100
AcDbDictionary
281
     1
  0
ACDBDICTIONARYWDFLT
  5
E
102
{ACAD_REACTORS
330
C
102
}
330
C
100
AcDbDictionary
281
     1
  3
Normal
350
F
100
AcDbDictionaryWithDefault
340
F
  0
DICTIONARY
  5
42
102
{ACAD_REACTORS
330
C
102
}
330
C
100
AcDbDictionary
281
     1
  3
A0
350
43
  3
A1
350
44
  3
A2
350
45
  3
A3
350
46
  3
A4
350
47
  3
A5
350
48
  3
A6
350
49
  3
A7
350
4A
  3
A8
350
4B
  3
A9
350
4C
  3
B0
350
4D
  3
B1
350
4E
  3
B2
350
4F
  3
B3
350
50
  3
B4
350
51
  3
B5
350
52
  3
B6
350
53
  0
DICTIONARY
  5
68
102
{ACAD_REACTORS
330
C
102
}
330
C
100
AcDbDictionary
281
     1
  3
Imperial24
350
69
  0
DICTIONARY
  5
64
102
{ACAD_REACTORS
330
C
102
}
330
C
100
AcDbDictionary
281
     1
  3
Standard
350
65
  0
DICTIONARY
  5
29
102
{ACAD_REACTORS
330
C
102
}
330
C
100
AcDbDictionary
281
     1
  3
2dWireframe
350
2F
  3
Basic
350
2E
  3
Brighten
350
35
  3
ColorChange
350
39
  3
Conceptual
350
32
  3
Dim
350
34
  3
EdgeColorOff
350
41
  3
Facepattern
350
38
  3
Flat
350
2A
  3
FlatWithEdges
350
2B
  3
Gouraud
350
2C
  3
GouraudWithEdges
350
2D
  3
Hidden
350
31
  3
JitterOff
350
3F
  3
Linepattern
350
37
  3
OverhangOff
350
40
  3
Realistic
350
33
  3
Shaded
350
3E
  3
Shaded with edges
350
3D
  3
Shades of Gray
350
3A
  3
Sketchy
350
3B
  3
Thicken
350
36
  3
Wireframe
350
30
  3
X-Ray
350
3C
  0
XRECORD
  5
323
102
{ACAD_REACTORS
330
C
102
}
330
C
100
AcDbXrecord
280
     1
 90
        1
330
65
  0
DICTIONARY
  5
31B
102
{ACAD_REACTORS
330
C
102
}
330
C
100
AcDbDictionary
281
     1
  3
CANNOSCALE
350
320
  3
CMLEADERSTYLE
350
31D
  3
CTABLESTYLE
350
31C
  3
CVIEWDETAILSTYLE
350
31E
  3
CVIEWSECTIONSTYLE
350
31F
  0
ACDBDETAILVIEWSTYLE
  5
6B
102
{ACAD_REACTORS
330
6A
102
}
330
6A
100
AcDbModelDocViewStyle
 70
     0
  3
Imperial24
290
     1
300
Imperial24
 90
        0
100
AcDbDetailViewStyle
 70
     0
 71
     0
 90
        3
 71
     1
340
55
 62
   256
 40
0.24
340
0
 62
   256
 40
0.24
300

 40
0.36
280
     3
 71
     2
340
5D
 90
       25
 62
   256
 71
     3
340
55
 62
   256
 40
0.24
 90
        1
 40
0.75
 90
        1
300
%<\AcVar ViewType \f "%tc1">% %<\AcVar ViewDetailId>%\PSCALE %<\AcVar ViewScale \f "%sn">%
 71
     4
340
5D
 90
       25
 62
   256
340
5D
 90
       25
 62
   256
280
     0
  0
LAYOUT
  5
6F
102
{ACAD_REACTORS
330
62
102
}
330
62
100
AcDbPlotSettings
  1

  2

  4

  6

 40
0.0
 41
0.0
 42
0.0
 43
0.0
 44
0.0
 45
0.0
 46
0.0
 47
0.0
 48
0.0
 49
0.0
140
0.0
141
0.0
142
1.0
143
1.0
 70
   688
 72
     0
 73
     0
 74
     5
  7

 75
    16
147
1.0
 76
     0
 77
     2
 78
   300
148
0.0
149
0.0
100
AcDbLayout
  1
Layout1
 70
     1
 71
     1
 10
0.0
 20
0.0
 11
12.0
 21
9.0
 12
0.0
 22
0.0
 32
0.0
 14
0.0
 24
0.0
 34
0.0
 15
0.0
 25
0.0
 35
0.0
146
0.0
 13
0.0
 23
0.0
 33
0.0
 16
1.0
 26
0.0
 36
0.0
 17
0.0
 27
1.0
 37
0.0
 76
     0
330
6C
  0
LAYOUT
  5
77
102
{ACAD_REACTORS
330
62
102
}
330
62
100
AcDbPlotSettings
  1

  2

  4

  6

 40
0.0
 41
0.0
 42
0.0
 43
0.0
 44
0.0
 45
0.0
 46
0.0
 47
0.0
 48
0.0
 49
0.0
140
0.0
141
0.0
142
1.0
143
1.0
 70
   688
 72
     0
 73
     0
 74
     5
  7

 75
    16
147
1.0
 76
     0
 77
     2
 78
   300
148
0.0
149
0.0
100
AcDbLayout
  1
Layout2
 70
     1
 71
     2
 10
0.0
 20
0.0
 11
12.0
 21
9.0
 12
0.0
 22
0.0
 32
0.0
 14
0.0
 24
0.0
 34
0.0
 15
0.0
 25
0.0
 35
0.0
146
0.0
 13
0.0
 23
0.0
 33
0.0
 16
1.0
 26
0.0
 36
0.0
 17
0.0
 27
1.0
 37
0.0
 76
     0
330
74
  0
LAYOUT
  5
73
102
{ACAD_REACTORS
330
62
102
}
330
62
100
AcDbPlotSettings
  1

  2

  4

  6

 40
0.0
 41
0.0
 42
0.0
 43
0.0
 44
0.0
 45
0.0
 46
0.0
 47
0.0
 48
0.0
 49
0.0
140
0.0
141
0.0
142
1.0
143
1.0
 70
  1712
 72
     0
 73
     0
 74
     0
  7

 75
     0
147
1.0
 76
     0
 77
     2
 78
   300
148
0.0
149
0.0
100
AcDbLayout
  1
Model
 70
     1
 71
     0
 10
0.0
 20
0.0
 11
12.0
 21
9.0
 12
0.0
 22
0.0
 32
0.0
 14
0.0
 24
0.0
 34
0.0
 15
0.0
 25
0.0
 35
0.0
146
0.0
 13
0.0
 23
0.0
 33
0.0
 16
1.0
 26
0.0
 36
0.0
 17
0.0
 27
1.0
 37
0.0
 76
     0
330
70
  0
MATERIAL
  5
19
102
{ACAD_XDICTIONARY
360
1A
102
}
102
{ACAD_REACTORS
330
10
102
}
330
10
100
AcDbMaterial
  1
ByBlock
 72
     0
 43
0.0208333333333333
 43
0.0
 43
0.0
 43
0.0
 43
0.0
 43
0.0208333333333333
 43
0.0
 43
0.0
 43
0.0
 43
0.0
 43
1.0
 43
0.0
 43
0.0
 43
0.0
 43
0.0
 43
1.0
 77
     0
 47
0.0208333333333333
 47
0.0
 47
0.0
 47
0.0
 47
0.0
 47
0.0208333333333333
 47
0.0
 47
0.0
 47
0.0
 47
0.0
 47
1.0
 47
0.0
 47
0.0
 47
0.0
 47
0.0
 47
1.0
171
     0
 49
0.0208333333333333
 49
0.0
 49
0.0
 49
0.0
 49
0.0
 49
0.0208333333333333
 49
0.0
 49
0.0
 49
0.0
 49
0.0
 49
1.0
 49
0.0
 49
0.0
 49
0.0
 49
0.0
 49
1.0
175
     0
142
0.0208333333333333
142
0.0
142
0.0
142
0.0
142
0.0
142
0.0208333333333333
142
0.0
142
0.0
142
0.0
142
0.0
142
1.0
142
0.0
142
0.0
142
0.0
142
0.0
142
1.0
179
     0
144
0.0208333333333333
144
0.0
144
0.0
144
0.0
144
0.0
144
0.0208333333333333
144
0.0
144
0.0
144
0.0
144
0.0
144
1.0
144
0.0
144
0.0
144
0.0
144
0.0
144
1.0
147
0.0208333333333333
147
0.0
147
0.0
147
0.0
147
0.0
147
0.0208333333333333
147
0.0
147
0.0
147
0.0
147
0.0
147
1.0
147
0.0
147
0.0
147
0.0
147
0.0
147
1.0
  0
MATERIAL
  5
11
102
{ACAD_XDICTIONARY
360
12
102
}
102
{ACAD_REACTORS
330
10
102
}
330
10
100
AcDbMaterial
  1
ByLayer
 72
     0
 43
0.0208333333333333
 43
0.0
 43
0.0
 43
0.0
 43
0.0
 43
0.0208333333333333
 43
0.0
 43
0.0
 43
0.0
 43
0.0
 43
1.0
 43
0.0
 43
0.0
 43
0.0
 43
0.0
 43
1.0
 77
     0
 47
0.0208333333333333
 47
0.0
 47
0.0
 47
0.0
 47
0.0
 47
0.0208333333333333
 47
0.0
 47
0.0
 47
0.0
 47
0.0
 47
1.0
 47
0.0
 47
0.0
 47
0.0
 47
0.0
 47
1.0
171
     0
 49
0.0208333333333333
 49
0.0
 49
0.0
 49
0.0
 49
0.0
 49
0.0208333333333333
 49
0.0
 49
0.0
 49
0.0
 49
0.0
 49
1.0
 49
0.0
 49
0.0
 49
0.0
 49
0.0
 49
1.0
175
     0
142
0.0208333333333333
142
0.0
142
0.0
142
0.0
142
0.0
142
0.0208333333333333
142
0.0
142
0.0
142
0.0
142
0.0
142
1.0
142
0.0
142
0.0
142
0.0
142
0.0
142
1.0
179
     0
144
0.0208333333333333
144
0.0
144
0.0
144
0.0
144
0.0
144
0.0208333333333333
144
0.0
144
0.0
144
0.0
144
0.0
144
1.0
144
0.0
144
0.0
144
0.0
144
0.0
144
1.0
147
0.0208333333333333
147
0.0
147
0.0
147
0.0
147
0.0
147
0.0208333333333333
147
0.0
147
0.0
147
0.0
147
0.0
147
1.0
147
0.0
147
0.0
147
0.0
147
0.0
147
1.0
  0
MATERIAL
  5
21
102
{ACAD_XDICTIONARY
360
22
102
}
102
{ACAD_REACTORS
330
10
102
}
330
10
100
AcDbMaterial
  1
Global
 72
     0
 43
0.0208333333333333
 43
0.0
 43
0.0
 43
0.0
 43
0.0
 43
0.0208333333333333
 43
0.0
 43
0.0
 43
0.0
 43
0.0
 43
1.0
 43
0.0
 43
0.0
 43
0.0
 43
0.0
 43
1.0
 77
     0
 47
0.0208333333333333
 47
0.0
 47
0.0
 47
0.0
 47
0.0
 47
0.0208333333333333
 47
0.0
 47
0.0
 47
0.0
 47
0.0
 47
1.0
 47
0.0
 47
0.0
 47
0.0
 47
0.0
 47
1.0
171
     0
 49
0.0208333333333333
 49
0.0
 49
0.0
 49
0.0
 49
0.0
 49
0.0208333333333333
 49
0.0
 49
0.0
 49
0.0
 49
0.0
 49
1.0
 49
0.0
 49
0.0
 49
0.0
 49
0.0
 49
1.0
175
     0
142
0.0208333333333333
142
0.0
142
0.0
142
0.0
142
0.0
142
0.0208333333333333
142
0.0
142
0.0
142
0.0
142
0.0
142
1.0
142
0.0
142
0.0
142
0.0
142
0.0
142
1.0
179
     0
144
0.0208333333333333
144
0.0
144
0.0
144
0.0
144
0.0
144
0.0208333333333333
144
0.0
144
0.0
144
0.0
144
0.0
144
1.0
144
0.0
144
0.0
144
0.0
144
0.0
144
1.0
147
0.0208333333333333
147
0.0
147
0.0
147
0.0
147
0.0
147
0.0208333333333333
147
0.0
147
0.0
147
0.0
147
0.0
147
1.0
147
0.0
147
0.0
147
0.0
147
0.0
147
1.0
  0
MLEADERSTYLE
  5
67
102
{ACAD_REACTORS
330
66
102
}
330
66
100
AcDbMLeaderStyle
179
     2
170
     2
171
     1
172
     0
 90
        2
 40
0.0
 41
0.0
173
     1
 91
-1056964608
340
5B
 92
       -2
290
     1
 42
0.09
291
     1
 43
0.36
  3
Standard
 44
0.18
300

342
55
174
     1
178
     6
175
     1
176
     0
 93
-1056964608
 45
0.18
292
     0
297
     0
 46
0.18
 94
-1056964608
 47
1.0
 49
1.0
140
1.0
293
     1
141
0.0
294
     1
177
     0
142
1.0
295
     1
296
     0
143
0.125
271
     0
272
     9
273
     9
298
     1
  0
MLINESTYLE
  5
60
102
{ACAD_REACTORS
330
5F
102
}
330
5F
100
AcDbMlineStyle
  2
STANDARD
 70
     0
  3

 62
   256
 51
90.0
 52
90.0
 71
     2
 49
0.5
 62
   256
  6
BYLAYER
 49
-0.5
 62
   256
  6
BYLAYER
  0
ACDBPLACEHOLDER
  5
F
102
{ACAD_REACTORS
330
E
102
}
330
E
  0
SCALE
  5
43
102
{ACAD_REACTORS
330
42
102
}
330
42
100
AcDbScale
 70
     0
300
1:1
140
1.0
141
1.0
290
     1
  0
SCALE
  5
44
102
{ACAD_REACTORS
330
42
102
}
330
42
100
AcDbScale
 70
     0
300
1/128" = 1'-0"
140
0.0078125
141
12.0
290
     0
  0
SCALE
  5
45
102
{ACAD_REACTORS
330
42
102
}
330
42
100
AcDbScale
 70
     0
300
1/64" = 1'-0"
140
0.015625
141
12.0
290
     0
  0
SCALE
  5
46
102
{ACAD_REACTORS
330
42
102
}
330
42
100
AcDbScale
 70
     0
300
1/32" = 1'-0"
140
0.03125
141
12.0
290
     0
  0
SCALE
  5
47
102
{ACAD_REACTORS
330
42
102
}
330
42
100
AcDbScale
 70
     0
300
1/16" = 1'-0"
140
0.0625
141
12.0
290
     0
  0
SCALE
  5
48
102
{ACAD_REACTORS
330
42
102
}
330
42
100
AcDbScale
 70
     0
300
3/32" = 1'-0"
140
0.09375
141
12.0
290
     0
  0
SCALE
  5
49
102
{ACAD_REACTORS
330
42
102
}
330
42
100
AcDbScale
 70
     0
300
1/8" = 1'-0"
140
0.125
141
12.0
290
     0
  0
SCALE
  5
4A
102
{ACAD_REACTORS
330
42
102
}
330
42
100
AcDbScale
 70
     0
300
3/16" = 1'-0"
140
0.1875
141
12.0
290
     0
  0
SCALE
  5
4B
102
{ACAD_REACTORS
330
42
102
}
330
42
100
AcDbScale
 70
     0
300
1/4" = 1'-0"
140
0.25
141
12.0
290
     0
  0
SCALE
  5
4C
102
{ACAD_REACTORS
330
42
102
}
330
42
100
AcDbScale
 70
     0
300
3/8" = 1'-0"
140
0.375
141
12.0
290
     0
  0
SCALE
  5
4D
102
{ACAD_REACTORS
330
42
102
}
330
42
100
AcDbScale
 70
     0
300
1/2" = 1'-0"
140
0.5
141
12.0
290
     0
  0
SCALE
  5
4E
102
{ACAD_REACTORS
330
42
102
}
330
42
100
AcDbScale
 70
     0
300
3/4" = 1'-0"
140
0.75
141
12.0
290
     0
  0
SCALE
  5
4F
102
{ACAD_REACTORS
330
42
102
}
330
42
100
AcDbScale
 70
     0
300
1" = 1'-0"
140
1.0
141
12.0
290
     0
  0
SCALE
  5
50
102
{ACAD_REACTORS
330
42
102
}
330
42
100
AcDbScale
 70
     0
300
1-1/2" = 1'-0"
140
1.5
141
12.0
290
     0
  0
SCALE
  5
51
102
{ACAD_REACTORS
330
42
102
}
330
42
100
AcDbScale
 70
     0
300
3" = 1'-0"
140
3.0
141
12.0
290
     0
  0
SCALE
  5
52
102
{ACAD_REACTORS
330
42
102
}
330
42
100
AcDbScale
 70
     0
300
6" = 1'-0"
140
6.0
141
12.0
290
     0
  0
SCALE
  5
53
102
{ACAD_REACTORS
330
42
102
}
330
42
100
AcDbScale
 70
     0
300
1'-0" = 1'-0"
140
12.0
141
12.0
290
     0
  0
ACDBSECTIONVIEWSTYLE
  5
69
102
{ACAD_REACTORS
330
68
102
}
330
68
100
AcDbModelDocViewStyle
 70
     0
  3
Imperial24
290
     1
300
Imperial24
 90
        0
100
AcDbSectionViewStyle
 70
     0
 71
     0
 90
       78
 71
     1
340
55
 62
   256
 40
0.24
340
0
340
0
 62
   256
 40
0.24
300
I, O, Q, S, X, Z
 40
0.48
 90
        3
 40
0.18
 90
        1
 71
     2
340
5D
 90
       25
 62
   256
340
5D
 90
       50
 62
   256
 40
0.24
 40
0.0
 40
0.24
 71
     3
340
55
 62
   256
 40
0.24
 90
        1
 40
0.75
 90
        1
300
%<\AcVar ViewType \f "%tc1">% %<\AcVar ViewSectionStartId>%-%<\AcVar ViewSectionEndId>%\PSCALE %<\AcVar ViewScale \f "%sn">%
 71
     4
 62
   256
 62
   257
300
ANSI31
 40
1.0
 90
        0
290
     0
290
     0
 90
        6
 40
0.0
 40
1.570796326794896
 40
0.2617993877991494
 40
1.308996938995747
 40
-0.2617993877991494
 40
1.832595714594046
  0
TABLESTYLE
  5
65
102
{ACAD_XDICTIONARY
360
321
102
}
102
{ACAD_REACTORS
330
64
102
}
330
64
100
AcDbTableStyle
280
     0
  3
Standard
 70
     0
 71
     0
 40
0.06
 41
0.06
280
     0
281
     0
  7
Standard
140
0.18
170
     2
 62
     0
 63
     7
283
     0
 90
      512
 91
        0
  1

274
    -2
284
     1
 64
     0
275
    -2
285
     1
 65
     0
276
    -2
286
     1
 66
     0
277
    -2
287
     1
 67
     0
278
    -2
288
     1
 68
     0
279
    -2
289
     1
 69
     0
  7
Standard
140
0.25
170
     5
 62
     0
 63
     7
283
     0
 90
      512
 91
        0
  1

274
    -2
284
     1
 64
     0
275
    -2
285
     1
 65
     0
276
    -2
286
     1
 66
     0
277
    -2
287
     1
 67
     0
278
    -2
288
     1
 68
     0
279
    -2
289
     1
 69
     0
  7
Standard
140
0.18
170
     5
 62
     0
 63
     7
283
     0
 90
      512
 91
        0
  1

274
    -2
284
     1
 64
     0
275
    -2
285
     1
 65
     0
276
    -2
286
     1
 66
     0
277
    -2
287
     1
 67
     0
278
    -2
288
     1
 68
     0
279
    -2
289
     1
 69
     0
  0
VISUALSTYLE
  5
2F
102
{ACAD_REACTORS
330
29
102
}
330
29
100
AcDbVisualStyle
  2
2dWireframe
 70
     4
177
     3
291
     0
 70
    58
 90
        0
176
     1
 90
        2
176
     1
 90
        0
176
     1
 90
        0
176
     1
 40
0.6
176
     1
 40
30.0
176
     1
 62
     7
420
 16777215
176
     1
 90
        1
176
     1
 90
        4
176
     1
 62
     7
176
     1
 62
   257
176
     1
 90
        1
176
     1
 90
        1
176
     1
 40
1.0
176
     1
 90
        0
176
     1
 62
   257
176
     1
 40
1.0
176
     1
 90
        1
176
     1
 90
        6
176
     1
 90
        2
176
     1
 62
     7
176
     1
 90
        5
176
     1
 90
        0
176
     1
 90
        0
176
     1
290
     0
176
     1
 90
        1
176
     1
 40
0.0
176
     1
 90
        0
176
     1
290
     1
176
     1
290
     1
176
     1
290
     0
176
     1
290
     0
176
     1
290
     0
176
     1
290
     0
176
     1
290
     0
176
     1
290
     0
176
     1
290
     0
176
     1
 90
       50
176
     1
 40
0.0
176
     1
 40
1.0
176
     1
 90
        0
176
     1
 62
    18
420
        0
176
     1
 90
       50
176
     1
 90
        3
176
     1
 62
     5
420
      255
176
     1
290
     0
176
     1
 90
       50
176
     1
 90
       50
176
     1
 90
       50
176
     1
290
     0
176
     1
 90
       50
176
     1
 62
   256
176
     0
 40
1.0
176
     0
 90
        2
176
     1
  1
strokes_ogs.tif
176
     1
290
     0
176
     1
 40
1.0
176
     1
 40
1.0
176
     1
  0
VISUALSTYLE
  5
2E
102
{ACAD_REACTORS
330
29
102
}
330
29
100
AcDbVisualStyle
  2
Basic
 70
     7
177
     3
291
     1
 70
    58
 90
        1
176
     1
 90
        0
176
     1
 90
        1
176
     1
 90
        0
176
     1
 40
0.6
176
     1
 40
30.0
176
     1
 62
     7
420
 16777215
176
     1
 90
        0
176
     1
 90
        4
176
     1
 62
     7
176
     1
 62
   257
176
     1
 90
        1
176
     1
 90
        1
176
     1
 40
1.0
176
     1
 90
        8
176
     1
 62
     7
176
     1
 40
1.0
176
     1
 90
        1
176
     1
 90
        6
176
     1
 90
        2
176
     1
 62
     7
176
     1
 90
        5
176
     1
 90
        0
176
     1
 90
        0
176
     1
290
     0
176
     1
 90
        1
176
     1
 40
0.0
176
     1
 90
        0
176
     1
290
     0
176
     1
290
     1
176
     1
290
     1
176
     1
290
     0
176
     1
290
     0
176
     1
290
     0
176
     1
290
     0
176
     1
290
     0
176
     1
290
     0
176
     1
 90
       50
176
     1
 40
0.0
176
     1
 40
1.0
176
     1
 90
        0
176
     1
 62
    18
420
        0
176
     1
 90
       50
176
     1
 90
        3
176
     1
 62
     5
420
      255
176
     1
290
     0
176
     1
 90
       50
176
     1
 90
       50
176
     1
 90
       50
176
     1
290
     0
176
     1
 90
       50
176
     1
 62
   256
176
     0
 40
1.0
176
     0
 90
        2
176
     1
  1
strokes_ogs.tif
176
     1
290
     0
176
     1
 40
1.0
176
     1
 40
1.0
176
     1
  0
VISUALSTYLE
  5
35
102
{ACAD_REACTORS
330
29
102
}
330
29
100
AcDbVisualStyle
  2
Brighten
 70
    12
177
     3
291
     1
 70
    58
 90
        2
176
     1
 90
        2
176
     1
 90
        0
176
     1
 90
        0
176
     1
 40
0.6
176
     1
 40
30.0
176
     1
 62
     7
420
 16777215
176
     1
 90
        1
176
     1
 90
        4
176
     1
 62
     7
176
     1
 62
   257
176
     1
 90
        1
176
     1
 90
        1
176
     1
 40
1.0
176
     1
 90
        8
176
     1
 62
     7
176
     1
 40
1.0
176
     1
 90
        1
176
     1
 90
        6
176
     1
 90
        2
176
     1
 62
     7
176
     1
 90
        5
176
     1
 90
        0
176
     1
 90
        0
176
     1
290
     0
176
     1
 90
        1
176
     1
 40
50.0
176
     1
 90
        0
176
     1
290
     0
176
     1
290
     1
176
     1
290
     1
176
     1
290
     0
176
     1
290
     0
176
     1
290
     0
176
     1
290
     0
176
     1
290
     0
176
     1
290
     0
176
     1
 90
       50
176
     1
 40
0.0
176
     1
 40
1.0
176
     1
 90
        0
176
     1
 62
    18
420
        0
176
     1
 90
       50
176
     1
 90
        3
176
     1
 62
     5
420
      255
176
     1
290
     0
176
     1
 90
       50
176
     1
 90
       50
176
     1
 90
       50
176
     1
290
     0
176
     1
 90
       50
176
     1
 62
   256
176
     0
 40
1.0
176
     0
 90
        2
176
     1
  1
strokes_ogs.tif
176
     1
290
     0
176
     1
 40
1.0
176
     1
 40
1.0
176
     1
  0
VISUALSTYLE
  5
39
102
{ACAD_REACTORS
330
29
102
}
330
29
100
AcDbVisualStyle
  2
ColorChange
 70
    16
177
     3
291
     1
 70
    58
 90
        2
176
     1
 90
        2
176
     1
 90
        3
176
     1
 90
        0
176
     1
 40
0.6
176
     1
 40
30.0
176
     1
 62
     8
420
  8421504
176
     1
 90
        1
176
     1
 90
        4
176
     1
 62
     7
176
     1
 62
   257
176
     1
 90
        1
176
     1
 90
        1
176
     1
 40
1.0
176
     1
 90
        8
176
     1
 62
     8
420
  8421504
176
     1
 40
1.0
176
     1
 90
        1
176
     1
 90
        6
176
     1
 90
        2
176
     1
 62
     7
176
     1
 90
        5
176
     1
 90
        0
176
     1
 90
        0
176
     1
290
     0
176
     1
 90
        1
176
     1
 40
0.0
176
     1
 90
        0
176
     1
290
     0
176
     1
290
     1
176
     1
290
     1
176
     1
290
     0
176
     1
290
     0
176
     1
290
     0
176
     1
290
     0
176
     1
290
     0
176
     1
290
     0
176
     1
 90
       50
176
     1
 40
0.0
176
     1
 40
1.0
176
     1
 90
        0
176
     1
 62
    18
420
        0
176
     1
 90
       50
176
     1
 90
        3
176
     1
 62
     5
420
      255
176
     1
290
     0
176
     1
 90
       50
176
     1
 90
       50
176
     1
 90
       50
176
     1
290
     0
176
     1
 90
       50
176
     1
 62
   256
176
     0
 40
1.0
176
     0
 90
        2
176
     1
  1
strokes_ogs.tif
176
     1
290
     0
176
     1
 40
1.0
176
     1
 40
1.0
176
     1
  0
VISUALSTYLE
  5
32
102
{ACAD_REACTORS
330
29
102
}
330
29
100
AcDbVisualStyle
  2
Conceptual
 70
     9
177
     3
291
     0
 70
    58
 90
        3
176
     1
 90
        2
176
     1
 90
        0
176
     1
 90
        0
176
     1
 40
0.6
176
     1
 40
30.0
176
     1
 62
     7
420
 16777215
176
     1
 90
        2
176
     1
 90
        2
176
     1
 62
     7
176
     1
 62
   257
176
     1
 90
        1
176
     1
 90
        1
176
     1
 40
179.0
176
     1
 90
        8
176
     1
 62
     7
176
     1
 40
1.0
176
     1
 90
        1
176
     1
 90
        6
176
     1
 90
        2
176
     1
 62
     7
176
     1
 90
        3
176
     1
 90
        0
176
     1
 90
        0
176
     1
290
     0
176
     1
 90
        1
176
     1
 40
0.0
176
     1
 90
        0
176
     1
290
     0
176
     1
290
     1
176
     1
290
     1
176
     1
290
     0
176
     1
290
     0
176
     1
290
     0
176
     1
290
     0
176
     1
290
     0
176
     1
290
     0
176
     1
 90
       50
176
     1
 40
0.0
176
     1
 40
1.0
176
     1
 90
        0
176
     1
 62
    18
420
        0
176
     1
 90
       50
176
     1
 90
        3
176
     1
 62
     5
420
      255
176
     1
290
     0
176
     1
 90
       50
176
     1
 90
       50
176
     1
 90
       50
176
     1
290
     0
176
     1
 90
       50
176
     1
 62
   256
176
     0
 40
1.0
176
     0
 90
        2
176
     1
  1
strokes_ogs.tif
176
     1
290
     0
176
     1
 40
1.0
176
     1
 40
1.0
176
     1
  0
VISUALSTYLE
  5
34
102
{ACAD_REACTORS
330
29
102
}
330
29
100
AcDbVisualStyle
  2
Dim
 70
    11
177
     3
291
     1
 70
    58
 90
        2
176
     1
 90
        2
176
     1
 90
        0
176
     1
 90
        0
176
     1
 40
0.6
176
     1
 40
30.0
176
     1
 62
     7
420
 16777215
176
     1
 90
        1
176
     1
 90
        4
176
     1
 62
     7
176
     1
 62
   257
176
     1
 90
        1
176
     1
 90
        1
176
     1
 40
1.0
176
     1
 90
        8
176
     1
 62
     7
176
     1
 40
1.0
176
     1
 90
        1
176
     1
 90
        6
176
     1
 90
        2
176
     1
 62
     7
176
     1
 90
        5
176
     1
 90
        0
176
     1
 90
        0
176
     1
290
     0
176
     1
 90
        1
176
     1
 40
-50.0
176
     1
 90
        0
176
     1
290
     0
176
     1
290
     1
176
     1
290
     1
176
     1
290
     0
176
     1
290
     0
176
     1
290
     0
176
     1
290
     0
176
     1
290
     0
176
     1
290
     0
176
     1
 90
       50
176
     1
 40
0.0
176
     1
 40
1.0
176
     1
 90
        0
176
     1
 62
    18
420
        0
176
     1
 90
       50
176
     1
 90
        3
176
     1
 62
     5
420
      255
176
     1
290
     0
176
     1
 90
       50
176
     1
 90
       50
176
     1
 90
       50
176
     1
290
     0
176
     1
 90
       50
176
     1
 62
   256
176
     0
 40
1.0
176
     0
 90
        2
176
     1
  1
strokes_ogs.tif
176
     1
290
     0
176
     1
 40
1.0
176
     1
 40
1.0
176
     1
  0
VISUALSTYLE
  5
41
102
{ACAD_REACTORS
330
29
102
}
330
29
100
AcDbVisualStyle
  2
EdgeColorOff
 70
    22
177
     3
291
     1
 70
    58
 90
        2
176
     0
 90
        2
176
     0
 90
        0
176
     0
 90
        0
176
     0
 40
0.6
176
     0
 40
30.0
176
     0
 62
     7
420
 16777215
176
     0
 90
        1
176
     0
 90
        4
176
     0
 62
     7
176
     0
 62
   257
176
     0
 90
        1
176
     0
 90
        1
176
     0
 40
1.0
176
     0
 90
        8
176
     2
 62
     7
176
     0
 40
1.0
176
     0
 90
        1
176
     0
 90
        6
176
     0
 90
        2
176
     0
 62
     7
176
     0
 90
        5
176
     0
 90
        0
176
     0
 90
        0
176
     0
290
     0
176
     0
 90
        1
176
     0
 40
0.0
176
     0
 90
        0
176
     0
290
     0
176
     0
290
     1
176
     0
290
     1
176
     0
290
     0
176
     0
290
     0
176
     0
290
     0
176
     0
290
     0
176
     0
290
     0
176
     0
290
     0
176
     0
 90
       50
176
     0
 40
0.0
176
     0
 40
1.0
176
     0
 90
        0
176
     0
 62
    18
420
        0
176
     0
 90
       50
176
     0
 90
        3
176
     0
 62
     5
420
      255
176
     0
290
     0
176
     0
 90
       50
176
     0
 90
       50
176
     0
 90
       50
176
     0
290
     0
176
     0
 90
       50
176
     0
 62
   256
176
     0
 40
1.0
176
     0
 90
        2
176
     0
  1
strokes_ogs.tif
176
     0
290
     0
176
     0
 40
1.0
176
     0
 40
1.0
176
     0
  0
VISUALSTYLE
  5
38
102
{ACAD_REACTORS
330
29
102
}
330
29
100
AcDbVisualStyle
  2
Facepattern
 70
    15
177
     3
291
     1
 70
    58
 90
        2
176
     1
 90
        2
176
     1
 90
        0
176
     1
 90
        0
176
     1
 40
0.6
176
     1
 40
30.0
176
     1
 62
     7
420
 16777215
176
     1
 90
        1
176
     1
 90
        4
176
     1
 62
     7
176
     1
 62
   257
176
     1
 90
        1
176
     1
 90
        1
176
     1
 40
1.0
176
     1
 90
        8
176
     1
 62
     7
176
     1
 40
1.0
176
     1
 90
        1
176
     1
 90
        6
176
     1
 90
        2
176
     1
 62
     7
176
     1
 90
        5
176
     1
 90
        0
176
     1
 90
        0
176
     1
290
     0
176
     1
 90
        1
176
     1
 40
0.0
176
     1
 90
        0
176
     1
290
     0
176
     1
290
     1
176
     1
290
     1
176
     1
290
     0
176
     1
290
     0
176
     1
290
     0
176
     1
290
     0
176
     1
290
     0
176
     1
290
     0
176
     1
 90
       50
176
     1
 40
0.0
176
     1
 40
1.0
176
     1
 90
        0
176
     1
 62
    18
420
        0
176
     1
 90
       50
176
     1
 90
        3
176
     1
 62
     5
420
      255
176
     1
290
     0
176
     1
 90
       50
176
     1
 90
       50
176
     1
 90
       50
176
     1
290
     0
176
     1
 90
       50
176
     1
 62
   256
176
     0
 40
1.0
176
     0
 90
        2
176
     1
  1
strokes_ogs.tif
176
     1
290
     0
176
     1
 40
1.0
176
     1
 40
1.0
176
     1
  0
VISUALSTYLE
  5
2A
102
{ACAD_REACTORS
330
29
102
}
330
29
100
AcDbVisualStyle
  2
Flat
 70
     0
177
     3
291
     1
 70
    58
 90
        2
176
     1
 90
        1
176
     1
 90
        1
176
     1
 90
        2
176
     1
 40
0.6
176
     1
 40
30.0
176
     1
 62
     7
420
 16777215
176
     1
 90
        0
176
     1
 90
        0
176
     1
 62
     7
176
     1
 62
   257
176
     1
 90
        1
176
     1
 90
        1
176
     1
 40
1.0
176
     1
 90
        8
176
     1
 62
     7
176
     1
 40
1.0
176
     1
 90
        1
176
     1
 90
        6
176
     1
 90
        2
176
     1
 62
     7
176
     1
 90
        5
176
     1
 90
        0
176
     1
 90
        0
176
     1
290
     0
176
     1
 90
       13
176
     1
 40
0.0
176
     1
 90
        0
176
     1
290
     0
176
     1
290
     1
176
     1
290
     1
176
     1
290
     0
176
     1
290
     0
176
     1
290
     0
176
     1
290
     0
176
     1
290
     0
176
     1
290
     0
176
     1
 90
       50
176
     1
 40
0.0
176
     1
 40
1.0
176
     1
 90
        0
176
     1
 62
    18
420
        0
176
     1
 90
       50
176
     1
 90
        3
176
     1
 62
     5
420
      255
176
     1
290
     0
176
     1
 90
       50
176
     1
 90
       50
176
     1
 90
       50
176
     1
290
     0
176
     1
 90
       50
176
     1
 62
   256
176
     0
 40
1.0
176
     0
 90
        2
176
     1
  1
strokes_ogs.tif
176
     1
290
     0
176
     1
 40
1.0
176
     1
 40
1.0
176
     1
  0
VISUALSTYLE
  5
2B
102
{ACAD_REACTORS
330
29
102
}
330
29
100
AcDbVisualStyle
  2
FlatWithEdges
 70
     1
177
     3
291
     1
 70
    58
 90
        2
176
     1
 90
        1
176
     1
 90
        1
176
     1
 90
        2
176
     1
 40
0.6
176
     1
 40
30.0
176
     1
 62
     7
420
 16777215
176
     1
 90
        1
176
     1
 90
        0
176
     1
 62
     7
176
     1
 62
   257
176
     1
 90
        1
176
     1
 90
        1
176
     1
 40
1.0
176
     1
 90
        0
176
     1
 62
   257
176
     1
 40
1.0
176
     1
 90
        1
176
     1
 90
        6
176
     1
 90
        2
176
     1
 62
     7
176
     1
 90
        5
176
     1
 90
        0
176
     1
 90
        0
176
     1
290
     0
176
     1
 90
       13
176
     1
 40
0.0
176
     1
 90
        0
176
     1
290
     0
176
     1
290
     1
176
     1
290
     1
176
     1
290
     0
176
     1
290
     0
176
     1
290
     0
176
     1
290
     0
176
     1
290
     0
176
     1
290
     0
176
     1
 90
       50
176
     1
 40
0.0
176
     1
 40
1.0
176
     1
 90
        0
176
     1
 62
    18
420
        0
176
     1
 90
       50
176
     1
 90
        3
176
     1
 62
     5
420
      255
176
     1
290
     0
176
     1
 90
       50
176
     1
 90
       50
176
     1
 90
       50
176
     1
290
     0
176
     1
 90
       50
176
     1
 62
   256
176
     0
 40
1.0
176
     0
 90
        2
176
     1
  1
strokes_ogs.tif
176
     1
290
     0
176
     1
 40
1.0
176
     1
 40
1.0
176
     1
  0
VISUALSTYLE
  5
2C
102
{ACAD_REACTORS
330
29
102
}
330
29
100
AcDbVisualStyle
  2
Gouraud
 70
     2
177
     3
291
     1
 70
    58
 90
        2
176
     1
 90
        2
176
     1
 90
        1
176
     1
 90
        2
176
     1
 40
0.6
176
     1
 40
30.0
176
     1
 62
     7
420
 16777215
176
     1
 90
        0
176
     1
 90
        0
176
     1
 62
     7
176
     1
 62
   257
176
     1
 90
        1
176
     1
 90
        1
176
     1
 40
1.0
176
     1
 90
        0
176
     1
 62
     7
176
     1
 40
1.0
176
     1
 90
        1
176
     1
 90
        6
176
     1
 90
        2
176
     1
 62
     7
176
     1
 90
        5
176
     1
 90
        0
176
     1
 90
        0
176
     1
290
     0
176
     1
 90
       13
176
     1
 40
0.0
176
     1
 90
        0
176
     1
290
     0
176
     1
290
     1
176
     1
290
     1
176
     1
290
     0
176
     1
290
     0
176
     1
290
     0
176
     1
290
     0
176
     1
290
     0
176
     1
290
     0
176
     1
 90
       50
176
     1
 40
0.0
176
     1
 40
1.0
176
     1
 90
        0
176
     1
 62
    18
420
        0
176
     1
 90
       50
176
     1
 90
        3
176
     1
 62
     5
420
      255
176
     1
290
     0
176
     1
 90
       50
176
     1
 90
       50
176
     1
 90
       50
176
     1
290
     0
176
     1
 90
       50
176
     1
 62
   256
176
     0
 40
1.0
176
     0
 90
        2
176
     1
  1
strokes_ogs.tif
176
     1
290
     0
176
     1
 40
1.0
176
     1
 40
1.0
176
     1
  0
VISUALSTYLE
  5
2D
102
{ACAD_REACTORS
330
29
102
}
330
29
100
AcDbVisualStyle
  2
GouraudWithEdges
 70
     3
177
     3
291
     1
 70
    58
 90
        2
176
     1
 90
        2
176
     1
 90
        1
176
     1
 90
        2
176
     1
 40
0.6
176
     1
 40
30.0
176
     1
 62
     7
420
 16777215
176
     1
 90
        1
176
     1
 90
        0
176
     1
 62
     7
176
     1
 62
   257
176
     1
 90
        1
176
     1
 90
        1
176
     1
 40
1.0
176
     1
 90
        0
176
     1
 62
   257
176
     1
 40
1.0
176
     1
 90
        1
176
     1
 90
        6
176
     1
 90
        2
176
     1
 62
     7
176
     1
 90
        5
176
     1
 90
        0
176
     1
 90
        0
176
     1
290
     0
176
     1
 90
       13
176
     1
 40
0.0
176
     1
 90
        0
176
     1
290
     0
176
     1
290
     1
176
     1
290
     1
176
     1
290
     0
176
     1
290
     0
176
     1
290
     0
176
     1
290
     0
176
     1
290
     0
176
     1
290
     0
176
     1
 90
       50
176
     1
 40
0.0
176
     1
 40
1.0
176
     1
 90
        0
176
     1
 62
    18
420
        0
176
     1
 90
       50
176
     1
 90
        3
176
     1
 62
     5
420
      255
176
     1
290
     0
176
     1
 90
       50
176
     1
 90
       50
176
     1
 90
       50
176
     1
290
     0
176
     1
 90
       50
176
     1
 62
   256
176
     0
 40
1.0
176
     0
 90
        2
176
     1
  1
strokes_ogs.tif
176
     1
290
     0
176
     1
 40
1.0
176
     1
 40
1.0
176
     1
  0
VISUALSTYLE
  5
31
102
{ACAD_REACTORS
330
29
102
}
330
29
100
AcDbVisualStyle
  2
Hidden
 70
     6
177
     3
291
     0
 70
    58
 90
        1
176
     1
 90
        2
176
     1
 90
        2
176
     1
 90
        0
176
     1
 40
0.6
176
     1
 40
30.0
176
     1
 62
     7
420
 16777215
176
     1
 90
        2
176
     1
 90
        2
176
     1
 62
     7
176
     1
 62
   257
176
     1
 90
        2
176
     1
 90
        1
176
     1
 40
40.0
176
     1
 90
        0
176
     1
 62
   257
176
     1
 40
1.0
176
     1
 90
        1
176
     1
 90
        6
176
     1
 90
        2
176
     1
 62
     7
176
     1
 90
        3
176
     1
 90
        0
176
     1
 90
        0
176
     1
290
     0
176
     1
 90
        1
176
     1
 40
0.0
176
     1
 90
        0
176
     1
290
     0
176
     1
290
     1
176
     1
290
     1
176
     1
290
     0
176
     1
290
     0
176
     1
290
     0
176
     1
290
     0
176
     1
290
     0
176
     1
290
     0
176
     1
 90
       50
176
     1
 40
0.0
176
     1
 40
1.0
176
     1
 90
        0
176
     1
 62
    18
420
        0
176
     1
 90
       50
176
     1
 90
        3
176
     1
 62
     5
420
      255
176
     1
290
     0
176
     1
 90
       50
176
     1
 90
       50
176
     1
 90
       50
176
     1
290
     0
176
     1
 90
       50
176
     1
 62
   256
176
     0
 40
1.0
176
     0
 90
        2
176
     1
  1
strokes_ogs.tif
176
     1
290
     0
176
     1
 40
1.0
176
     1
 40
1.0
176
     1
  0
VISUALSTYLE
  5
3F
102
{ACAD_REACTORS
330
29
102
}
330
29
100
AcDbVisualStyle
  2
JitterOff
 70
    20
177
     3
291
     1
 70
    58
 90
        2
176
     0
 90
        2
176
     0
 90
        0
176
     0
 90
        0
176
     0
 40
0.6
176
     0
 40
30.0
176
     0
 62
     7
420
 16777215
176
     0
 90
        1
176
     0
 90
        4
176
     0
 62
     7
176
     0
 62
   257
176
     0
 90
        1
176
     0
 90
        1
176
     0
 40
1.0
176
     0
 90
       10
176
     2
 62
     7
176
     0
 40
1.0
176
     0
 90
        1
176
     0
 90
        6
176
     0
 90
        2
176
     0
 62
     7
176
     0
 90
        5
176
     0
 90
        0
176
     0
 90
        0
176
     0
290
     0
176
     0
 90
        1
176
     0
 40
0.0
176
     0
 90
        0
176
     0
290
     0
176
     0
290
     1
176
     0
290
     1
176
     0
290
     0
176
     0
290
     0
176
     0
290
     0
176
     0
290
     0
176
     0
290
     0
176
     0
290
     0
176
     0
 90
       50
176
     0
 40
0.0
176
     0
 40
1.0
176
     0
 90
        0
176
     0
 62
    18
420
        0
176
     0
 90
       50
176
     0
 90
        3
176
     0
 62
     5
420
      255
176
     0
290
     0
176
     0
 90
       50
176
     0
 90
       50
176
     0
 90
       50
176
     0
290
     0
176
     0
 90
       50
176
     0
 62
   256
176
     0
 40
1.0
176
     0
 90
        2
176
     0
  1
strokes_ogs.tif
176
     0
290
     0
176
     0
 40
1.0
176
     0
 40
1.0
176
     0
  0
VISUALSTYLE
  5
37
102
{ACAD_REACTORS
330
29
102
}
330
29
100
AcDbVisualStyle
  2
Linepattern
 70
    14
177
     3
291
     1
 70
    58
 90
        2
176
     1
 90
        2
176
     1
 90
        0
176
     1
 90
        0
176
     1
 40
0.6
176
     1
 40
30.0
176
     1
 62
     7
420
 16777215
176
     1
 90
        1
176
     1
 90
        4
176
     1
 62
     7
176
     1
 62
   257
176
     1
 90
        7
176
     1
 90
        7
176
     1
 40
1.0
176
     1
 90
        8
176
     1
 62
     7
176
     1
 40
1.0
176
     1
 90
        1
176
     1
 90
        6
176
     1
 90
        2
176
     1
 62
     7
176
     1
 90
        5
176
     1
 90
        0
176
     1
 90
        0
176
     1
290
     0
176
     1
 90
        1
176
     1
 40
0.0
176
     1
 90
        0
176
     1
290
     0
176
     1
290
     1
176
     1
290
     1
176
     1
290
     0
176
     1
290
     0
176
     1
290
     0
176
     1
290
     0
176
     1
290
     0
176
     1
290
     0
176
     1
 90
       50
176
     1
 40
0.0
176
     1
 40
1.0
176
     1
 90
        0
176
     1
 62
    18
420
        0
176
     1
 90
       50
176
     1
 90
        3
176
     1
 62
     5
420
      255
176
     1
290
     0
176
     1
 90
       50
176
     1
 90
       50
176
     1
 90
       50
176
     1
290
     0
176
     1
 90
       50
176
     1
 62
   256
176
     0
 40
1.0
176
     0
 90
        2
176
     1
  1
strokes_ogs.tif
176
     1
290
     0
176
     1
 40
1.0
176
     1
 40
1.0
176
     1
  0
VISUALSTYLE
  5
40
102
{ACAD_REACTORS
330
29
102
}
330
29
100
AcDbVisualStyle
  2
OverhangOff
 70
    21
177
     3
291
     1
 70
    58
 90
        2
176
     0
 90
        2
176
     0
 90
        0
176
     0
 90
        0
176
     0
 40
0.6
176
     0
 40
30.0
176
     0
 62
     7
420
 16777215
176
     0
 90
        1
176
     0
 90
        4
176
     0
 62
     7
176
     0
 62
   257
176
     0
 90
        1
176
     0
 90
        1
176
     0
 40
1.0
176
     0
 90
        9
176
     2
 62
     7
176
     0
 40
1.0
176
     0
 90
        1
176
     0
 90
        6
176
     0
 90
        2
176
     0
 62
     7
176
     0
 90
        5
176
     0
 90
        0
176
     0
 90
        0
176
     0
290
     0
176
     0
 90
        1
176
     0
 40
0.0
176
     0
 90
        0
176
     0
290
     0
176
     0
290
     1
176
     0
290
     1
176
     0
290
     0
176
     0
290
     0
176
     0
290
     0
176
     0
290
     0
176
     0
290
     0
176
     0
290
     0
176
     0
 90
       50
176
     0
 40
0.0
176
     0
 40
1.0
176
     0
 90
        0
176
     0
 62
    18
420
        0
176
     0
 90
       50
176
     0
 90
        3
176
     0
 62
     5
420
      255
176
     0
290
     0
176
     0
 90
       50
176
     0
 90
       50
176
     0
 90
       50
176
     0
290
     0
176
     0
 90
       50
176
     0
 62
   256
176
     0
 40
1.0
176
     0
 90
        2
176
     0
  1
strokes_ogs.tif
176
     0
290
     0
176
     0
 40
1.0
176
     0
 40
1.0
176
     0
  0
VISUALSTYLE
  5
33
102
{ACAD_REACTORS
330
29
102
}
330
29
100
AcDbVisualStyle
  2
Realistic
 70
     8
177
     3
291
     0
 70
    58
 90
        2
176
     1
 90
        3
176
     1
 90
        0
176
     1
 90
        2
176
     1
 40
0.6
176
     1
 40
30.0
176
     1
 62
     7
420
 16777215
176
     1
 90
        0
176
     1
 90
        0
176
     1
 62
     7
176
     1
 62
   257
176
     1
 90
        1
176
     1
 90
        1
176
     1
 40
1.0
176
     1
 90
        8
176
     1
 62
   257
176
     1
 40
1.0
176
     1
 90
        1
176
     1
 90
        6
176
     1
 90
        2
176
     1
 62
     7
176
     1
 90
        3
176
     1
 90
        0
176
     1
 90
        0
176
     1
290
     0
176
     1
 90
       13
176
     1
 40
0.0
176
     1
 90
        0
176
     1
290
     0
176
     1
290
     1
176
     1
290
     1
176
     1
290
     0
176
     1
290
     0
176
     1
290
     0
176
     1
290
     0
176
     1
290
     0
176
     1
290
     0
176
     1
 90
       50
176
     1
 40
0.0
176
     1
 40
1.0
176
     1
 90
        0
176
     1
 62
    18
420
        0
176
     1
 90
       50
176
     1
 90
        3
176
     1
 62
     5
420
      255
176
     1
290
     0
176
     1
 90
       50
176
     1
 90
       50
176
     1
 90
       50
176
     1
290
     0
176
     1
 90
       50
176
     1
 62
   256
176
     0
 40
1.0
176
     0
 90
        2
176
     1
  1
strokes_ogs.tif
176
     1
290
     0
176
     1
 40
1.0
176
     1
 40
1.0
176
     1
  0
VISUALSTYLE
  5
3E
102
{ACAD_REACTORS
330
29
102
}
330
29
100
AcDbVisualStyle
  2
Shaded
 70
    27
177
     3
291
     0
 70
    58
 90
        2
176
     1
 90
        2
176
     1
 90
        1
176
     1
 90
        2
176
     1
 40
0.6
176
     1
 40
30.0
176
     1
 62
     7
420
 16777215
176
     1
 90
        0
176
     1
 90
        4
176
     1
 62
     7
176
     1
 62
   257
176
     1
 90
        1
176
     1
 90
        1
176
     1
 40
1.0
176
     1
 90
        8
176
     1
 62
   257
176
     1
 40
1.0
176
     1
 90
        1
176
     1
 90
        6
176
     1
 90
        2
176
     1
 62
     8
420
  7895160
176
     1
 90
        3
176
     1
 90
        0
176
     1
 90
        0
176
     1
290
     0
176
     1
 90
        5
176
     1
 40
0.0
176
     1
 90
        0
176
     1
290
     0
176
     1
290
     1
176
     1
290
     1
176
     1
290
     0
176
     1
290
     0
176
     1
290
     0
176
     1
290
     0
176
     1
290
     0
176
     1
290
     0
176
     1
 90
       50
176
     1
 40
0.0
176
     1
 40
1.0
176
     1
 90
        0
176
     1
 62
    18
420
        0
176
     1
 90
       50
176
     1
 90
        3
176
     1
 62
     5
420
      255
176
     1
290
     0
176
     1
 90
       50
176
     1
 90
       50
176
     1
 90
       50
176
     1
290
     0
176
     1
 90
       50
176
     1
 62
   256
176
     0
 40
1.0
176
     0
 90
        2
176
     1
  1
strokes_ogs.tif
176
     1
290
     0
176
     1
 40
1.0
176
     1
 40
1.0
176
     1
  0
VISUALSTYLE
  5
3D
102
{ACAD_REACTORS
330
29
102
}
330
29
100
AcDbVisualStyle
  2
Shaded with edges
 70
    26
177
     3
291
     0
 70
    58
 90
        2
176
     1
 90
        2
176
     1
 90
        1
176
     1
 90
        2
176
     1
 40
0.6
176
     1
 40
30.0
176
     1
 62
     7
420
 16777215
176
     1
 90
        1
176
     1
 90
        2
176
     1
 62
     7
176
     1
 62
   257
176
     1
 90
        2
176
     1
 90
        1
176
     1
 40
1.0
176
     1
 90
        8
176
     1
 62
   257
176
     1
 40
1.0
176
     1
 90
        1
176
     1
 90
        6
176
     1
 90
        2
176
     1
 62
     7
176
     1
 90
        3
176
     1
 90
        0
176
     1
 90
        0
176
     1
290
     0
176
     1
 90
        5
176
     1
 40
0.0
176
     1
 90
        0
176
     1
290
     0
176
     1
290
     1
176
     1
290
     1
176
     1
290
     0
176
     1
290
     0
176
     1
290
     0
176
     1
290
     0
176
     1
290
     0
176
     1
290
     0
176
     1
 90
       50
176
     1
 40
0.0
176
     1
 40
1.0
176
     1
 90
        0
176
     1
 62
    18
420
        0
176
     1
 90
       50
176
     1
 90
        3
176
     1
 62
     5
420
      255
176
     1
290
     0
176
     1
 90
       50
176
     1
 90
       50
176
     1
 90
       50
176
     1
290
     0
176
     1
 90
       50
176
     1
 62
   256
176
     0
 40
1.0
176
     0
 90
        2
176
     1
  1
strokes_ogs.tif
176
     1
290
     0
176
     1
 40
1.0
176
     1
 40
1.0
176
     1
  0
VISUALSTYLE
  5
3A
102
{ACAD_REACTORS
330
29
102
}
330
29
100
AcDbVisualStyle
  2
Shades of Gray
 70
    23
177
     3
291
     0
 70
    58
 90
        2
176
     1
 90
        2
176
     1
 90
        3
176
     1
 90
        0
176
     1
 40
0.6
176
     1
 40
30.0
176
     1
 62
     7
420
 16777215
176
     1
 90
        2
176
     1
 90
        2
176
     1
 62
     7
176
     1
 62
     7
176
     1
 90
        1
176
     1
 90
        1
176
     1
 40
40.0
176
     1
 90
        8
176
     1
 62
     7
176
     1
 40
1.0
176
     1
 90
        1
176
     1
 90
        6
176
     1
 90
        2
176
     1
 62
     7
176
     1
 90
        3
176
     1
 90
        0
176
     1
 90
        0
176
     1
290
     0
176
     1
 90
        1
176
     1
 40
0.0
176
     1
 90
        0
176
     1
290
     0
176
     1
290
     1
176
     1
290
     1
176
     1
290
     0
176
     1
290
     0
176
     1
290
     0
176
     1
290
     0
176
     1
290
     0
176
     1
290
     0
176
     1
 90
       50
176
     1
 40
0.0
176
     1
 40
1.0
176
     1
 90
        0
176
     1
 62
    18
420
        0
176
     1
 90
       50
176
     1
 90
        3
176
     1
 62
     5
420
      255
176
     1
290
     0
176
     1
 90
       50
176
     1
 90
       50
176
     1
 90
       50
176
     1
290
     0
176
     1
 90
       50
176
     1
 62
   256
176
     0
 40
1.0
176
     0
 90
        2
176
     1
  1
strokes_ogs.tif
176
     1
290
     0
176
     1
 40
1.0
176
     1
 40
1.0
176
     1
  0
VISUALSTYLE
  5
3B
102
{ACAD_REACTORS
330
29
102
}
330
29
100
AcDbVisualStyle
  2
Sketchy
 70
    24
177
     3
291
     0
 70
    58
 90
        1
176
     1
 90
        2
176
     1
 90
        2
176
     1
 90
        0
176
     1
 40
0.6
176
     1
 40
30.0
176
     1
 62
     7
420
 16777215
176
     1
 90
        2
176
     1
 90
        2
176
     1
 62
     7
176
     1
 62
     7
176
     1
 90
        1
176
     1
 90
        1
176
     1
 40
40.0
176
     1
 90
       11
176
     1
 62
     7
176
     1
 40
1.0
176
     1
 90
        1
176
     1
 90
        6
176
     1
 90
        2
176
     1
 62
     7
176
     1
 90
        6
176
     1
 90
        0
176
     1
 90
        0
176
     1
290
     0
176
     1
 90
        1
176
     1
 40
0.0
176
     1
 90
        0
176
     1
290
     0
176
     1
290
     1
176
     1
290
     1
176
     1
290
     0
176
     1
290
     0
176
     1
290
     0
176
     1
290
     0
176
     1
290
     0
176
     1
290
     0
176
     1
 90
       50
176
     1
 40
0.0
176
     1
 40
1.0
176
     1
 90
        0
176
     1
 62
    18
420
        0
176
     1
 90
       50
176
     1
 90
        3
176
     1
 62
     5
420
      255
176
     1
290
     0
176
     1
 90
       50
176
     1
 90
       50
176
     1
 90
       50
176
     1
290
     0
176
     1
 90
       50
176
     1
 62
   256
176
     0
 40
1.0
176
     0
 90
        2
176
     1
  1
strokes_ogs.tif
176
     1
290
     0
176
     1
 40
1.0
176
     1
 40
1.0
176
     1
  0
VISUALSTYLE
  5
36
102
{ACAD_REACTORS
330
29
102
}
330
29
100
AcDbVisualStyle
  2
Thicken
 70
    13
177
     3
291
     1
 70
    58
 90
        2
176
     1
 90
        2
176
     1
 90
        0
176
     1
 90
        0
176
     1
 40
0.6
176
     1
 40
30.0
176
     1
 62
     7
420
 16777215
176
     1
 90
        1
176
     1
 90
        4
176
     1
 62
     7
176
     1
 62
   257
176
     1
 90
        1
176
     1
 90
        1
176
     1
 40
1.0
176
     1
 90
       12
176
     1
 62
     7
176
     1
 40
1.0
176
     1
 90
        1
176
     1
 90
        6
176
     1
 90
        2
176
     1
 62
     7
176
     1
 90
        5
176
     1
 90
        0
176
     1
 90
        0
176
     1
290
     0
176
     1
 90
        1
176
     1
 40
0.0
176
     1
 90
        0
176
     1
290
     0
176
     1
290
     1
176
     1
290
     1
176
     1
290
     0
176
     1
290
     0
176
     1
290
     0
176
     1
290
     0
176
     1
290
     0
176
     1
290
     0
176
     1
 90
       50
176
     1
 40
0.0
176
     1
 40
1.0
176
     1
 90
        0
176
     1
 62
    18
420
        0
176
     1
 90
       50
176
     1
 90
        3
176
     1
 62
     5
420
      255
176
     1
290
     0
176
     1
 90
       50
176
     1
 90
       50
176
     1
 90
       50
176
     1
290
     0
176
     1
 90
       50
176
     1
 62
   256
176
     0
 40
1.0
176
     0
 90
        2
176
     1
  1
strokes_ogs.tif
176
     1
290
     0
176
     1
 40
1.0
176
     1
 40
1.0
176
     1
  0
VISUALSTYLE
  5
30
102
{ACAD_REACTORS
330
29
102
}
330
29
100
AcDbVisualStyle
  2
Wireframe
 70
     5
177
     3
291
     0
 70
    58
 90
        0
176
     1
 90
        2
176
     1
 90
        0
176
     1
 90
        0
176
     1
 40
0.6
176
     1
 40
30.0
176
     1
 62
     7
420
 16777215
176
     1
 90
        1
176
     1
 90
        4
176
     1
 62
     7
176
     1
 62
   257
176
     1
 90
        1
176
     1
 90
        1
176
     1
 40
1.0
176
     1
 90
        0
176
     1
 62
   257
176
     1
 40
1.0
176
     1
 90
        1
176
     1
 90
        6
176
     1
 90
        2
176
     1
 62
     7
176
     1
 90
        3
176
     1
 90
        0
176
     1
 90
        0
176
     1
290
     0
176
     1
 90
        1
176
     1
 40
0.0
176
     1
 90
        0
176
     1
290
     0
176
     1
290
     1
176
     1
290
     1
176
     1
290
     0
176
     1
290
     0
176
     1
290
     0
176
     1
290
     0
176
     1
290
     0
176
     1
290
     0
176
     1
 90
       50
176
     1
 40
0.0
176
     1
 40
1.0
176
     1
 90
        0
176
     1
 62
    18
420
        0
176
     1
 90
       50
176
     1
 90
        3
176
     1
 62
     5
420
      255
176
     1
290
     0
176
     1
 90
       50
176
     1
 90
       50
176
     1
 90
       50
176
     1
290
     0
176
     1
 90
       50
176
     1
 62
   256
176
     0
 40
1.0
176
     0
 90
        2
176
     1
  1
strokes_ogs.tif
176
     1
290
     0
176
     1
 40
1.0
176
     1
 40
1.0
176
     1
  0
VISUALSTYLE
  5
3C
102
{ACAD_REACTORS
330
29
102
}
330
29
100
AcDbVisualStyle
  2
X-Ray
 70
    25
177
     3
291
     0
 70
    58
 90
        2
176
     1
 90
        2
176
     1
 90
        1
176
     1
 90
        1
176
     1
 40
0.5
176
     1
 40
30.0
176
     1
 62
     7
420
 16777215
176
     1
 90
        1
176
     1
 90
        0
176
     1
 62
     7
176
     1
 62
   257
176
     1
 90
        1
176
     1
 90
        1
176
     1
 40
1.0
176
     1
 90
        8
176
     1
 62
     7
176
     1
 40
1.0
176
     1
 90
        1
176
     1
 90
        6
176
     1
 90
        2
176
     1
 62
     7
176
     1
 90
        3
176
     1
 90
        0
176
     1
 90
        0
176
     1
290
     0
176
     1
 90
       13
176
     1
 40
0.0
176
     1
 90
        0
176
     1
290
     0
176
     1
290
     1
176
     1
290
     1
176
     1
290
     0
176
     1
290
     0
176
     1
290
     0
176
     1
290
     0
176
     1
290
     0
176
     1
290
     0
176
     1
 90
       50
176
     1
 40
0.0
176
     1
 40
1.0
176
     1
 90
        0
176
     1
 62
    18
420
        0
176
     1
 90
       50
176
     1
 90
        3
176
     1
 62
     5
420
      255
176
     1
290
     0
176
     1
 90
       50
176
     1
 90
       50
176
     1
 90
       50
176
     1
290
     0
176
     1
 90
       50
176
     1
 62
   256
176
     0
 40
1.0
176
     0
 90
        2
176
     1
  1
strokes_ogs.tif
176
     1
290
     0
176
     1
 40
1.0
176
     1
 40
1.0
176
     1
  0
DICTIONARYVAR
  5
320
102
{ACAD_REACTORS
330
31B
102
}
330
31B
100
DictionaryVariables
280
     0
  1
1:1
  0
DICTIONARYVAR
  5
31D
102
{ACAD_REACTORS
330
31B
102
}
330
31B
100
DictionaryVariables
280
     0
  1
STANDARD
  0
DICTIONARYVAR
  5
31C
102
{ACAD_REACTORS
330
31B
102
}
330
31B
100
DictionaryVariables
280
     0
  1
STANDARD
  0
DICTIONARYVAR
  5
31E
102
{ACAD_REACTORS
330
31B
102
}
330
31B
100
DictionaryVariables
280
     0
  1
Imperial24
  0
DICTIONARYVAR
  5
31F
102
{ACAD_REACTORS
330
31B
102
}
330
31B
100
DictionaryVariables
280
     0
  1
Imperial24
  0
DICTIONARY
  5
1A
330
19
100
AcDbDictionary
280
     1
281
     1
  3
BUMPTILE
360
1C
  3
DIFFUSETILE
360
1B
  3
OPACITYTILE
360
1F
  3
REFLECTIONTILE
360
1E
  3
REFRACTIONTILE
360
20
  3
SPECULARTILE
360
1D
  0
DICTIONARY
  5
12
330
11
100
AcDbDictionary
280
     1
281
     1
  3
BUMPTILE
360
14
  3
DIFFUSETILE
360
13
  3
OPACITYTILE
360
17
  3
REFLECTIONTILE
360
16
  3
REFRACTIONTILE
360
18
  3
SPECULARTILE
360
15
  0
DICTIONARY
  5
22
330
21
100
AcDbDictionary
280
     1
281
     1
  3
BUMPTILE
360
24
  3
DIFFUSETILE
360
23
  3
OPACITYTILE
360
27
  3
REFLECTIONTILE
360
26
  3
REFRACTIONTILE
360
28
  3
SPECULARTILE
360
25
  0
DICTIONARY
  5
321
330
65
100
AcDbDictionary
280
     1
281
     1
  3
ACAD_ROUNDTRIP_2008_TABLESTYLE_CELLSTYLEMAP
360
322
  0
XRECORD
  5
1C
102
{ACAD_REACTORS
330
1A
102
}
330
1A
100
AcDbXrecord
280
     1
270
     1
271
     1
  0
XRECORD
  5
1B
102
{ACAD_REACTORS
330
1A
102
}
330
1A
100
AcDbXrecord
280
     1
270
     1
271
     1
  0
XRECORD
  5
1F
102
{ACAD_REACTORS
330
1A
102
}
330
1A
100
AcDbXrecord
280
     1
270
     1
271
     1
  0
XRECORD
  5
1E
102
{ACAD_REACTORS
330
1A
102
}
330
1A
100
AcDbXrecord
280
     1
270
     1
271
     1
  0
XRECORD
  5
20
102
{ACAD_REACTORS
330
1A
102
}
330
1A
100
AcDbXrecord
280
     1
270
     1
271
     1
  0
XRECORD
  5
1D
102
{ACAD_REACTORS
330
1A
102
}
330
1A
100
AcDbXrecord
280
     1
270
     1
271
     1
  0
XRECORD
  5
14
102
{ACAD_REACTORS
330
12
102
}
330
12
100
AcDbXrecord
280
     1
270
     1
271
     1
  0
XRECORD
  5
13
102
{ACAD_REACTORS
330
12
102
}
330
12
100
AcDbXrecord
280
     1
270
     1
271
     1
  0
XRECORD
  5
17
102
{ACAD_REACTORS
330
12
102
}
330
12
100
AcDbXrecord
280
     1
270
     1
271
     1
  0
XRECORD
  5
16
102
{ACAD_REACTORS
330
12
102
}
330
12
100
AcDbXrecord
280
     1
270
     1
271
     1
  0
XRECORD
  5
18
102
{ACAD_REACTORS
330
12
102
}
330
12
100
AcDbXrecord
280
     1
270
     1
271
     1
  0
XRECORD
  5
15
102
{ACAD_REACTORS
330
12
102
}
330
12
100
AcDbXrecord
280
     1
270
     1
271
     1
  0
XRECORD
  5
24
102
{ACAD_REACTORS
330
22
102
}
330
22
100
AcDbXrecord
280
     1
270
     1
271
     1
  0
XRECORD
  5
23
102
{ACAD_REACTORS
330
22
102
}
330
22
100
AcDbXrecord
280
     1
270
     1
271
     1
  0
XRECORD
  5
27
102
{ACAD_REACTORS
330
22
102
}
330
22
100
AcDbXrecord
280
     1
270
     1
271
     1
  0
XRECORD
  5
26
102
{ACAD_REACTORS
330
22
102
}
330
22
100
AcDbXrecord
280
     1
270
     1
271
     1
  0
XRECORD
  5
28
102
{ACAD_REACTORS
330
22
102
}
330
22
100
AcDbXrecord
280
     1
270
     1
271
     1
  0
XRECORD
  5
25
102
{ACAD_REACTORS
330
22
102
}
330
22
100
AcDbXrecord
280
     1
270
     1
271
     1
  0
CELLSTYLEMAP
  5
322
102
{ACAD_REACTORS
330
321
102
}
330
321
100
AcDbCellStyleMap
 90
        3
300
CELLSTYLE
  1
TABLEFORMAT_BEGIN
 90
        5
170
     1
 91
        0
 92
    32768
 62
   257
 93
        1
300
CONTENTFORMAT
  1
CONTENTFORMAT_BEGIN
 90
        0
 91
        0
 92
      512
 93
        0
300

 40
0.0
140
1.0
 94
        5
 62
     0
340
55
144
0.25
309
CONTENTFORMAT_END
171
     0
 94
        0
309
TABLEFORMAT_END
  1
CELLSTYLE_BEGIN
 90
        1
 91
        1
300
_TITLE
309
CELLSTYLE_END
300
CELLSTYLE
  1
TABLEFORMAT_BEGIN
 90
        5
170
     1
 91
        0
 92
        0
 62
   257
 93
        1
300
CONTENTFORMAT
  1
CONTENTFORMAT_BEGIN
 90
        0
 91
        0
 92
      512
 93
        0
300

 40
0.0
140
1.0
 94
        5
 62
     0
340
55
144
0.18
309
CONTENTFORMAT_END
171
     0
 94
        0
309
TABLEFORMAT_END
  1
CELLSTYLE_BEGIN
 90
        2
 91
        1
300
_HEADER
309
CELLSTYLE_END
300
CELLSTYLE
  1
TABLEFORMAT_BEGIN
 90
        5
170
     1
 91
        0
 92
        0
 62
   257
 93
        1
300
CONTENTFORMAT
  1
CONTENTFORMAT_BEGIN
 90
        0
 91
        0
 92
      512
 93
        0
300

 40
0.0
140
1.0
 94
        2
 62
     0
340
55
144
0.18
309
CONTENTFORMAT_END
171
     0
 94
        0
309
TABLEFORMAT_END
  1
CELLSTYLE_BEGIN
 90
        3
 91
        2
300
_DATA
309
CELLSTYLE_END
  0
ENDSEC
  0
EOF
